  0
SECTION
  2
HEADER
  9
$ACADVER
  1
AC1018
  9
$ACADMAINTVER
 70
     0
  9
$DWGCODEPAGE
  3
ANSI_1252
  9
$COMMENTS
  1
File was created by ARCHline.XP2015
  9
$INSBASE
 10
0.0
 20
0.0
 30
0.0
  9
$EXTMIN
 10
2.091549295774598
 20
1.481514084507069
 30
0.0
  9
$EXTMAX
 10
2972.091549295775
 20
2101.481514084507
 30
0.0
  9
$LIMMIN
 10
0.0
 20
0.0
  9
$LIMMAX
 10
12.0
 20
9.0
  9
$ORTHOMODE
 70
     0
  9
$REGENMODE
 70
     1
  9
$FILLMODE
 70
     1
  9
$QTEXTMODE
 70
     0
  9
$MIRRTEXT
 70
     1
  9
$LTSCALE
 40
1.0
  9
$ATTMODE
 70
     1
  9
$TEXTSIZE
 40
0.2
  9
$TRACEWID
 40
0.05
  9
$TEXTSTYLE
  7
Standard
  9
$CLAYER
  8
0
  9
$CELTYPE
  6
ByLayer
  9
$CECOLOR
 62
   256
  9
$CELTSCALE
 40
1.0
  9
$DISPSILH
 70
     0
  9
$DIMSCALE
 40
1.0
  9
$DIMASZ
 40
0.18
  9
$DIMEXO
 40
0.0625
  9
$DIMDLI
 40
0.38
  9
$DIMRND
 40
0.0
  9
$DIMDLE
 40
0.0
  9
$DIMEXE
 40
0.18
  9
$DIMTP
 40
0.0
  9
$DIMTM
 40
0.0
  9
$DIMTXT
 40
0.18
  9
$DIMCEN
 40
0.09
  9
$DIMTSZ
 40
0.0
  9
$DIMTOL
 70
     0
  9
$DIMLIM
 70
     0
  9
$DIMTIH
 70
     1
  9
$DIMTOH
 70
     1
  9
$DIMSE1
 70
     0
  9
$DIMSE2
 70
     0
  9
$DIMTAD
 70
     0
  9
$DIMZIN
 70
     0
  9
$DIMBLK
  1

  9
$DIMASO
 70
     1
  9
$DIMSHO
 70
     1
  9
$DIMPOST
  1

  9
$DIMAPOST
  1

  9
$DIMALT
 70
     0
  9
$DIMALTD
 70
     2
  9
$DIMALTF
 40
25.4
  9
$DIMLFAC
 40
1.0
  9
$DIMTOFL
 70
     0
  9
$DIMTVP
 40
0.0
  9
$DIMTIX
 70
     0
  9
$DIMSOXD
 70
     0
  9
$DIMSAH
 70
     0
  9
$DIMBLK1
  1

  9
$DIMBLK2
  1

  9
$DIMSTYLE
  2
Standard
  9
$DIMCLRD
 70
     0
  9
$DIMCLRE
 70
     0
  9
$DIMCLRT
 70
     0
  9
$DIMTFAC
 40
1.0
  9
$DIMGAP
 40
0.09
  9
$DIMJUST
 70
     0
  9
$DIMSD1
 70
     0
  9
$DIMSD2
 70
     0
  9
$DIMTOLJ
 70
     1
  9
$DIMTZIN
 70
     0
  9
$DIMALTZ
 70
     0
  9
$DIMALTTZ
 70
     0
  9
$DIMUPT
 70
     0
  9
$DIMDEC
 70
     4
  9
$DIMTDEC
 70
     4
  9
$DIMALTU
 70
     2
  9
$DIMALTTD
 70
     2
  9
$DIMTXSTY
  7
Standard
  9
$DIMAUNIT
 70
     0
  9
$DIMADEC
 70
     0
  9
$DIMALTRND
 40
0.0
  9
$DIMAZIN
 70
     0
  9
$DIMDSEP
 70
    46
  9
$DIMATFIT
 70
     3
  9
$DIMFRAC
 70
     0
  9
$DIMLDRBLK
  1

  9
$DIMLUNIT
 70
     2
  9
$DIMLWD
 70
    -2
  9
$DIMLWE
 70
    -2
  9
$DIMTMOVE
 70
     0
  9
$LUNITS
 70
     2
  9
$LUPREC
 70
     4
  9
$SKETCHINC
 40
0.1
  9
$FILLETRAD
 40
0.5
  9
$AUNITS
 70
     0
  9
$AUPREC
 70
     0
  9
$MENU
  1
.
  9
$ELEVATION
 40
0.0
  9
$PELEVATION
 40
0.0
  9
$THICKNESS
 40
0.0
  9
$LIMCHECK
 70
     0
  9
$CHAMFERA
 40
0.0
  9
$CHAMFERB
 40
0.0
  9
$CHAMFERC
 40
0.0
  9
$CHAMFERD
 40
0.0
  9
$SKPOLY
 70
     0
  9
$TDCREATE
 40
2457527.571682754
  9
$TDUCREATE
 40
2457527.488349421
  9
$TDUPDATE
 40
2457527.571683565
  9
$TDUUPDATE
 40
2457527.488350232
  9
$TDINDWG
 40
0.0000000116
  9
$TDUSRTIMER
 40
0.0000000116
  9
$USRTIMER
 70
     1
  9
$ANGBASE
 50
0.0
  9
$ANGDIR
 70
     0
  9
$PDMODE
 70
     0
  9
$PDSIZE
 40
0.0
  9
$PLINEWID
 40
0.0
  9
$SPLFRAME
 70
     0
  9
$SPLINETYPE
 70
     6
  9
$SPLINESEGS
 70
     8
  9
$HANDSEED
  5
32C
  9
$SURFTAB1
 70
     6
  9
$SURFTAB2
 70
     6
  9
$SURFTYPE
 70
     6
  9
$SURFU
 70
     6
  9
$SURFV
 70
     6
  9
$UCSBASE
  2

  9
$UCSNAME
  2

  9
$UCSORG
 10
0.0
 20
0.0
 30
0.0
  9
$UCSXDIR
 10
1.0
 20
0.0
 30
0.0
  9
$UCSYDIR
 10
0.0
 20
1.0
 30
0.0
  9
$UCSORTHOREF
  2

  9
$UCSORTHOVIEW
 70
     0
  9
$UCSORGTOP
 10
0.0
 20
0.0
 30
0.0
  9
$UCSORGBOTTOM
 10
0.0
 20
0.0
 30
0.0
  9
$UCSORGLEFT
 10
0.0
 20
0.0
 30
0.0
  9
$UCSORGRIGHT
 10
0.0
 20
0.0
 30
0.0
  9
$UCSORGFRONT
 10
0.0
 20
0.0
 30
0.0
  9
$UCSORGBACK
 10
0.0
 20
0.0
 30
0.0
  9
$PUCSBASE
  2

  9
$PUCSNAME
  2

  9
$PUCSORG
 10
0.0
 20
0.0
 30
0.0
  9
$PUCSXDIR
 10
1.0
 20
0.0
 30
0.0
  9
$PUCSYDIR
 10
0.0
 20
1.0
 30
0.0
  9
$PUCSORTHOREF
  2

  9
$PUCSORTHOVIEW
 70
     0
  9
$PUCSORGTOP
 10
0.0
 20
0.0
 30
0.0
  9
$PUCSORGBOTTOM
 10
0.0
 20
0.0
 30
0.0
  9
$PUCSORGLEFT
 10
0.0
 20
0.0
 30
0.0
  9
$PUCSORGRIGHT
 10
0.0
 20
0.0
 30
0.0
  9
$PUCSORGFRONT
 10
0.0
 20
0.0
 30
0.0
  9
$PUCSORGBACK
 10
0.0
 20
0.0
 30
0.0
  9
$USERI1
 70
     0
  9
$USERI2
 70
     0
  9
$USERI3
 70
     0
  9
$USERI4
 70
     0
  9
$USERI5
 70
     0
  9
$USERR1
 40
0.0
  9
$USERR2
 40
0.0
  9
$USERR3
 40
0.0
  9
$USERR4
 40
0.0
  9
$USERR5
 40
0.0
  9
$WORLDVIEW
 70
     1
  9
$SHADEDGE
 70
     3
  9
$SHADEDIF
 70
    70
  9
$TILEMODE
 70
     1
  9
$MAXACTVP
 70
    64
  9
$PINSBASE
 10
0.0
 20
0.0
 30
0.0
  9
$PLIMCHECK
 70
     0
  9
$PEXTMIN
 10
1.000000000000000E+20
 20
1.000000000000000E+20
 30
1.000000000000000E+20
  9
$PEXTMAX
 10
-1.000000000000000E+20
 20
-1.000000000000000E+20
 30
-1.000000000000000E+20
  9
$PLIMMIN
 10
0.0
 20
0.0
  9
$PLIMMAX
 10
12.0
 20
9.0
  9
$UNITMODE
 70
     0
  9
$VISRETAIN
 70
     1
  9
$PLINEGEN
 70
     0
  9
$PSLTSCALE
 70
     1
  9
$TREEDEPTH
 70
  3020
  9
$CMLSTYLE
  2
Standard
  9
$CMLJUST
 70
     0
  9
$CMLSCALE
 40
1.0
  9
$PROXYGRAPHICS
 70
     1
  9
$MEASUREMENT
 70
     0
  9
$CELWEIGHT
370
    -1
  9
$ENDCAPS
280
     0
  9
$JOINSTYLE
280
     0
  9
$LWDISPLAY
290
     0
  9
$INSUNITS
 70
     1
  9
$HYPERLINKBASE
  1

  9
$STYLESHEET
  1

  9
$XEDIT
290
     1
  9
$CEPSNTYPE
380
     0
  9
$PSTYLEMODE
290
     1
  9
$FINGERPRINTGUID
  2
{2BBFE8E0-1DA1-432A-BD2B-665205845BEC}
  9
$VERSIONGUID
  2
{FAEB1C32-E019-11D5-929B-00C0DF256EC4}
  9
$EXTNAMES
290
     1
  9
$PSVPSCALE
 40
0.0
  9
$OLESTARTUP
290
     0
  9
$SORTENTS
280
   127
  9
$INDEXCTL
280
     0
  9
$HIDETEXT
280
     1
  9
$XCLIPFRAME
290
     0
  9
$HALOGAP
280
     0
  9
$OBSCOLOR
 70
   257
  9
$OBSLTYPE
280
     0
  9
$INTERSECTIONDISPLAY
280
     0
  9
$INTERSECTIONCOLOR
 70
   257
  9
$DIMASSOC
280
     2
  9
$PROJECTNAME
  1

  0
ENDSEC
  0
SECTION
  2
CLASSES
  0
CLASS
  1
ACDBDICTIONARYWDFLT
  2
AcDbDictionaryWithDefault
  3
ObjectDBX Classes
 90
        0
 91
        4
280
     0
281
     0
  0
CLASS
  1
VISUALSTYLE
  2
AcDbVisualStyle
  3
ObjectDBX Classes
 90
     4095
 91
        4
280
     0
281
     0
  0
CLASS
  1
MATERIAL
  2
AcDbMaterial
  3
ObjectDBX Classes
 90
     1153
 91
        4
280
     0
281
     0
  0
CLASS
  1
SCALE
  2
AcDbScale
  3
ObjectDBX Classes
 90
     1153
 91
        4
280
     0
281
     0
  0
CLASS
  1
TABLESTYLE
  2
AcDbTableStyle
  3
ObjectDBX Classes
 90
     4095
 91
        4
280
     0
281
     0
  0
CLASS
  1
MLEADERSTYLE
  2
AcDbMLeaderStyle
  3
ACDB_MLEADERSTYLE_CLASS
 90
     4095
 91
        4
280
     0
281
     0
  0
CLASS
  1
SUN
  2
AcDbSun
  3
SCENEOE
 90
     1153
 91
        4
280
     0
281
     0
  0
CLASS
  1
IMAGEDEF
  2
AcDbRasterImageDef
  3
ISM
 90
        0
 91
        4
280
     0
281
     0
  0
CLASS
  1
IMAGE
  2
AcDbRasterImage
  3
ISM
 90
      127
 91
        5
280
     0
281
     1
  0
CLASS
  1
IMAGEDEF_REACTOR
  2
AcDbRasterImageDefReactor
  3
ISM
 90
        1
 91
        4
280
     0
281
     0
  0
CLASS
  1
DICTIONARYVAR
  2
AcDbDictionaryVar
  3
ObjectDBX Classes
 90
        0
 91
        4
280
     0
281
     0
  0
CLASS
  1
CELLSTYLEMAP
  2
AcDbCellStyleMap
  3
ObjectDBX Classes
 90
     1152
 91
        4
280
     0
281
     0
  0
ENDSEC
  0
SECTION
  2
TABLES
  0
TABLE
  2
VPORT
  5
8
102
{ACAD_XDICTIONARY
360
2E5
102
}
330
0
100
AcDbSymbolTable
 70
     1
  0
VPORT
  5
29
330
8
100
AcDbSymbolTableRecord
100
AcDbViewportTableRecord
  2
*Active
 70
     0
 10
0.0
 20
0.0
 11
1.0
 21
1.0
 12
10.42990654205607
 22
4.5
 13
0.0
 23
0.0
 14
0.5
 24
0.5
 15
0.5
 25
0.5
 16
0.0
 26
0.0
 36
1.0
 17
0.0
 27
0.0
 37
0.0
 40
9.0
 41
1.972972972850329
 42
50.0
 43
0.0
 44
0.0
 50
0.0
 51
0.0
 71
     0
 72
   100
 73
     1
 74
     3
 75
     0
 76
     0
 77
     0
 78
     0
281
     0
 65
     1
110
0.0
120
0.0
130
0.0
111
1.0
121
0.0
131
0.0
112
0.0
122
1.0
132
0.0
 79
     0
146
0.0
  0
ENDTAB
  0
TABLE
  2
LTYPE
  5
5
330
0
100
AcDbSymbolTable
 70
    45
  0
LTYPE
  5
14
330
5
100
AcDbSymbolTableRecord
100
AcDbLinetypeTableRecord
  2
ByBlock
 70
     0
  3

 72
    65
 73
     0
 40
0.0
  0
LTYPE
  5
15
330
5
100
AcDbSymbolTableRecord
100
AcDbLinetypeTableRecord
  2
ByLayer
 70
     0
  3

 72
    65
 73
     0
 40
0.0
  0
LTYPE
  5
16
330
5
100
AcDbSymbolTableRecord
100
AcDbLinetypeTableRecord
  2
Continuous
 70
     0
  3
Solid line
 72
    65
 73
     0
 40
0.0
  0
LTYPE
  5
6F
330
5
100
AcDbSymbolTableRecord
100
AcDbLinetypeTableRecord
  2
HIDDEN
 70
     0
  3
_ _ _ _ _ _ _ _ _ _ _ _ _ _ _ _ _ _ _ _ _ _ _
 72
    65
 73
     2
 40
0.375
 49
0.25
 74
     0
 49
-0.125
 74
     0
  0
LTYPE
  5
70
330
5
100
AcDbSymbolTableRecord
100
AcDbLinetypeTableRecord
  2
CENTER
 70
     0
  3
____ _ ____ _ ____ _ ____ _ ____ _ ____ _ ____
 72
    65
 73
     4
 40
2.0
 49
1.25
 74
     0
 49
-0.25
 74
     0
 49
0.25
 74
     0
 49
-0.25
 74
     0
  0
LTYPE
  5
71
330
5
100
AcDbSymbolTableRecord
100
AcDbLinetypeTableRecord
  2
DASHED
 70
     0
  3
__ __ __ __ __ __ __ __ __ __ __ __ __ __ __
 72
    65
 73
     2
 40
1.5
 49
1.25
 74
     0
 49
-0.25
 74
     0
  0
LTYPE
  5
72
330
5
100
AcDbSymbolTableRecord
100
AcDbLinetypeTableRecord
  2
Gepunktete
 70
     0
  3

 72
    65
 73
     2
 40
1.560000061988831
 49
0.3600000143051147
 74
     0
 49
-1.200000047683716
 74
     0
  0
LTYPE
  5
73
330
5
100
AcDbSymbolTableRecord
100
AcDbLinetypeTableRecord
  2
Strichpunktierte
 70
     0
  3

 72
    65
 73
     4
 40
4.920000046491623
 49
3.0
 74
     0
 49
-0.7200000286102295
 74
     0
 49
0.4799999892711639
 74
     0
 49
-0.7200000286102295
 74
     0
  0
LTYPE
  5
74
330
5
100
AcDbSymbolTableRecord
100
AcDbLinetypeTableRecord
  2
Strichellinie
 70
     0
  3

 72
    65
 73
     2
 40
2.399999976158142
 49
1.799999952316284
 74
     0
 49
-0.6000000238418579
 74
     0
  0
LTYPE
  5
75
330
5
100
AcDbSymbolTableRecord
100
AcDbLinetypeTableRecord
  2
2Punkt
 70
     0
  3

 72
    65
 73
     6
 40
6.120000123977661
 49
3.0
 74
     0
 49
-0.7200000286102295
 74
     0
 49
0.4800000190734863
 74
     0
 49
-0.7200000286102295
 74
     0
 49
0.4800000190734863
 74
     0
 49
-0.7200000286102295
 74
     0
  0
LTYPE
  5
76
330
5
100
AcDbSymbolTableRecord
100
AcDbLinetypeTableRecord
  2
2Punkt-2Abstand
 70
     0
  3

 72
    65
 73
     6
 40
8.28000020980835
 49
3.0
 74
     0
 49
-1.440000057220459
 74
     0
 49
0.4800000190734863
 74
     0
 49
-1.440000057220459
 74
     0
 49
0.4800000190734863
 74
     0
 49
-1.440000057220459
 74
     0
  0
LTYPE
  5
77
330
5
100
AcDbSymbolTableRecord
100
AcDbLinetypeTableRecord
  2
2Punkt-3Abstand
 70
     0
  3

 72
    65
 73
     6
 40
11.26800036430359
 49
3.0
 74
     0
 49
-2.436000108718872
 74
     0
 49
0.4800000190734863
 74
     0
 49
-2.436000108718872
 74
     0
 49
0.4800000190734863
 74
     0
 49
-2.436000108718872
 74
     0
  0
LTYPE
  5
78
330
5
100
AcDbSymbolTableRecord
100
AcDbLinetypeTableRecord
  2
Gepunktete Var.2
 70
     0
  3

 72
    65
 73
     2
 40
3.120000004768372
 49
0.3600000143051147
 74
     0
 49
-2.759999990463257
 74
     0
  0
LTYPE
  5
79
330
5
100
AcDbSymbolTableRecord
100
AcDbLinetypeTableRecord
  2
Gepunktete Var.3
 70
     0
  3

 72
    65
 73
     2
 40
4.679999709129333
 49
0.3600000143051147
 74
     0
 49
-4.319999694824219
 74
     0
  0
LTYPE
  5
7A
330
5
100
AcDbSymbolTableRecord
100
AcDbLinetypeTableRecord
  2
Gepunktete Var.4
 70
     0
  3

 72
    65
 73
     4
 40
4.319999814033508
 49
0.3600000143051147
 74
     0
 49
-1.199999928474426
 74
     0
 49
0.3600000143051147
 74
     0
 49
-2.399999856948853
 74
     0
  0
LTYPE
  5
7B
330
5
100
AcDbSymbolTableRecord
100
AcDbLinetypeTableRecord
  2
Gepunktete Var.5
 70
     0
  3

 72
    65
 73
     4
 40
4.319999814033508
 49
0.3600000143051147
 74
     0
 49
-1.199999928474426
 74
     0
 49
0.3600000143051147
 74
     0
 49
-2.399999856948853
 74
     0
  0
LTYPE
  5
7C
330
5
100
AcDbSymbolTableRecord
100
AcDbLinetypeTableRecord
  2
Gepunktete Var.6
 70
     0
  3

 72
    65
 73
     6
 40
7.079999685287476
 49
0.3600000143051147
 74
     0
 49
-1.199999928474426
 74
     0
 49
0.3600000143051147
 74
     0
 49
-2.399999856948853
 74
     0
 49
0.3600000143051147
 74
     0
 49
-2.399999856948853
 74
     0
  0
LTYPE
  5
7D
330
5
100
AcDbSymbolTableRecord
100
AcDbLinetypeTableRecord
  2
Strichlierte Var.2
 70
     0
  3

 72
    65
 73
     2
 40
3.599999904632568
 49
1.799999952316284
 74
     0
 49
-1.799999952316284
 74
     0
  0
LTYPE
  5
7E
330
5
100
AcDbSymbolTableRecord
100
AcDbLinetypeTableRecord
  2
Strichlierte Var.3
 70
     0
  3

 72
    65
 73
     2
 40
5.399999856948853
 49
1.799999952316284
 74
     0
 49
-3.599999904632568
 74
     0
  0
LTYPE
  5
7F
330
5
100
AcDbSymbolTableRecord
100
AcDbLinetypeTableRecord
  2
Strichlierte Var.4
 70
     0
  3

 72
    65
 73
     2
 40
4.199999868869781
 49
3.599999904632568
 74
     0
 49
-0.5999999642372131
 74
     0
  0
LTYPE
  5
80
330
5
100
AcDbSymbolTableRecord
100
AcDbLinetypeTableRecord
  2
Strichlierte Var.5
 70
     0
  3

 72
    65
 73
     2
 40
5.399999856948853
 49
3.599999904632568
 74
     0
 49
-1.799999952316284
 74
     0
  0
LTYPE
  5
81
330
5
100
AcDbSymbolTableRecord
100
AcDbLinetypeTableRecord
  2
Strichlierte Var.6
 70
     0
  3

 72
    65
 73
     2
 40
7.199999809265137
 49
3.599999904632568
 74
     0
 49
-3.599999904632568
 74
     0
  0
LTYPE
  5
82
330
5
100
AcDbSymbolTableRecord
100
AcDbLinetypeTableRecord
  2
Strich-2Abstand
 70
     0
  3

 72
    65
 73
     4
 40
8.999999761581421
 49
1.799999952316284
 74
     0
 49
-1.799999952316284
 74
     0
 49
3.599999904632568
 74
     0
 49
-1.799999952316284
 74
     0
  0
LTYPE
  5
83
330
5
100
AcDbSymbolTableRecord
100
AcDbLinetypeTableRecord
  2
Strich-3Abstand
 70
     0
  3

 72
    65
 73
     6
 40
7.919999837875366
 49
0.3600000143051147
 74
     0
 49
-1.799999952316284
 74
     0
 49
0.3600000143051147
 74
     0
 49
-1.799999952316284
 74
     0
 49
1.799999952316284
 74
     0
 49
-1.799999952316284
 74
     0
  0
LTYPE
  5
84
330
5
100
AcDbSymbolTableRecord
100
AcDbLinetypeTableRecord
  2
Strich-4Abstand
 70
     0
  3

 72
    65
 73
     6
 40
9.359999775886536
 49
1.799999952316284
 74
     0
 49
-1.799999952316284
 74
     0
 49
1.799999952316284
 74
     0
 49
-1.799999952316284
 74
     0
 49
0.3600000143051147
 74
     0
 49
-1.799999952316284
 74
     0
  0
LTYPE
  5
85
330
5
100
AcDbSymbolTableRecord
100
AcDbLinetypeTableRecord
  2
Punktlinie
 70
     0
  3

 72
    65
 73
     6
 40
20.10000000149012
 49
0.0500000007450581
 74
     0
 49
-0.0500000007450581
 74
     0
 49
5.0
 74
     0
 49
-5.0
 74
     0
 49
5.0
 74
     0
 49
-5.0
 74
     0
  0
LTYPE
  5
86
330
5
100
AcDbSymbolTableRecord
100
AcDbLinetypeTableRecord
  2
Punkt-Strichlinie
 70
     0
  3

 72
    65
 73
     6
 40
3.550000000745058
 49
1.0
 74
     0
 49
-0.5
 74
     0
 49
1.0
 74
     0
 49
-0.5
 74
     0
 49
0.0500000007450581
 74
     0
 49
-0.5
 74
     0
  0
LTYPE
  5
87
330
5
100
AcDbSymbolTableRecord
100
AcDbLinetypeTableRecord
  2
Doppelpunkt-Strichlinie
 70
     0
  3

 72
    65
 73
     6
 40
1.350000001490116
 49
0.5
 74
     0
 49
-0.25
 74
     0
 49
0.0500000007450581
 74
     0
 49
-0.25
 74
     0
 49
0.0500000007450581
 74
     0
 49
-0.25
 74
     0
  0
LTYPE
  5
88
330
5
100
AcDbSymbolTableRecord
100
AcDbLinetypeTableRecord
  2
Eigene Linie 27
 70
     0
  3

 72
    65
 73
     6
 40
2.600000001490116
 49
1.0
 74
     0
 49
-0.5
 74
     0
 49
0.0500000007450581
 74
     0
 49
-0.5
 74
     0
 49
0.0500000007450581
 74
     0
 49
-0.5
 74
     0
  0
LTYPE
  5
89
330
5
100
AcDbSymbolTableRecord
100
AcDbLinetypeTableRecord
  2
Eigene Linie 28
 70
     0
  3

 72
    65
 73
     6
 40
1.800000000745058
 49
0.5
 74
     0
 49
-0.25
 74
     0
 49
0.5
 74
     0
 49
-0.25
 74
     0
 49
0.0500000007450581
 74
     0
 49
-0.25
 74
     0
  0
LTYPE
  5
8A
330
5
100
AcDbSymbolTableRecord
100
AcDbLinetypeTableRecord
  2
Eigene Linie 29
 70
     0
  3

 72
    65
 73
     6
 40
0.9250000007450581
 49
0.25
 74
     0
 49
-0.125
 74
     0
 49
0.25
 74
     0
 49
-0.125
 74
     0
 49
0.0500000007450581
 74
     0
 49
-0.125
 74
     0
  0
LTYPE
  5
8B
330
5
100
AcDbSymbolTableRecord
100
AcDbLinetypeTableRecord
  2
Eigene Linie 30
 70
     0
  3

 72
    65
 73
     2
 40
0.3000000007450581
 49
0.0500000007450581
 74
     0
 49
-0.25
 74
     0
  0
LTYPE
  5
8C
330
5
100
AcDbSymbolTableRecord
100
AcDbLinetypeTableRecord
  2
Eigene Linie 31
 70
     0
  3

 72
    65
 73
     2
 40
0.1750000007450581
 49
0.0500000007450581
 74
     0
 49
-0.125
 74
     0
  0
LTYPE
  5
8D
330
5
100
AcDbSymbolTableRecord
100
AcDbLinetypeTableRecord
  2
Eigene Linie 32
 70
     0
  3

 72
    65
 73
     2
 40
0.5500000007450581
 49
0.0500000007450581
 74
     0
 49
-0.5
 74
     0
  0
LTYPE
  5
8E
330
5
100
AcDbSymbolTableRecord
100
AcDbLinetypeTableRecord
  2
Eigene Linie 33
 70
     0
  3

 72
    65
 73
     4
 40
1.050000000745058
 49
0.5
 74
     0
 49
-0.25
 74
     0
 49
0.0500000007450581
 74
     0
 49
-0.25
 74
     0
  0
LTYPE
  5
8F
330
5
100
AcDbSymbolTableRecord
100
AcDbLinetypeTableRecord
  2
Eigene Linie 34
 70
     0
  3

 72
    65
 73
     4
 40
0.5500000007450581
 49
0.25
 74
     0
 49
-0.125
 74
     0
 49
0.0500000007450581
 74
     0
 49
-0.125
 74
     0
  0
LTYPE
  5
90
330
5
100
AcDbSymbolTableRecord
100
AcDbLinetypeTableRecord
  2
Eigene Linie 35
 70
     0
  3

 72
    65
 73
     4
 40
2.050000000745058
 49
1.0
 74
     0
 49
-0.5
 74
     0
 49
0.0500000007450581
 74
     0
 49
-0.5
 74
     0
  0
LTYPE
  5
91
330
5
100
AcDbSymbolTableRecord
100
AcDbLinetypeTableRecord
  2
Eigene Linie 36
 70
     0
  3

 72
    65
 73
     2
 40
0.75
 49
0.5
 74
     0
 49
-0.25
 74
     0
  0
LTYPE
  5
92
330
5
100
AcDbSymbolTableRecord
100
AcDbLinetypeTableRecord
  2
Eigene Linie 37
 70
     0
  3

 72
    65
 73
     2
 40
0.375
 49
0.25
 74
     0
 49
-0.125
 74
     0
  0
LTYPE
  5
93
330
5
100
AcDbSymbolTableRecord
100
AcDbLinetypeTableRecord
  2
Eigene Linie 38
 70
     0
  3

 72
    65
 73
     2
 40
1.5
 49
1.0
 74
     0
 49
-0.5
 74
     0
  0
LTYPE
  5
94
330
5
100
AcDbSymbolTableRecord
100
AcDbLinetypeTableRecord
  2
Eigene Linie 39
 70
     0
  3

 72
    65
 73
     6
 40
2.5
 49
1.25
 74
     0
 49
-0.25
 74
     0
 49
0.25
 74
     0
 49
-0.25
 74
     0
 49
0.25
 74
     0
 49
-0.25
 74
     0
  0
LTYPE
  5
95
330
5
100
AcDbSymbolTableRecord
100
AcDbLinetypeTableRecord
  2
Eigene Linie 40
 70
     0
  3

 72
    65
 73
     6
 40
1.25
 49
0.625
 74
     0
 49
-0.125
 74
     0
 49
0.125
 74
     0
 49
-0.125
 74
     0
 49
0.125
 74
     0
 49
-0.125
 74
     0
  0
LTYPE
  5
96
330
5
100
AcDbSymbolTableRecord
100
AcDbLinetypeTableRecord
  2
Eigene Linie 41
 70
     0
  3

 72
    65
 73
     6
 40
5.0
 49
2.5
 74
     0
 49
-0.5
 74
     0
 49
0.5
 74
     0
 49
-0.5
 74
     0
 49
0.5
 74
     0
 49
-0.5
 74
     0
  0
LTYPE
  5
97
330
5
100
AcDbSymbolTableRecord
100
AcDbLinetypeTableRecord
  2
Eigene Linie 42
 70
     0
  3

 72
    65
 73
     2
 40
0.300000011920929
 49
0.1500000059604645
 74
     0
 49
-0.1500000059604645
 74
     0
  0
LTYPE
  5
98
330
5
100
AcDbSymbolTableRecord
100
AcDbLinetypeTableRecord
  2
Eigene Linie 43
 70
     0
  3

 72
    65
 73
     2
 40
0.1399999968707561
 49
0.0799999982118607
 74
     0
 49
-0.0599999986588955
 74
     0
  0
LTYPE
  5
99
330
5
100
AcDbSymbolTableRecord
100
AcDbLinetypeTableRecord
  2
Eigene Linie 44
 70
     0
  3

 72
    65
 73
     2
 40
0.3000000007450581
 49
0.0500000007450581
 74
     0
 49
-0.25
 74
     0
  0
LTYPE
  5
9A
330
5
100
AcDbSymbolTableRecord
100
AcDbLinetypeTableRecord
  2
Eigene Linie 45
 70
     0
  3

 72
    65
 73
     2
 40
0.5500000007450581
 49
0.0500000007450581
 74
     0
 49
-0.5
 74
     0
  0
ENDTAB
  0
TABLE
  2
LAYER
  5
2
330
0
100
AcDbSymbolTable
 70
     3
  0
LAYER
  5
10
330
2
100
AcDbSymbolTableRecord
100
AcDbLayerTableRecord
  2
0
 70
     0
 62
     7
  6
Continuous
370
    -3
390
F
  0
LAYER
  5
9B
330
2
100
AcDbSymbolTableRecord
100
AcDbLayerTableRecord
  2
0 - Systemaufbauten
 70
     0
 62
     7
  6
Continuous
370
     0
390
F
  0
LAYER
  5
9C
330
2
100
AcDbSymbolTableRecord
100
AcDbLayerTableRecord
  2
00_Allgemein - Systemaufbauten
 70
     0
 62
     7
  6
Continuous
370
     0
390
F
  0
ENDTAB
  0
TABLE
  2
STYLE
  5
3
330
0
100
AcDbSymbolTable
 70
     2
  0
STYLE
  5
11
330
3
100
AcDbSymbolTableRecord
100
AcDbTextStyleTableRecord
  2
Standard
 70
     0
 40
0.0
 41
1.0
 50
0.0
 71
     0
 42
0.2
  3
txt
  4

  0
STYLE
  5
A1
330
3
100
AcDbSymbolTableRecord
100
AcDbTextStyleTableRecord
  2
Style0
 70
     0
 40
0.0
 41
1.0
 50
0.0
 71
     0
 42
0.2
  3
cour.ttf
  4

1001
ACAD
1000
Courier New
1071
        0
  0
ENDTAB
  0
TABLE
  2
VIEW
  5
6
330
0
100
AcDbSymbolTable
 70
     0
  0
ENDTAB
  0
TABLE
  2
UCS
  5
7
330
0
100
AcDbSymbolTable
 70
     0
  0
ENDTAB
  0
TABLE
  2
APPID
  5
9
330
0
100
AcDbSymbolTable
 70
     3
  0
APPID
  5
12
330
9
100
AcDbSymbolTableRecord
100
AcDbRegAppTableRecord
  2
ACAD
 70
     0
  0
APPID
  5
6E
330
9
100
AcDbSymbolTableRecord
100
AcDbRegAppTableRecord
  2
ARCHLineXP
 70
     0
  0
APPID
  5
324
330
9
100
AcDbSymbolTableRecord
100
AcDbRegAppTableRecord
  2
ACAD_MLEADERVER
 70
     0
  0
ENDTAB
  0
TABLE
  2
DIMSTYLE
  5
A
330
0
100
AcDbSymbolTable
 70
     1
100
AcDbDimStyleTable
  0
DIMSTYLE
105
27
330
A
100
AcDbSymbolTableRecord
100
AcDbDimStyleTableRecord
  2
Standard
 70
     0
178
     0
340
11
  0
ENDTAB
  0
TABLE
  2
BLOCK_RECORD
  5
1
330
0
100
AcDbSymbolTable
 70
     2
  0
BLOCK_RECORD
  5
1F
330
1
100
AcDbSymbolTableRecord
100
AcDbBlockTableRecord
  2
*Model_Space
340
22
  0
BLOCK_RECORD
  5
1B
330
1
100
AcDbSymbolTableRecord
100
AcDbBlockTableRecord
  2
*Paper_Space
340
1E
  0
BLOCK_RECORD
  5
23
330
1
100
AcDbSymbolTableRecord
100
AcDbBlockTableRecord
  2
*Paper_Space0
340
26
  0
BLOCK_RECORD
  5
A3
330
1
100
AcDbSymbolTableRecord
100
AcDbBlockTableRecord
  2
dokument systemaufbauten.asc(id_1)
340
0
102
{BLKREFS
331
2E2
102
}
  0
ENDTAB
  0
ENDSEC
  0
SECTION
  2
BLOCKS
  0
BLOCK
  5
20
330
1F
100
AcDbEntity
  8
0
100
AcDbBlockBegin
  2
*Model_Space
 70
     0
 10
0.0
 20
0.0
 30
0.0
  3
*Model_Space
  1

  0
ENDBLK
  5
21
330
1F
100
AcDbEntity
  8
0
100
AcDbBlockEnd
  0
BLOCK
  5
1C
330
1B
100
AcDbEntity
 67
     1
  8
0
100
AcDbBlockBegin
  2
*Paper_Space
 70
     0
 10
0.0
 20
0.0
 30
0.0
  3
*Paper_Space
  1

  0
ENDBLK
  5
1D
330
1B
100
AcDbEntity
 67
     1
  8
0
100
AcDbBlockEnd
  0
BLOCK
  5
24
330
23
100
AcDbEntity
  8
0
100
AcDbBlockBegin
  2
*Paper_Space0
 70
     0
 10
0.0
 20
0.0
 30
0.0
  3
*Paper_Space0
  1

  0
ENDBLK
  5
25
330
23
100
AcDbEntity
  8
0
100
AcDbBlockEnd
  0
BLOCK
  5
2E3
330
A3
100
AcDbEntity
  8
0
100
AcDbBlockBegin
  2
dokument systemaufbauten.asc(id_1)
 70
     0
 10
0.0
 20
0.0
 30
0.0
  3
dokument systemaufbauten.asc(id_1)
  1

  0
HATCH
  5
A4
330
A3
100
AcDbEntity
  8
0 - Systemaufbauten
  6
Continuous
 62
     7
370
     0
100
AcDbHatch
 10
0.0
 20
0.0
 30
0.0
210
0.0
220
0.0
230
1.0
  2
SOLID
 70
     1
 71
     0
 91
        1
 92
        0
 93
        4
 72
     1
 10
534.6079692546048
 20
961.9389202211595
 11
634.6079692546048
 21
961.9389202211595
 72
     1
 10
634.6079692546048
 20
961.9389202211595
 11
634.6079692546048
 21
951.9389202211593
 72
     1
 10
634.6079692546048
 20
951.9389202211593
 11
534.6079692546048
 21
951.9389202211593
 72
     1
 10
534.6079692546048
 20
951.9389202211593
 11
534.6079692546048
 21
961.9389202211595
 97
        0
 75
     0
 76
     1
 98
        0
  0
HATCH
  5
A5
330
A3
100
AcDbEntity
  8
0 - Systemaufbauten
  6
Continuous
 62
     7
370
     0
100
AcDbHatch
 10
0.0
 20
0.0
 30
0.0
210
0.0
220
0.0
230
1.0
  2
SOLID
 70
     1
 71
     0
 91
        1
 92
        0
 93
        4
 72
     1
 10
734.6079692546048
 20
961.9389202211595
 11
834.6079692546048
 21
961.9389202211595
 72
     1
 10
834.6079692546048
 20
961.9389202211595
 11
834.6079692546048
 21
951.9389202211593
 72
     1
 10
834.6079692546048
 20
951.9389202211593
 11
734.6079692546048
 21
951.9389202211593
 72
     1
 10
734.6079692546048
 20
951.9389202211593
 11
734.6079692546048
 21
961.9389202211595
 97
        0
 75
     0
 76
     1
 98
        0
  0
HATCH
  5
A6
330
A3
100
AcDbEntity
  8
0 - Systemaufbauten
  6
Continuous
 62
     7
370
     0
100
AcDbHatch
 10
0.0
 20
0.0
 30
0.0
210
0.0
220
0.0
230
1.0
  2
SOLID
 70
     1
 71
     0
 91
        1
 92
        0
 93
        4
 72
     1
 10
934.6079692546048
 20
961.9389202211595
 11
1034.607969254605
 21
961.9389202211595
 72
     1
 10
1034.607969254605
 20
961.9389202211595
 11
1034.607969254605
 21
951.9389202211593
 72
     1
 10
1034.607969254605
 20
951.9389202211593
 11
934.6079692546048
 21
951.9389202211593
 72
     1
 10
934.6079692546048
 20
951.9389202211593
 11
934.6079692546048
 21
961.9389202211595
 97
        0
 75
     0
 76
     1
 98
        0
  0
HATCH
  5
A7
330
A3
100
AcDbEntity
  8
0 - Systemaufbauten
  6
Continuous
 62
     7
370
     0
100
AcDbHatch
 10
0.0
 20
0.0
 30
0.0
210
0.0
220
0.0
230
1.0
  2
SOLID
 70
     1
 71
     0
 91
        1
 92
        0
 93
        4
 72
     1
 10
1134.607969254605
 20
961.9389202211595
 11
1234.607969254605
 21
961.9389202211595
 72
     1
 10
1234.607969254605
 20
961.9389202211595
 11
1234.607969254605
 21
951.9389202211593
 72
     1
 10
1234.607969254605
 20
951.9389202211593
 11
1134.607969254605
 21
951.9389202211593
 72
     1
 10
1134.607969254605
 20
951.9389202211593
 11
1134.607969254605
 21
961.9389202211595
 97
        0
 75
     0
 76
     1
 98
        0
  0
HATCH
  5
A8
330
A3
100
AcDbEntity
  8
0 - Systemaufbauten
  6
Continuous
 62
     7
370
     0
100
AcDbHatch
 10
0.0
 20
0.0
 30
0.0
210
0.0
220
0.0
230
1.0
  2
SOLID
 70
     1
 71
     0
 91
        1
 92
        0
 93
        4
 72
     1
 10
1334.607969254605
 20
961.9389202211595
 11
1434.607969254605
 21
961.9389202211595
 72
     1
 10
1434.607969254605
 20
961.9389202211595
 11
1434.607969254605
 21
951.9389202211593
 72
     1
 10
1434.607969254605
 20
951.9389202211593
 11
1334.607969254605
 21
951.9389202211593
 72
     1
 10
1334.607969254605
 20
951.9389202211593
 11
1334.607969254605
 21
961.9389202211595
 97
        0
 75
     0
 76
     1
 98
        0
  0
HATCH
  5
A9
330
A3
100
AcDbEntity
  8
0 - Systemaufbauten
  6
Continuous
 62
     7
370
     0
100
AcDbHatch
 10
0.0
 20
0.0
 30
0.0
210
0.0
220
0.0
230
1.0
  2
SOLID
 70
     1
 71
     0
 91
        1
 92
        0
 93
        4
 72
     1
 10
1534.607969254605
 20
961.9389202211595
 11
1634.607969254602
 21
961.9389202211595
 72
     1
 10
1634.607969254602
 20
961.9389202211595
 11
1634.607969254602
 21
951.9389202211593
 72
     1
 10
1634.607969254602
 20
951.9389202211593
 11
1534.607969254605
 21
951.9389202211593
 72
     1
 10
1534.607969254605
 20
951.9389202211593
 11
1534.607969254605
 21
961.9389202211595
 97
        0
 75
     0
 76
     1
 98
        0
  0
HATCH
  5
AA
330
A3
100
AcDbEntity
  8
0 - Systemaufbauten
  6
Continuous
 62
     7
370
     0
100
AcDbHatch
 10
0.0
 20
0.0
 30
0.0
210
0.0
220
0.0
230
1.0
  2
SOLID
 70
     1
 71
     0
 91
        1
 92
        0
 93
        4
 72
     1
 10
1734.607969254602
 20
961.9389202211595
 11
1834.607969254602
 21
961.9389202211595
 72
     1
 10
1834.607969254602
 20
961.9389202211595
 11
1834.607969254602
 21
951.9389202211593
 72
     1
 10
1834.607969254602
 20
951.9389202211593
 11
1734.607969254602
 21
951.9389202211593
 72
     1
 10
1734.607969254602
 20
951.9389202211593
 11
1734.607969254602
 21
961.9389202211595
 97
        0
 75
     0
 76
     1
 98
        0
  0
ARC
  5
AB
330
A3
100
AcDbEntity
  8
0 - Systemaufbauten
  6
Continuous
 62
     7
370
     0
100
AcDbCircle
 10
334.6079692546048
 20
1245.272253355811
 30
0.0
 40
3.33333313465154
100
AcDbArc
 50
270.0
 51
329.9999974427075
  0
LINE
  5
AC
330
A3
100
AcDbEntity
  8
0 - Systemaufbauten
  6
Continuous
 62
     7
370
     0
100
AcDbLine
 10
337.4947193566478
 20
1243.605587235521
 30
0.0
 11
341.721219152561
 21
1250.272253355812
 31
0.0
  0
ARC
  5
AD
330
A3
100
AcDbEntity
  8
0 - Systemaufbauten
  6
Continuous
 62
     7
370
     0
100
AcDbCircle
 10
344.6079692546041
 20
1248.605587086509
 30
0.0
 40
3.33328818123023
100
AcDbArc
 50
30.00044020598607
 51
149.9999952245346
  0
LINE
  5
AE
330
A3
100
AcDbEntity
  8
0 - Systemaufbauten
  6
Continuous
 62
     7
370
     0
100
AcDbLine
 10
347.4947187606006
 20
1250.272253355812
 30
0.0
 11
351.7212197486072
 21
1243.605587235521
 31
0.0
  0
ARC
  5
AF
330
A3
100
AcDbEntity
  8
0 - Systemaufbauten
  6
Continuous
 62
     7
370
     0
100
AcDbCircle
 10
354.6079692546036
 20
1245.272253355811
 30
0.0
 40
3.33333146670055
100
AcDbArc
 50
210.0000076799388
 51
270.0
  0
ARC
  5
B0
330
A3
100
AcDbEntity
  8
0 - Systemaufbauten
  6
Continuous
 62
     7
370
     0
100
AcDbCircle
 10
354.6079692546036
 20
1245.272253355811
 30
0.0
 40
3.33333313465154
100
AcDbArc
 50
270.0
 51
329.9999974427075
  0
LINE
  5
B1
330
A3
100
AcDbEntity
  8
0 - Systemaufbauten
  6
Continuous
 62
     7
370
     0
100
AcDbLine
 10
357.4947193566467
 20
1243.605587235521
 30
0.0
 11
361.7212191525599
 21
1250.272253355812
 31
0.0
  0
ARC
  5
B2
330
A3
100
AcDbEntity
  8
0 - Systemaufbauten
  6
Continuous
 62
     7
370
     0
100
AcDbCircle
 10
364.6079692546029
 20
1248.605587086509
 30
0.0
 40
3.33328818123023
100
AcDbArc
 50
30.00044020598607
 51
149.9999952245346
  0
LINE
  5
B3
330
A3
100
AcDbEntity
  8
0 - Systemaufbauten
  6
Continuous
 62
     7
370
     0
100
AcDbLine
 10
367.4947187605994
 20
1250.272253355812
 30
0.0
 11
371.721219748606
 21
1243.605587235521
 31
0.0
  0
ARC
  5
B4
330
A3
100
AcDbEntity
  8
0 - Systemaufbauten
  6
Continuous
 62
     7
370
     0
100
AcDbCircle
 10
374.6079692546025
 20
1245.272253355811
 30
0.0
 40
3.33333146670055
100
AcDbArc
 50
210.0000076799388
 51
270.0
  0
ARC
  5
B5
330
A3
100
AcDbEntity
  8
0 - Systemaufbauten
  6
Continuous
 62
     7
370
     0
100
AcDbCircle
 10
374.6079692546025
 20
1245.272253355811
 30
0.0
 40
3.33333313465154
100
AcDbArc
 50
270.0
 51
329.9999974427075
  0
LINE
  5
B6
330
A3
100
AcDbEntity
  8
0 - Systemaufbauten
  6
Continuous
 62
     7
370
     0
100
AcDbLine
 10
377.4947193566455
 20
1243.605587235521
 30
0.0
 11
381.7212191525588
 21
1250.272253355812
 31
0.0
  0
ARC
  5
B7
330
A3
100
AcDbEntity
  8
0 - Systemaufbauten
  6
Continuous
 62
     7
370
     0
100
AcDbCircle
 10
384.6079692546018
 20
1248.605587086509
 30
0.0
 40
3.33328818123023
100
AcDbArc
 50
30.00044020598607
 51
149.9999952245346
  0
LINE
  5
B8
330
A3
100
AcDbEntity
  8
0 - Systemaufbauten
  6
Continuous
 62
     7
370
     0
100
AcDbLine
 10
387.4947187605985
 20
1250.272253355812
 30
0.0
 11
391.7212197486047
 21
1243.605587235521
 31
0.0
  0
ARC
  5
B9
330
A3
100
AcDbEntity
  8
0 - Systemaufbauten
  6
Continuous
 62
     7
370
     0
100
AcDbCircle
 10
394.6079692546014
 20
1245.272253355811
 30
0.0
 40
3.33333146670071
100
AcDbArc
 50
210.0000076799373
 51
270.0
  0
ARC
  5
BA
330
A3
100
AcDbEntity
  8
0 - Systemaufbauten
  6
Continuous
 62
     7
370
     0
100
AcDbCircle
 10
394.6079692546014
 20
1245.272253355811
 30
0.0
 40
3.33333313465154
100
AcDbArc
 50
270.0
 51
329.9999974427075
  0
LINE
  5
BB
330
A3
100
AcDbEntity
  8
0 - Systemaufbauten
  6
Continuous
 62
     7
370
     0
100
AcDbLine
 10
397.4947193566444
 20
1243.605587235521
 30
0.0
 11
401.7212191525576
 21
1250.272253355812
 31
0.0
  0
ARC
  5
BC
330
A3
100
AcDbEntity
  8
0 - Systemaufbauten
  6
Continuous
 62
     7
370
     0
100
AcDbCircle
 10
404.6079692546007
 20
1248.605587086509
 30
0.0
 40
3.33328818123023
100
AcDbArc
 50
30.00044020598607
 51
149.9999952245346
  0
LINE
  5
BD
330
A3
100
AcDbEntity
  8
0 - Systemaufbauten
  6
Continuous
 62
     7
370
     0
100
AcDbLine
 10
407.4947187605974
 20
1250.272253355812
 30
0.0
 11
411.7212197486035
 21
1243.605587235521
 31
0.0
  0
ARC
  5
BE
330
A3
100
AcDbEntity
  8
0 - Systemaufbauten
  6
Continuous
 62
     7
370
     0
100
AcDbCircle
 10
414.6079692546002
 20
1245.272253355811
 30
0.0
 40
3.33333146670071
100
AcDbArc
 50
210.0000076799373
 51
270.0
  0
ARC
  5
BF
330
A3
100
AcDbEntity
  8
0 - Systemaufbauten
  6
Continuous
 62
     7
370
     0
100
AcDbCircle
 10
414.6079692546002
 20
1245.272253355811
 30
0.0
 40
3.33333313465154
100
AcDbArc
 50
270.0
 51
329.9999974427075
  0
LINE
  5
C0
330
A3
100
AcDbEntity
  8
0 - Systemaufbauten
  6
Continuous
 62
     7
370
     0
100
AcDbLine
 10
417.4947193566433
 20
1243.605587235521
 30
0.0
 11
421.7212191525565
 21
1250.272253355812
 31
0.0
  0
ARC
  5
C1
330
A3
100
AcDbEntity
  8
0 - Systemaufbauten
  6
Continuous
 62
     7
370
     0
100
AcDbCircle
 10
424.6079692545995
 20
1248.605587086509
 30
0.0
 40
3.33328818123023
100
AcDbArc
 50
30.00044020598607
 51
149.9999952245346
  0
LINE
  5
C2
330
A3
100
AcDbEntity
  8
0 - Systemaufbauten
  6
Continuous
 62
     7
370
     0
100
AcDbLine
 10
427.4947187605962
 20
1250.272253355812
 30
0.0
 11
431.7212197486024
 21
1243.605587235521
 31
0.0
  0
ARC
  5
C3
330
A3
100
AcDbEntity
  8
0 - Systemaufbauten
  6
Continuous
 62
     7
370
     0
100
AcDbCircle
 10
434.6079692545991
 20
1245.272253355811
 30
0.0
 40
3.33333146670071
100
AcDbArc
 50
210.0000076799373
 51
270.0
  0
ARC
  5
C4
330
A3
100
AcDbEntity
  8
0 - Systemaufbauten
  6
Continuous
 62
     7
370
     0
100
AcDbCircle
 10
434.6079692545991
 20
1245.272253355811
 30
0.0
 40
3.33333313465154
100
AcDbArc
 50
270.0
 51
329.9999974427075
  0
LINE
  5
C5
330
A3
100
AcDbEntity
  8
0 - Systemaufbauten
  6
Continuous
 62
     7
370
     0
100
AcDbLine
 10
437.4947193566421
 20
1243.605587235521
 30
0.0
 11
441.7212191525554
 21
1250.272253355812
 31
0.0
  0
ARC
  5
C6
330
A3
100
AcDbEntity
  8
0 - Systemaufbauten
  6
Continuous
 62
     7
370
     0
100
AcDbCircle
 10
444.6079692545984
 20
1248.605587086509
 30
0.0
 40
3.33328818123023
100
AcDbArc
 50
30.00044020598607
 51
149.9999952245346
  0
LINE
  5
C7
330
A3
100
AcDbEntity
  8
0 - Systemaufbauten
  6
Continuous
 62
     7
370
     0
100
AcDbLine
 10
447.4947187605951
 20
1250.272253355812
 30
0.0
 11
451.7212197486018
 21
1243.605587235521
 31
0.0
  0
ARC
  5
C8
330
A3
100
AcDbEntity
  8
0 - Systemaufbauten
  6
Continuous
 62
     7
370
     0
100
AcDbCircle
 10
454.6079692545977
 20
1245.272253355811
 30
0.0
 40
3.33333146670071
100
AcDbArc
 50
210.0000076799373
 51
270.0
  0
ARC
  5
C9
330
A3
100
AcDbEntity
  8
0 - Systemaufbauten
  6
Continuous
 62
     7
370
     0
100
AcDbCircle
 10
454.6079692545977
 20
1245.272253355811
 30
0.0
 40
3.33333313465154
100
AcDbArc
 50
270.0
 51
329.9999974427075
  0
LINE
  5
CA
330
A3
100
AcDbEntity
  8
0 - Systemaufbauten
  6
Continuous
 62
     7
370
     0
100
AcDbLine
 10
457.4947193566408
 20
1243.605587235521
 30
0.0
 11
461.7212191525547
 21
1250.272253355812
 31
0.0
  0
ARC
  5
CB
330
A3
100
AcDbEntity
  8
0 - Systemaufbauten
  6
Continuous
 62
     7
370
     0
100
AcDbCircle
 10
464.6079692545977
 20
1248.605587086509
 30
0.0
 40
3.33328818123023
100
AcDbArc
 50
30.00044020598607
 51
149.9999952245346
  0
LINE
  5
CC
330
A3
100
AcDbEntity
  8
0 - Systemaufbauten
  6
Continuous
 62
     7
370
     0
100
AcDbLine
 10
467.4947187605937
 20
1250.272253355812
 30
0.0
 11
471.7212197485997
 21
1243.605587235521
 31
0.0
  0
ARC
  5
CD
330
A3
100
AcDbEntity
  8
0 - Systemaufbauten
  6
Continuous
 62
     7
370
     0
100
AcDbCircle
 10
474.6079692545968
 20
1245.272253355811
 30
0.0
 40
3.33333146670071
100
AcDbArc
 50
210.0000076799373
 51
270.0
  0
ARC
  5
CE
330
A3
100
AcDbEntity
  8
0 - Systemaufbauten
  6
Continuous
 62
     7
370
     0
100
AcDbCircle
 10
474.6079692545968
 20
1245.272253355811
 30
0.0
 40
3.33333313465154
100
AcDbArc
 50
270.0
 51
329.9999974427075
  0
LINE
  5
CF
330
A3
100
AcDbEntity
  8
0 - Systemaufbauten
  6
Continuous
 62
     7
370
     0
100
AcDbLine
 10
477.4947193566395
 20
1243.605587235521
 30
0.0
 11
481.7212191525527
 21
1250.272253355812
 31
0.0
  0
ARC
  5
D0
330
A3
100
AcDbEntity
  8
0 - Systemaufbauten
  6
Continuous
 62
     7
370
     0
100
AcDbCircle
 10
484.6079692545957
 20
1248.605587086509
 30
0.0
 40
3.33328818123023
100
AcDbArc
 50
30.00044020598607
 51
149.9999952245346
  0
LINE
  5
D1
330
A3
100
AcDbEntity
  8
0 - Systemaufbauten
  6
Continuous
 62
     7
370
     0
100
AcDbLine
 10
487.4947187605926
 20
1250.272253355812
 30
0.0
 11
491.7212197485987
 21
1243.605587235521
 31
0.0
  0
ARC
  5
D2
330
A3
100
AcDbEntity
  8
0 - Systemaufbauten
  6
Continuous
 62
     7
370
     0
100
AcDbCircle
 10
494.6079692545959
 20
1245.272253355811
 30
0.0
 40
3.33333146670071
100
AcDbArc
 50
210.0000076799373
 51
270.0
  0
ARC
  5
D3
330
A3
100
AcDbEntity
  8
0 - Systemaufbauten
  6
Continuous
 62
     7
370
     0
100
AcDbCircle
 10
494.6079692545959
 20
1245.272253355811
 30
0.0
 40
3.33333313465154
100
AcDbArc
 50
270.0
 51
329.9999974427075
  0
LINE
  5
D4
330
A3
100
AcDbEntity
  8
0 - Systemaufbauten
  6
Continuous
 62
     7
370
     0
100
AcDbLine
 10
497.4947193566386
 20
1243.605587235521
 30
0.0
 11
501.7212191525516
 21
1250.272253355812
 31
0.0
  0
ARC
  5
D5
330
A3
100
AcDbEntity
  8
0 - Systemaufbauten
  6
Continuous
 62
     7
370
     0
100
AcDbCircle
 10
504.6079692545948
 20
1248.605587086509
 30
0.0
 40
3.33328818123023
100
AcDbArc
 50
30.00044020598607
 51
149.9999952245346
  0
LINE
  5
D6
330
A3
100
AcDbEntity
  8
0 - Systemaufbauten
  6
Continuous
 62
     7
370
     0
100
AcDbLine
 10
507.4947187605917
 20
1250.272253355812
 30
0.0
 11
511.7212197485976
 21
1243.605587235521
 31
0.0
  0
ARC
  5
D7
330
A3
100
AcDbEntity
  8
0 - Systemaufbauten
  6
Continuous
 62
     7
370
     0
100
AcDbCircle
 10
514.6079692545948
 20
1245.272253355811
 30
0.0
 40
3.33333146670071
100
AcDbArc
 50
210.0000076799373
 51
270.0
  0
ARC
  5
D8
330
A3
100
AcDbEntity
  8
0 - Systemaufbauten
  6
Continuous
 62
     7
370
     0
100
AcDbCircle
 10
514.6079692545948
 20
1245.272253355811
 30
0.0
 40
3.33333313465154
100
AcDbArc
 50
270.0
 51
329.9999974427075
  0
LINE
  5
D9
330
A3
100
AcDbEntity
  8
0 - Systemaufbauten
  6
Continuous
 62
     7
370
     0
100
AcDbLine
 10
517.4947193566377
 20
1243.605587235521
 30
0.0
 11
521.7212191525507
 21
1250.272253355812
 31
0.0
  0
ARC
  5
DA
330
A3
100
AcDbEntity
  8
0 - Systemaufbauten
  6
Continuous
 62
     7
370
     0
100
AcDbCircle
 10
524.6079692545936
 20
1248.605587086509
 30
0.0
 40
3.33328818123023
100
AcDbArc
 50
30.00044020598607
 51
149.9999952245346
  0
LINE
  5
DB
330
A3
100
AcDbEntity
  8
0 - Systemaufbauten
  6
Continuous
 62
     7
370
     0
100
AcDbLine
 10
527.4947187605908
 20
1250.272253355812
 30
0.0
 11
531.7212197485967
 21
1243.605587235521
 31
0.0
  0
ARC
  5
DC
330
A3
100
AcDbEntity
  8
0 - Systemaufbauten
  6
Continuous
 62
     7
370
     0
100
AcDbCircle
 10
534.6079692545936
 20
1245.272253355811
 30
0.0
 40
3.33333146670071
100
AcDbArc
 50
210.0000076799373
 51
270.0
  0
ARC
  5
DD
330
A3
100
AcDbEntity
  8
0 - Systemaufbauten
  6
Continuous
 62
     7
370
     0
100
AcDbCircle
 10
534.6079692545936
 20
1245.272253355811
 30
0.0
 40
3.33333313465154
100
AcDbArc
 50
270.0
 51
329.9999974427075
  0
LINE
  5
DE
330
A3
100
AcDbEntity
  8
0 - Systemaufbauten
  6
Continuous
 62
     7
370
     0
100
AcDbLine
 10
537.4947193566368
 20
1243.605587235521
 30
0.0
 11
541.7212191525498
 21
1250.272253355812
 31
0.0
  0
ARC
  5
DF
330
A3
100
AcDbEntity
  8
0 - Systemaufbauten
  6
Continuous
 62
     7
370
     0
100
AcDbCircle
 10
544.6079692545927
 20
1248.605587086509
 30
0.0
 40
3.33328818123023
100
AcDbArc
 50
30.00044020598607
 51
149.9999952245346
  0
LINE
  5
E0
330
A3
100
AcDbEntity
  8
0 - Systemaufbauten
  6
Continuous
 62
     7
370
     0
100
AcDbLine
 10
547.4947187605899
 20
1250.272253355812
 30
0.0
 11
551.7212197485958
 21
1243.605587235521
 31
0.0
  0
ARC
  5
E1
330
A3
100
AcDbEntity
  8
0 - Systemaufbauten
  6
Continuous
 62
     7
370
     0
100
AcDbCircle
 10
554.6079692545916
 20
1245.272253355811
 30
0.0
 40
3.33333146670071
100
AcDbArc
 50
210.0000076799373
 51
270.0
  0
ARC
  5
E2
330
A3
100
AcDbEntity
  8
0 - Systemaufbauten
  6
Continuous
 62
     7
370
     0
100
AcDbCircle
 10
554.6079692545916
 20
1245.272253355811
 30
0.0
 40
3.33333313465154
100
AcDbArc
 50
270.0
 51
329.9999974427075
  0
LINE
  5
E3
330
A3
100
AcDbEntity
  8
0 - Systemaufbauten
  6
Continuous
 62
     7
370
     0
100
AcDbLine
 10
557.4947193566359
 20
1243.605587235521
 30
0.0
 11
561.7212191525487
 21
1250.272253355812
 31
0.0
  0
ARC
  5
E4
330
A3
100
AcDbEntity
  8
0 - Systemaufbauten
  6
Continuous
 62
     7
370
     0
100
AcDbCircle
 10
564.6079692545916
 20
1248.605587086509
 30
0.0
 40
3.33328818123023
100
AcDbArc
 50
30.00044020598607
 51
149.9999952245346
  0
LINE
  5
E5
330
A3
100
AcDbEntity
  8
0 - Systemaufbauten
  6
Continuous
 62
     7
370
     0
100
AcDbLine
 10
567.4947187605885
 20
1250.272253355812
 30
0.0
 11
571.7212197485949
 21
1243.605587235521
 31
0.0
  0
ARC
  5
E6
330
A3
100
AcDbEntity
  8
0 - Systemaufbauten
  6
Continuous
 62
     7
370
     0
100
AcDbCircle
 10
574.6079692545907
 20
1245.272253355811
 30
0.0
 40
3.33333146670071
100
AcDbArc
 50
210.0000076799373
 51
270.0
  0
ARC
  5
E7
330
A3
100
AcDbEntity
  8
0 - Systemaufbauten
  6
Continuous
 62
     7
370
     0
100
AcDbCircle
 10
574.6079692545907
 20
1245.272253355811
 30
0.0
 40
3.33333313465154
100
AcDbArc
 50
270.0
 51
329.9999974427075
  0
LINE
  5
E8
330
A3
100
AcDbEntity
  8
0 - Systemaufbauten
  6
Continuous
 62
     7
370
     0
100
AcDbLine
 10
577.4947193566338
 20
1243.605587235521
 30
0.0
 11
581.7212191525477
 21
1250.272253355812
 31
0.0
  0
ARC
  5
E9
330
A3
100
AcDbEntity
  8
0 - Systemaufbauten
  6
Continuous
 62
     7
370
     0
100
AcDbCircle
 10
584.6079692545907
 20
1248.605587086509
 30
0.0
 40
3.33328818123023
100
AcDbArc
 50
30.00044020598607
 51
149.9999952245346
  0
LINE
  5
EA
330
A3
100
AcDbEntity
  8
0 - Systemaufbauten
  6
Continuous
 62
     7
370
     0
100
AcDbLine
 10
587.4947187605867
 20
1250.272253355812
 30
0.0
 11
591.7212197485937
 21
1243.605587235521
 31
0.0
  0
ARC
  5
EB
330
A3
100
AcDbEntity
  8
0 - Systemaufbauten
  6
Continuous
 62
     7
370
     0
100
AcDbCircle
 10
594.6079692545898
 20
1245.272253355811
 30
0.0
 40
3.33333146670071
100
AcDbArc
 50
210.0000076799373
 51
270.0
  0
ARC
  5
EC
330
A3
100
AcDbEntity
  8
0 - Systemaufbauten
  6
Continuous
 62
     7
370
     0
100
AcDbCircle
 10
594.6079692545898
 20
1245.272253355811
 30
0.0
 40
3.33333313465154
100
AcDbArc
 50
270.0
 51
329.9999974427075
  0
LINE
  5
ED
330
A3
100
AcDbEntity
  8
0 - Systemaufbauten
  6
Continuous
 62
     7
370
     0
100
AcDbLine
 10
597.4947193566327
 20
1243.605587235521
 30
0.0
 11
601.7212191525466
 21
1250.272253355812
 31
0.0
  0
ARC
  5
EE
330
A3
100
AcDbEntity
  8
0 - Systemaufbauten
  6
Continuous
 62
     7
370
     0
100
AcDbCircle
 10
604.6079692545898
 20
1248.605587086509
 30
0.0
 40
3.33328818123023
100
AcDbArc
 50
30.00044020598607
 51
149.9999952245346
  0
LINE
  5
EF
330
A3
100
AcDbEntity
  8
0 - Systemaufbauten
  6
Continuous
 62
     7
370
     0
100
AcDbLine
 10
607.4947187605856
 20
1250.272253355812
 30
0.0
 11
611.7212197485917
 21
1243.605587235521
 31
0.0
  0
ARC
  5
F0
330
A3
100
AcDbEntity
  8
0 - Systemaufbauten
  6
Continuous
 62
     7
370
     0
100
AcDbCircle
 10
614.6079692545889
 20
1245.272253355811
 30
0.0
 40
3.33333146670071
100
AcDbArc
 50
210.0000076799373
 51
270.0
  0
ARC
  5
F1
330
A3
100
AcDbEntity
  8
0 - Systemaufbauten
  6
Continuous
 62
     7
370
     0
100
AcDbCircle
 10
614.6079692545889
 20
1245.272253355811
 30
0.0
 40
3.33333313465154
100
AcDbArc
 50
270.0
 51
329.9999974427075
  0
LINE
  5
F2
330
A3
100
AcDbEntity
  8
0 - Systemaufbauten
  6
Continuous
 62
     7
370
     0
100
AcDbLine
 10
617.4947193566318
 20
1243.605587235521
 30
0.0
 11
621.7212191525446
 21
1250.272253355812
 31
0.0
  0
ARC
  5
F3
330
A3
100
AcDbEntity
  8
0 - Systemaufbauten
  6
Continuous
 62
     7
370
     0
100
AcDbCircle
 10
624.6079692545889
 20
1248.605587086509
 30
0.0
 40
3.33328818123023
100
AcDbArc
 50
30.00044020598607
 51
149.9999952245346
  0
LINE
  5
F4
330
A3
100
AcDbEntity
  8
0 - Systemaufbauten
  6
Continuous
 62
     7
370
     0
100
AcDbLine
 10
627.4947187605846
 20
1250.272253355812
 30
0.0
 11
631.7212197485906
 21
1243.605587235521
 31
0.0
  0
ARC
  5
F5
330
A3
100
AcDbEntity
  8
0 - Systemaufbauten
  6
Continuous
 62
     7
370
     0
100
AcDbCircle
 10
634.6079692545877
 20
1245.272253355811
 30
0.0
 40
3.33333146670071
100
AcDbArc
 50
210.0000076799373
 51
270.0
  0
ARC
  5
F6
330
A3
100
AcDbEntity
  8
0 - Systemaufbauten
  6
Continuous
 62
     7
370
     0
100
AcDbCircle
 10
634.6079692545877
 20
1245.272253355811
 30
0.0
 40
3.33333313465154
100
AcDbArc
 50
270.0
 51
329.9999974427075
  0
LINE
  5
F7
330
A3
100
AcDbEntity
  8
0 - Systemaufbauten
  6
Continuous
 62
     7
370
     0
100
AcDbLine
 10
637.4947193566306
 20
1243.605587235521
 30
0.0
 11
641.7212191525437
 21
1250.272253355812
 31
0.0
  0
ARC
  5
F8
330
A3
100
AcDbEntity
  8
0 - Systemaufbauten
  6
Continuous
 62
     7
370
     0
100
AcDbCircle
 10
644.6079692545868
 20
1248.605587086509
 30
0.0
 40
3.33328818123023
100
AcDbArc
 50
30.00044020598607
 51
149.9999952245346
  0
LINE
  5
F9
330
A3
100
AcDbEntity
  8
0 - Systemaufbauten
  6
Continuous
 62
     7
370
     0
100
AcDbLine
 10
647.4947187605837
 20
1250.272253355812
 30
0.0
 11
651.7212197485896
 21
1243.605587235521
 31
0.0
  0
ARC
  5
FA
330
A3
100
AcDbEntity
  8
0 - Systemaufbauten
  6
Continuous
 62
     7
370
     0
100
AcDbCircle
 10
654.6079692545868
 20
1245.272253355811
 30
0.0
 40
3.33333146670071
100
AcDbArc
 50
210.0000076799373
 51
270.0
  0
ARC
  5
FB
330
A3
100
AcDbEntity
  8
0 - Systemaufbauten
  6
Continuous
 62
     7
370
     0
100
AcDbCircle
 10
654.6079692545868
 20
1245.272253355811
 30
0.0
 40
3.33333313465154
100
AcDbArc
 50
270.0
 51
329.9999974427075
  0
LINE
  5
FC
330
A3
100
AcDbEntity
  8
0 - Systemaufbauten
  6
Continuous
 62
     7
370
     0
100
AcDbLine
 10
657.4947193566297
 20
1243.605587235521
 30
0.0
 11
661.7212191525427
 21
1250.272253355812
 31
0.0
  0
ARC
  5
FD
330
A3
100
AcDbEntity
  8
0 - Systemaufbauten
  6
Continuous
 62
     7
370
     0
100
AcDbCircle
 10
664.6079692545857
 20
1248.605587086509
 30
0.0
 40
3.33328818123023
100
AcDbArc
 50
30.00044020598607
 51
149.9999952245346
  0
LINE
  5
FE
330
A3
100
AcDbEntity
  8
0 - Systemaufbauten
  6
Continuous
 62
     7
370
     0
100
AcDbLine
 10
667.4947187605828
 20
1250.272253355812
 30
0.0
 11
671.7212197485887
 21
1243.605587235521
 31
0.0
  0
ARC
  5
FF
330
A3
100
AcDbEntity
  8
0 - Systemaufbauten
  6
Continuous
 62
     7
370
     0
100
AcDbCircle
 10
674.6079692545857
 20
1245.272253355811
 30
0.0
 40
3.33333146670071
100
AcDbArc
 50
210.0000076799373
 51
270.0
  0
ARC
  5
100
330
A3
100
AcDbEntity
  8
0 - Systemaufbauten
  6
Continuous
 62
     7
370
     0
100
AcDbCircle
 10
674.6079692545857
 20
1245.272253355811
 30
0.0
 40
3.33333313465154
100
AcDbArc
 50
270.0
 51
329.9999974427075
  0
LINE
  5
101
330
A3
100
AcDbEntity
  8
0 - Systemaufbauten
  6
Continuous
 62
     7
370
     0
100
AcDbLine
 10
677.4947193566288
 20
1243.605587235521
 30
0.0
 11
681.7212191525418
 21
1250.272253355812
 31
0.0
  0
ARC
  5
102
330
A3
100
AcDbEntity
  8
0 - Systemaufbauten
  6
Continuous
 62
     7
370
     0
100
AcDbCircle
 10
684.6079692545845
 20
1248.605587086509
 30
0.0
 40
3.33328818123023
100
AcDbArc
 50
30.00044020598607
 51
149.9999952245346
  0
LINE
  5
103
330
A3
100
AcDbEntity
  8
0 - Systemaufbauten
  6
Continuous
 62
     7
370
     0
100
AcDbLine
 10
687.4947187605817
 20
1250.272253355812
 30
0.0
 11
691.7212197485878
 21
1243.605587235521
 31
0.0
  0
ARC
  5
104
330
A3
100
AcDbEntity
  8
0 - Systemaufbauten
  6
Continuous
 62
     7
370
     0
100
AcDbCircle
 10
694.6079692545848
 20
1245.272253355811
 30
0.0
 40
3.33333146670071
100
AcDbArc
 50
210.0000076799373
 51
270.0
  0
ARC
  5
105
330
A3
100
AcDbEntity
  8
0 - Systemaufbauten
  6
Continuous
 62
     7
370
     0
100
AcDbCircle
 10
694.6079692545848
 20
1245.272253355811
 30
0.0
 40
3.33333313465154
100
AcDbArc
 50
270.0
 51
329.9999974427075
  0
LINE
  5
106
330
A3
100
AcDbEntity
  8
0 - Systemaufbauten
  6
Continuous
 62
     7
370
     0
100
AcDbLine
 10
697.4947193566277
 20
1243.605587235521
 30
0.0
 11
701.7212191525407
 21
1250.272253355812
 31
0.0
  0
ARC
  5
107
330
A3
100
AcDbEntity
  8
0 - Systemaufbauten
  6
Continuous
 62
     7
370
     0
100
AcDbCircle
 10
704.6079692545836
 20
1248.605587086509
 30
0.0
 40
3.33328818123023
100
AcDbArc
 50
30.00044020598607
 51
149.9999952245346
  0
LINE
  5
108
330
A3
100
AcDbEntity
  8
0 - Systemaufbauten
  6
Continuous
 62
     7
370
     0
100
AcDbLine
 10
707.4947187605808
 20
1250.272253355812
 30
0.0
 11
711.7212197485867
 21
1243.605587235521
 31
0.0
  0
ARC
  5
109
330
A3
100
AcDbEntity
  8
0 - Systemaufbauten
  6
Continuous
 62
     7
370
     0
100
AcDbCircle
 10
714.6079692545827
 20
1245.272253355811
 30
0.0
 40
3.33333146670071
100
AcDbArc
 50
210.0000076799373
 51
270.0
  0
ARC
  5
10A
330
A3
100
AcDbEntity
  8
0 - Systemaufbauten
  6
Continuous
 62
     7
370
     0
100
AcDbCircle
 10
714.6079692545827
 20
1245.272253355811
 30
0.0
 40
3.33333313465154
100
AcDbArc
 50
270.0
 51
329.9999974427075
  0
LINE
  5
10B
330
A3
100
AcDbEntity
  8
0 - Systemaufbauten
  6
Continuous
 62
     7
370
     0
100
AcDbLine
 10
717.4947193566256
 20
1243.605587235521
 30
0.0
 11
721.7212191525396
 21
1250.272253355812
 31
0.0
  0
ARC
  5
10C
330
A3
100
AcDbEntity
  8
0 - Systemaufbauten
  6
Continuous
 62
     7
370
     0
100
AcDbCircle
 10
724.6079692545827
 20
1248.605587086509
 30
0.0
 40
3.33328818123023
100
AcDbArc
 50
30.00044020598607
 51
149.9999952245346
  0
LINE
  5
10D
330
A3
100
AcDbEntity
  8
0 - Systemaufbauten
  6
Continuous
 62
     7
370
     0
100
AcDbLine
 10
727.4947187605787
 20
1250.272253355812
 30
0.0
 11
731.7212197485858
 21
1243.605587235521
 31
0.0
  0
ARC
  5
10E
330
A3
100
AcDbEntity
  8
0 - Systemaufbauten
  6
Continuous
 62
     7
370
     0
100
AcDbCircle
 10
734.6079692545816
 20
1245.272253355811
 30
0.0
 40
3.33333146670071
100
AcDbArc
 50
210.0000076799373
 51
270.0
  0
ARC
  5
10F
330
A3
100
AcDbEntity
  8
0 - Systemaufbauten
  6
Continuous
 62
     7
370
     0
100
AcDbCircle
 10
734.6079692545816
 20
1245.272253355811
 30
0.0
 40
3.33333313465154
100
AcDbArc
 50
270.0
 51
329.999997442706
  0
LINE
  5
110
330
A3
100
AcDbEntity
  8
0 - Systemaufbauten
  6
Continuous
 62
     7
370
     0
100
AcDbLine
 10
737.4947193566247
 20
1243.605587235521
 30
0.0
 11
741.7212191525387
 21
1250.272253355812
 31
0.0
  0
ARC
  5
111
330
A3
100
AcDbEntity
  8
0 - Systemaufbauten
  6
Continuous
 62
     7
370
     0
100
AcDbCircle
 10
744.6079692545818
 20
1248.605587086509
 30
0.0
 40
3.33328818123008
100
AcDbArc
 50
30.00044020598759
 51
149.9999952245331
  0
LINE
  5
112
330
A3
100
AcDbEntity
  8
0 - Systemaufbauten
  6
Continuous
 62
     7
370
     0
100
AcDbLine
 10
747.4947187605776
 20
1250.272253355812
 30
0.0
 11
751.7212197485837
 21
1243.605587235521
 31
0.0
  0
ARC
  5
113
330
A3
100
AcDbEntity
  8
0 - Systemaufbauten
  6
Continuous
 62
     7
370
     0
100
AcDbCircle
 10
754.6079692545807
 20
1245.272253355811
 30
0.0
 40
3.33333146670071
100
AcDbArc
 50
210.0000076799373
 51
270.0
  0
ARC
  5
114
330
A3
100
AcDbEntity
  8
0 - Systemaufbauten
  6
Continuous
 62
     7
370
     0
100
AcDbCircle
 10
754.6079692545807
 20
1245.272253355811
 30
0.0
 40
3.33333313465154
100
AcDbArc
 50
270.0
 51
329.999997442706
  0
LINE
  5
115
330
A3
100
AcDbEntity
  8
0 - Systemaufbauten
  6
Continuous
 62
     7
370
     0
100
AcDbLine
 10
757.4947193566236
 20
1243.605587235521
 30
0.0
 11
761.7212191525377
 21
1250.272253355812
 31
0.0
  0
ARC
  5
116
330
A3
100
AcDbEntity
  8
0 - Systemaufbauten
  6
Continuous
 62
     7
370
     0
100
AcDbCircle
 10
764.6079692545807
 20
1248.605587086509
 30
0.0
 40
3.33328818123008
100
AcDbArc
 50
30.00044020598759
 51
149.9999952245331
  0
LINE
  5
117
330
A3
100
AcDbEntity
  8
0 - Systemaufbauten
  6
Continuous
 62
     7
370
     0
100
AcDbLine
 10
767.4947187605767
 20
1250.272253355812
 30
0.0
 11
771.7212197485828
 21
1243.605587235521
 31
0.0
  0
ARC
  5
118
330
A3
100
AcDbEntity
  8
0 - Systemaufbauten
  6
Continuous
 62
     7
370
     0
100
AcDbCircle
 10
774.6079692545798
 20
1245.272253355811
 30
0.0
 40
3.33333146670071
100
AcDbArc
 50
210.0000076799373
 51
270.0
  0
ARC
  5
119
330
A3
100
AcDbEntity
  8
0 - Systemaufbauten
  6
Continuous
 62
     7
370
     0
100
AcDbCircle
 10
774.6079692545798
 20
1245.272253355811
 30
0.0
 40
3.33333313465154
100
AcDbArc
 50
270.0
 51
329.999997442706
  0
LINE
  5
11A
330
A3
100
AcDbEntity
  8
0 - Systemaufbauten
  6
Continuous
 62
     7
370
     0
100
AcDbLine
 10
777.4947193566227
 20
1243.605587235521
 30
0.0
 11
781.7212191525366
 21
1250.272253355812
 31
0.0
  0
ARC
  5
11B
330
A3
100
AcDbEntity
  8
0 - Systemaufbauten
  6
Continuous
 62
     7
370
     0
100
AcDbCircle
 10
784.6079692545788
 20
1248.605587086509
 30
0.0
 40
3.33328818123008
100
AcDbArc
 50
30.00044020598759
 51
149.9999952245331
  0
LINE
  5
11C
330
A3
100
AcDbEntity
  8
0 - Systemaufbauten
  6
Continuous
 62
     7
370
     0
100
AcDbLine
 10
787.4947187605758
 20
1250.272253355812
 30
0.0
 11
791.7212197485817
 21
1243.605587235521
 31
0.0
  0
ARC
  5
11D
330
A3
100
AcDbEntity
  8
0 - Systemaufbauten
  6
Continuous
 62
     7
370
     0
100
AcDbCircle
 10
794.6079692545788
 20
1245.272253355811
 30
0.0
 40
3.33333146670071
100
AcDbArc
 50
210.0000076799373
 51
270.0
  0
ARC
  5
11E
330
A3
100
AcDbEntity
  8
0 - Systemaufbauten
  6
Continuous
 62
     7
370
     0
100
AcDbCircle
 10
794.6079692545788
 20
1245.272253355811
 30
0.0
 40
3.33333313465154
100
AcDbArc
 50
270.0
 51
329.999997442706
  0
LINE
  5
11F
330
A3
100
AcDbEntity
  8
0 - Systemaufbauten
  6
Continuous
 62
     7
370
     0
100
AcDbLine
 10
797.4947193566218
 20
1243.605587235521
 30
0.0
 11
801.7212191525348
 21
1250.272253355812
 31
0.0
  0
ARC
  5
120
330
A3
100
AcDbEntity
  8
0 - Systemaufbauten
  6
Continuous
 62
     7
370
     0
100
AcDbCircle
 10
804.6079692545777
 20
1248.605587086509
 30
0.0
 40
3.33328818123008
100
AcDbArc
 50
30.00044020598759
 51
149.9999952245331
  0
LINE
  5
121
330
A3
100
AcDbEntity
  8
0 - Systemaufbauten
  6
Continuous
 62
     7
370
     0
100
AcDbLine
 10
807.4947187605746
 20
1250.272253355812
 30
0.0
 11
811.7212197485808
 21
1243.605587235521
 31
0.0
  0
ARC
  5
122
330
A3
100
AcDbEntity
  8
0 - Systemaufbauten
  6
Continuous
 62
     7
370
     0
100
AcDbCircle
 10
814.6079692545777
 20
1245.272253355811
 30
0.0
 40
3.33333146670071
100
AcDbArc
 50
210.0000076799373
 51
270.0
  0
ARC
  5
123
330
A3
100
AcDbEntity
  8
0 - Systemaufbauten
  6
Continuous
 62
     7
370
     0
100
AcDbCircle
 10
814.6079692545777
 20
1245.272253355811
 30
0.0
 40
3.33333313465154
100
AcDbArc
 50
270.0
 51
329.999997442706
  0
LINE
  5
124
330
A3
100
AcDbEntity
  8
0 - Systemaufbauten
  6
Continuous
 62
     7
370
     0
100
AcDbLine
 10
817.4947193566206
 20
1243.605587235521
 30
0.0
 11
821.7212191525336
 21
1250.272253355812
 31
0.0
  0
ARC
  5
125
330
A3
100
AcDbEntity
  8
0 - Systemaufbauten
  6
Continuous
 62
     7
370
     0
100
AcDbCircle
 10
824.6079692545766
 20
1248.605587086509
 30
0.0
 40
3.33328818123008
100
AcDbArc
 50
30.00044020598759
 51
149.9999952245331
  0
LINE
  5
126
330
A3
100
AcDbEntity
  8
0 - Systemaufbauten
  6
Continuous
 62
     7
370
     0
100
AcDbLine
 10
827.4947187605737
 20
1250.272253355812
 30
0.0
 11
831.7212197485796
 21
1243.605587235521
 31
0.0
  0
ARC
  5
127
330
A3
100
AcDbEntity
  8
0 - Systemaufbauten
  6
Continuous
 62
     7
370
     0
100
AcDbCircle
 10
834.6079692545766
 20
1245.272253355811
 30
0.0
 40
3.33333146670071
100
AcDbArc
 50
210.0000076799373
 51
270.0
  0
ARC
  5
128
330
A3
100
AcDbEntity
  8
0 - Systemaufbauten
  6
Continuous
 62
     7
370
     0
100
AcDbCircle
 10
834.6079692545766
 20
1245.272253355811
 30
0.0
 40
3.33333313465154
100
AcDbArc
 50
270.0
 51
329.999997442706
  0
LINE
  5
129
330
A3
100
AcDbEntity
  8
0 - Systemaufbauten
  6
Continuous
 62
     7
370
     0
100
AcDbLine
 10
837.4947193566186
 20
1243.605587235521
 30
0.0
 11
841.7212191525327
 21
1250.272253355812
 31
0.0
  0
ARC
  5
12A
330
A3
100
AcDbEntity
  8
0 - Systemaufbauten
  6
Continuous
 62
     7
370
     0
100
AcDbCircle
 10
844.6079692545757
 20
1248.605587086509
 30
0.0
 40
3.33328818123008
100
AcDbArc
 50
30.00044020598759
 51
149.9999952245331
  0
LINE
  5
12B
330
A3
100
AcDbEntity
  8
0 - Systemaufbauten
  6
Continuous
 62
     7
370
     0
100
AcDbLine
 10
847.4947187605726
 20
1250.272253355812
 30
0.0
 11
851.7212197485787
 21
1243.605587235521
 31
0.0
  0
ARC
  5
12C
330
A3
100
AcDbEntity
  8
0 - Systemaufbauten
  6
Continuous
 62
     7
370
     0
100
AcDbCircle
 10
854.6079692545745
 20
1245.272253355811
 30
0.0
 40
3.33333146670071
100
AcDbArc
 50
210.0000076799373
 51
270.0
  0
ARC
  5
12D
330
A3
100
AcDbEntity
  8
0 - Systemaufbauten
  6
Continuous
 62
     7
370
     0
100
AcDbCircle
 10
854.6079692545745
 20
1245.272253355811
 30
0.0
 40
3.33333313465154
100
AcDbArc
 50
270.0
 51
329.999997442706
  0
LINE
  5
12E
330
A3
100
AcDbEntity
  8
0 - Systemaufbauten
  6
Continuous
 62
     7
370
     0
100
AcDbLine
 10
857.4947193566177
 20
1243.605587235521
 30
0.0
 11
861.7212191525318
 21
1250.272253355812
 31
0.0
  0
ARC
  5
12F
330
A3
100
AcDbEntity
  8
0 - Systemaufbauten
  6
Continuous
 62
     7
370
     0
100
AcDbCircle
 10
864.6079692545748
 20
1248.605587086509
 30
0.0
 40
3.33328818123008
100
AcDbArc
 50
30.00044020598759
 51
149.9999952245331
  0
LINE
  5
130
330
A3
100
AcDbEntity
  8
0 - Systemaufbauten
  6
Continuous
 62
     7
370
     0
100
AcDbLine
 10
867.4947187605717
 20
1250.272253355812
 30
0.0
 11
871.7212197485778
 21
1243.605587235521
 31
0.0
  0
ARC
  5
131
330
A3
100
AcDbEntity
  8
0 - Systemaufbauten
  6
Continuous
 62
     7
370
     0
100
AcDbCircle
 10
874.6079692545736
 20
1245.272253355811
 30
0.0
 40
3.33333146670071
100
AcDbArc
 50
210.0000076799373
 51
270.0
  0
ARC
  5
132
330
A3
100
AcDbEntity
  8
0 - Systemaufbauten
  6
Continuous
 62
     7
370
     0
100
AcDbCircle
 10
874.6079692545736
 20
1245.272253355811
 30
0.0
 40
3.33333313465154
100
AcDbArc
 50
270.0
 51
329.999997442706
  0
LINE
  5
133
330
A3
100
AcDbEntity
  8
0 - Systemaufbauten
  6
Continuous
 62
     7
370
     0
100
AcDbLine
 10
877.4947193566168
 20
1243.605587235521
 30
0.0
 11
881.7212191525307
 21
1250.272253355812
 31
0.0
  0
ARC
  5
134
330
A3
100
AcDbEntity
  8
0 - Systemaufbauten
  6
Continuous
 62
     7
370
     0
100
AcDbCircle
 10
884.6079692545736
 20
1248.605587086509
 30
0.0
 40
3.33328818123008
100
AcDbArc
 50
30.00044020598759
 51
149.9999952245331
  0
LINE
  5
135
330
A3
100
AcDbEntity
  8
0 - Systemaufbauten
  6
Continuous
 62
     7
370
     0
100
AcDbLine
 10
887.4947187605696
 20
1250.272253355812
 30
0.0
 11
891.7212197485767
 21
1243.605587235521
 31
0.0
  0
ARC
  5
136
330
A3
100
AcDbEntity
  8
0 - Systemaufbauten
  6
Continuous
 62
     7
370
     0
100
AcDbCircle
 10
894.6079692545727
 20
1245.272253355811
 30
0.0
 40
3.33333146670071
100
AcDbArc
 50
210.0000076799373
 51
270.0
  0
ARC
  5
137
330
A3
100
AcDbEntity
  8
0 - Systemaufbauten
  6
Continuous
 62
     7
370
     0
100
AcDbCircle
 10
894.6079692545727
 20
1245.272253355811
 30
0.0
 40
3.33333313465154
100
AcDbArc
 50
270.0
 51
329.999997442706
  0
LINE
  5
138
330
A3
100
AcDbEntity
  8
0 - Systemaufbauten
  6
Continuous
 62
     7
370
     0
100
AcDbLine
 10
897.4947193566159
 20
1243.605587235521
 30
0.0
 11
901.7212191525296
 21
1250.272253355812
 31
0.0
  0
ARC
  5
139
330
A3
100
AcDbEntity
  8
0 - Systemaufbauten
  6
Continuous
 62
     7
370
     0
100
AcDbCircle
 10
904.6079692545727
 20
1248.605587086509
 30
0.0
 40
3.33328818123008
100
AcDbArc
 50
30.00044020598759
 51
149.9999952245331
  0
LINE
  5
13A
330
A3
100
AcDbEntity
  8
0 - Systemaufbauten
  6
Continuous
 62
     7
370
     0
100
AcDbLine
 10
907.4947187605687
 20
1250.272253355812
 30
0.0
 11
911.7212197485746
 21
1243.605587235521
 31
0.0
  0
ARC
  5
13B
330
A3
100
AcDbEntity
  8
0 - Systemaufbauten
  6
Continuous
 62
     7
370
     0
100
AcDbCircle
 10
914.6079692545718
 20
1245.272253355811
 30
0.0
 40
3.33333146670071
100
AcDbArc
 50
210.0000076799373
 51
270.0
  0
ARC
  5
13C
330
A3
100
AcDbEntity
  8
0 - Systemaufbauten
  6
Continuous
 62
     7
370
     0
100
AcDbCircle
 10
914.6079692545718
 20
1245.272253355811
 30
0.0
 40
3.33333313465154
100
AcDbArc
 50
270.0
 51
329.999997442706
  0
LINE
  5
13D
330
A3
100
AcDbEntity
  8
0 - Systemaufbauten
  6
Continuous
 62
     7
370
     0
100
AcDbLine
 10
917.4947193566147
 20
1243.605587235521
 30
0.0
 11
921.7212191525286
 21
1250.272253355812
 31
0.0
  0
ARC
  5
13E
330
A3
100
AcDbEntity
  8
0 - Systemaufbauten
  6
Continuous
 62
     7
370
     0
100
AcDbCircle
 10
924.6079692545707
 20
1248.605587086509
 30
0.0
 40
3.33328818123008
100
AcDbArc
 50
30.00044020598759
 51
149.9999952245331
  0
LINE
  5
13F
330
A3
100
AcDbEntity
  8
0 - Systemaufbauten
  6
Continuous
 62
     7
370
     0
100
AcDbLine
 10
927.4947187605676
 20
1250.272253355812
 30
0.0
 11
931.7212197485737
 21
1243.605587235521
 31
0.0
  0
ARC
  5
140
330
A3
100
AcDbEntity
  8
0 - Systemaufbauten
  6
Continuous
 62
     7
370
     0
100
AcDbCircle
 10
934.6079692545709
 20
1245.272253355811
 30
0.0
 40
3.33333146670071
100
AcDbArc
 50
210.0000076799373
 51
270.0
  0
ARC
  5
141
330
A3
100
AcDbEntity
  8
0 - Systemaufbauten
  6
Continuous
 62
     7
370
     0
100
AcDbCircle
 10
934.6079692545709
 20
1245.272253355811
 30
0.0
 40
3.33333313465154
100
AcDbArc
 50
270.0
 51
329.999997442706
  0
LINE
  5
142
330
A3
100
AcDbEntity
  8
0 - Systemaufbauten
  6
Continuous
 62
     7
370
     0
100
AcDbLine
 10
937.4947193566136
 20
1243.605587235521
 30
0.0
 11
941.7212191525266
 21
1250.272253355812
 31
0.0
  0
ARC
  5
143
330
A3
100
AcDbEntity
  8
0 - Systemaufbauten
  6
Continuous
 62
     7
370
     0
100
AcDbCircle
 10
944.6079692545698
 20
1248.605587086509
 30
0.0
 40
3.33328818123008
100
AcDbArc
 50
30.00044020598759
 51
149.9999952245331
  0
LINE
  5
144
330
A3
100
AcDbEntity
  8
0 - Systemaufbauten
  6
Continuous
 62
     7
370
     0
100
AcDbLine
 10
947.4947187605667
 20
1250.272253355812
 30
0.0
 11
951.7212197485726
 21
1243.605587235521
 31
0.0
  0
ARC
  5
145
330
A3
100
AcDbEntity
  8
0 - Systemaufbauten
  6
Continuous
 62
     7
370
     0
100
AcDbCircle
 10
954.6079692545698
 20
1245.272253355811
 30
0.0
 40
3.33333146670071
100
AcDbArc
 50
210.0000076799373
 51
270.0
  0
ARC
  5
146
330
A3
100
AcDbEntity
  8
0 - Systemaufbauten
  6
Continuous
 62
     7
370
     0
100
AcDbCircle
 10
954.6079692545698
 20
1245.272253355811
 30
0.0
 40
3.33333313465154
100
AcDbArc
 50
270.0
 51
329.999997442706
  0
LINE
  5
147
330
A3
100
AcDbEntity
  8
0 - Systemaufbauten
  6
Continuous
 62
     7
370
     0
100
AcDbLine
 10
957.4947193566127
 20
1243.605587235521
 30
0.0
 11
961.7212191525257
 21
1250.272253355812
 31
0.0
  0
ARC
  5
148
330
A3
100
AcDbEntity
  8
0 - Systemaufbauten
  6
Continuous
 62
     7
370
     0
100
AcDbCircle
 10
964.6079692545686
 20
1248.605587086509
 30
0.0
 40
3.33328818123008
100
AcDbArc
 50
30.00044020598759
 51
149.9999952245331
  0
LINE
  5
149
330
A3
100
AcDbEntity
  8
0 - Systemaufbauten
  6
Continuous
 62
     7
370
     0
100
AcDbLine
 10
967.4947187605658
 20
1250.272253355812
 30
0.0
 11
971.7212197485717
 21
1243.605587235521
 31
0.0
  0
ARC
  5
14A
330
A3
100
AcDbEntity
  8
0 - Systemaufbauten
  6
Continuous
 62
     7
370
     0
100
AcDbCircle
 10
974.6079692545686
 20
1245.272253355811
 30
0.0
 40
3.33333146670071
100
AcDbArc
 50
210.0000076799373
 51
270.0
  0
ARC
  5
14B
330
A3
100
AcDbEntity
  8
0 - Systemaufbauten
  6
Continuous
 62
     7
370
     0
100
AcDbCircle
 10
974.6079692545686
 20
1245.272253355811
 30
0.0
 40
3.33333313465154
100
AcDbArc
 50
270.0
 51
329.999997442706
  0
LINE
  5
14C
330
A3
100
AcDbEntity
  8
0 - Systemaufbauten
  6
Continuous
 62
     7
370
     0
100
AcDbLine
 10
977.4947193566106
 20
1243.605587235521
 30
0.0
 11
981.7212191525248
 21
1250.272253355812
 31
0.0
  0
ARC
  5
14D
330
A3
100
AcDbEntity
  8
0 - Systemaufbauten
  6
Continuous
 62
     7
370
     0
100
AcDbCircle
 10
984.6079692545677
 20
1248.605587086509
 30
0.0
 40
3.33328818123008
100
AcDbArc
 50
30.00044020598759
 51
149.9999952245331
  0
LINE
  5
14E
330
A3
100
AcDbEntity
  8
0 - Systemaufbauten
  6
Continuous
 62
     7
370
     0
100
AcDbLine
 10
987.4947187605649
 20
1250.272253355812
 30
0.0
 11
991.7212197485708
 21
1243.605587235521
 31
0.0
  0
ARC
  5
14F
330
A3
100
AcDbEntity
  8
0 - Systemaufbauten
  6
Continuous
 62
     7
370
     0
100
AcDbCircle
 10
994.6079692545666
 20
1245.272253355811
 30
0.0
 40
3.33333146670071
100
AcDbArc
 50
210.0000076799373
 51
270.0
  0
ARC
  5
150
330
A3
100
AcDbEntity
  8
0 - Systemaufbauten
  6
Continuous
 62
     7
370
     0
100
AcDbCircle
 10
994.6079692545666
 20
1245.272253355811
 30
0.0
 40
3.33333313465154
100
AcDbArc
 50
270.0
 51
329.999997442706
  0
LINE
  5
151
330
A3
100
AcDbEntity
  8
0 - Systemaufbauten
  6
Continuous
 62
     7
370
     0
100
AcDbLine
 10
997.4947193566097
 20
1243.605587235521
 30
0.0
 11
1001.721219152524
 21
1250.272253355812
 31
0.0
  0
ARC
  5
152
330
A3
100
AcDbEntity
  8
0 - Systemaufbauten
  6
Continuous
 62
     7
370
     0
100
AcDbCircle
 10
1004.607969254567
 20
1248.605587086509
 30
0.0
 40
3.33328818123008
100
AcDbArc
 50
30.00044020598759
 51
149.9999952245331
  0
LINE
  5
153
330
A3
100
AcDbEntity
  8
0 - Systemaufbauten
  6
Continuous
 62
     7
370
     0
100
AcDbLine
 10
1007.494718760564
 20
1250.272253355812
 30
0.0
 11
1011.72121974857
 21
1243.605587235521
 31
0.0
  0
ARC
  5
154
330
A3
100
AcDbEntity
  8
0 - Systemaufbauten
  6
Continuous
 62
     7
370
     0
100
AcDbCircle
 10
1014.607969254566
 20
1245.272253355811
 30
0.0
 40
3.33333146670071
100
AcDbArc
 50
210.0000076799373
 51
270.0
  0
ARC
  5
155
330
A3
100
AcDbEntity
  8
0 - Systemaufbauten
  6
Continuous
 62
     7
370
     0
100
AcDbCircle
 10
1014.607969254566
 20
1245.272253355811
 30
0.0
 40
3.33333313465154
100
AcDbArc
 50
270.0
 51
329.999997442706
  0
LINE
  5
156
330
A3
100
AcDbEntity
  8
0 - Systemaufbauten
  6
Continuous
 62
     7
370
     0
100
AcDbLine
 10
1017.494719356609
 20
1243.605587235521
 30
0.0
 11
1021.721219152523
 21
1250.272253355812
 31
0.0
  0
ARC
  5
157
330
A3
100
AcDbEntity
  8
0 - Systemaufbauten
  6
Continuous
 62
     7
370
     0
100
AcDbCircle
 10
1024.607969254566
 20
1248.605587086509
 30
0.0
 40
3.33328818123008
100
AcDbArc
 50
30.00044020598759
 51
149.9999952245331
  0
LINE
  5
158
330
A3
100
AcDbEntity
  8
0 - Systemaufbauten
  6
Continuous
 62
     7
370
     0
100
AcDbLine
 10
1027.494718760562
 20
1250.272253355812
 30
0.0
 11
1031.721219748569
 21
1243.605587235521
 31
0.0
  0
ARC
  5
159
330
A3
100
AcDbEntity
  8
0 - Systemaufbauten
  6
Continuous
 62
     7
370
     0
100
AcDbCircle
 10
1034.607969254565
 20
1245.272253355811
 30
0.0
 40
3.33333146670071
100
AcDbArc
 50
210.0000076799373
 51
270.0
  0
ARC
  5
15A
330
A3
100
AcDbEntity
  8
0 - Systemaufbauten
  6
Continuous
 62
     7
370
     0
100
AcDbCircle
 10
1034.607969254565
 20
1245.272253355811
 30
0.0
 40
3.33333313465154
100
AcDbArc
 50
270.0
 51
329.999997442706
  0
LINE
  5
15B
330
A3
100
AcDbEntity
  8
0 - Systemaufbauten
  6
Continuous
 62
     7
370
     0
100
AcDbLine
 10
1037.494719356608
 20
1243.605587235521
 30
0.0
 11
1041.721219152522
 21
1250.272253355812
 31
0.0
  0
ARC
  5
15C
330
A3
100
AcDbEntity
  8
0 - Systemaufbauten
  6
Continuous
 62
     7
370
     0
100
AcDbCircle
 10
1044.607969254565
 20
1248.605587086509
 30
0.0
 40
3.33328818123008
100
AcDbArc
 50
30.00044020598759
 51
149.9999952245331
  0
LINE
  5
15D
330
A3
100
AcDbEntity
  8
0 - Systemaufbauten
  6
Continuous
 62
     7
370
     0
100
AcDbLine
 10
1047.494718760561
 20
1250.272253355812
 30
0.0
 11
1051.721219748567
 21
1243.605587235521
 31
0.0
  0
ARC
  5
15E
330
A3
100
AcDbEntity
  8
0 - Systemaufbauten
  6
Continuous
 62
     7
370
     0
100
AcDbCircle
 10
1054.607969254564
 20
1245.272253355811
 30
0.0
 40
3.33333146670071
100
AcDbArc
 50
210.0000076799373
 51
270.0
  0
ARC
  5
15F
330
A3
100
AcDbEntity
  8
0 - Systemaufbauten
  6
Continuous
 62
     7
370
     0
100
AcDbCircle
 10
1054.607969254564
 20
1245.272253355811
 30
0.0
 40
3.33333313465154
100
AcDbArc
 50
270.0
 51
329.999997442706
  0
LINE
  5
160
330
A3
100
AcDbEntity
  8
0 - Systemaufbauten
  6
Continuous
 62
     7
370
     0
100
AcDbLine
 10
1057.494719356607
 20
1243.605587235521
 30
0.0
 11
1061.721219152521
 21
1250.272253355812
 31
0.0
  0
ARC
  5
161
330
A3
100
AcDbEntity
  8
0 - Systemaufbauten
  6
Continuous
 62
     7
370
     0
100
AcDbCircle
 10
1064.607969254564
 20
1248.605587086509
 30
0.0
 40
3.33328818123008
100
AcDbArc
 50
30.00044020598759
 51
149.9999952245331
  0
LINE
  5
162
330
A3
100
AcDbEntity
  8
0 - Systemaufbauten
  6
Continuous
 62
     7
370
     0
100
AcDbLine
 10
1067.49471876056
 20
1250.272253355812
 30
0.0
 11
1071.721219748566
 21
1243.605587235521
 31
0.0
  0
ARC
  5
163
330
A3
100
AcDbEntity
  8
0 - Systemaufbauten
  6
Continuous
 62
     7
370
     0
100
AcDbCircle
 10
1074.607969254563
 20
1245.272253355811
 30
0.0
 40
3.33333146670071
100
AcDbArc
 50
210.0000076799373
 51
270.0
  0
ARC
  5
164
330
A3
100
AcDbEntity
  8
0 - Systemaufbauten
  6
Continuous
 62
     7
370
     0
100
AcDbCircle
 10
1074.607969254563
 20
1245.272253355811
 30
0.0
 40
3.33333313465154
100
AcDbArc
 50
270.0
 51
329.999997442706
  0
LINE
  5
165
330
A3
100
AcDbEntity
  8
0 - Systemaufbauten
  6
Continuous
 62
     7
370
     0
100
AcDbLine
 10
1077.494719356606
 20
1243.605587235521
 30
0.0
 11
1081.72121915252
 21
1250.272253355812
 31
0.0
  0
ARC
  5
166
330
A3
100
AcDbEntity
  8
0 - Systemaufbauten
  6
Continuous
 62
     7
370
     0
100
AcDbCircle
 10
1084.607969254562
 20
1248.605587086509
 30
0.0
 40
3.33328818123014
100
AcDbArc
 50
138.5912579324264
 51
149.9999952245331
  0
ARC
  5
167
330
A3
100
AcDbEntity
  8
0 - Systemaufbauten
  6
Continuous
 62
     7
370
     0
100
AcDbCircle
 10
1087.107969254604
 20
1245.272253355811
 30
0.0
 40
3.33333313465154
100
AcDbArc
 50
270.0
 51
329.999997442706
  0
LINE
  5
168
330
A3
100
AcDbEntity
  8
0 - Systemaufbauten
  6
Continuous
 62
     7
370
     0
100
AcDbLine
 10
1089.994719356647
 20
1243.605587235521
 30
0.0
 11
1094.221219152561
 21
1250.272253355812
 31
0.0
  0
ARC
  5
169
330
A3
100
AcDbEntity
  8
0 - Systemaufbauten
  6
Continuous
 62
     7
370
     0
100
AcDbCircle
 10
1097.107969254604
 20
1248.605587086509
 30
0.0
 40
3.33328818123008
100
AcDbArc
 50
30.00044020598759
 51
149.9999952245331
  0
LINE
  5
16A
330
A3
100
AcDbEntity
  8
0 - Systemaufbauten
  6
Continuous
 62
     7
370
     0
100
AcDbLine
 10
1099.9947187606
 20
1250.272253355812
 30
0.0
 11
1104.221219748606
 21
1243.605587235521
 31
0.0
  0
ARC
  5
16B
330
A3
100
AcDbEntity
  8
0 - Systemaufbauten
  6
Continuous
 62
     7
370
     0
100
AcDbCircle
 10
1107.107969254603
 20
1245.272253355811
 30
0.0
 40
3.33333146670071
100
AcDbArc
 50
210.0000076799373
 51
270.0
  0
ARC
  5
16C
330
A3
100
AcDbEntity
  8
0 - Systemaufbauten
  6
Continuous
 62
     7
370
     0
100
AcDbCircle
 10
1107.107969254603
 20
1245.272253355811
 30
0.0
 40
3.33333313465154
100
AcDbArc
 50
270.0
 51
329.999997442706
  0
LINE
  5
16D
330
A3
100
AcDbEntity
  8
0 - Systemaufbauten
  6
Continuous
 62
     7
370
     0
100
AcDbLine
 10
1109.994719356646
 20
1243.605587235521
 30
0.0
 11
1114.22121915256
 21
1250.272253355812
 31
0.0
  0
ARC
  5
16E
330
A3
100
AcDbEntity
  8
0 - Systemaufbauten
  6
Continuous
 62
     7
370
     0
100
AcDbCircle
 10
1117.107969254602
 20
1248.605587086509
 30
0.0
 40
3.33328818123008
100
AcDbArc
 50
30.00044020598759
 51
149.9999952245331
  0
LINE
  5
16F
330
A3
100
AcDbEntity
  8
0 - Systemaufbauten
  6
Continuous
 62
     7
370
     0
100
AcDbLine
 10
1119.994718760599
 20
1250.272253355812
 30
0.0
 11
1124.221219748605
 21
1243.605587235521
 31
0.0
  0
ARC
  5
170
330
A3
100
AcDbEntity
  8
0 - Systemaufbauten
  6
Continuous
 62
     7
370
     0
100
AcDbCircle
 10
1127.107969254602
 20
1245.272253355811
 30
0.0
 40
3.33333146670071
100
AcDbArc
 50
210.0000076799373
 51
270.0
  0
ARC
  5
171
330
A3
100
AcDbEntity
  8
0 - Systemaufbauten
  6
Continuous
 62
     7
370
     0
100
AcDbCircle
 10
1127.107969254602
 20
1245.272253355811
 30
0.0
 40
3.33333313465154
100
AcDbArc
 50
270.0
 51
329.999997442706
  0
LINE
  5
172
330
A3
100
AcDbEntity
  8
0 - Systemaufbauten
  6
Continuous
 62
     7
370
     0
100
AcDbLine
 10
1129.994719356645
 20
1243.605587235521
 30
0.0
 11
1134.221219152558
 21
1250.272253355812
 31
0.0
  0
ARC
  5
173
330
A3
100
AcDbEntity
  8
0 - Systemaufbauten
  6
Continuous
 62
     7
370
     0
100
AcDbCircle
 10
1137.107969254601
 20
1248.605587086509
 30
0.0
 40
3.33328818123008
100
AcDbArc
 50
30.00044020598759
 51
149.9999952245331
  0
LINE
  5
174
330
A3
100
AcDbEntity
  8
0 - Systemaufbauten
  6
Continuous
 62
     7
370
     0
100
AcDbLine
 10
1139.994718760598
 20
1250.272253355812
 30
0.0
 11
1144.221219748604
 21
1243.605587235521
 31
0.0
  0
ARC
  5
175
330
A3
100
AcDbEntity
  8
0 - Systemaufbauten
  6
Continuous
 62
     7
370
     0
100
AcDbCircle
 10
1147.107969254601
 20
1245.272253355811
 30
0.0
 40
3.33333146670071
100
AcDbArc
 50
210.0000076799373
 51
270.0
  0
ARC
  5
176
330
A3
100
AcDbEntity
  8
0 - Systemaufbauten
  6
Continuous
 62
     7
370
     0
100
AcDbCircle
 10
1147.107969254601
 20
1245.272253355811
 30
0.0
 40
3.33333313465154
100
AcDbArc
 50
270.0
 51
329.999997442706
  0
LINE
  5
177
330
A3
100
AcDbEntity
  8
0 - Systemaufbauten
  6
Continuous
 62
     7
370
     0
100
AcDbLine
 10
1149.994719356644
 20
1243.605587235521
 30
0.0
 11
1154.221219152557
 21
1250.272253355812
 31
0.0
  0
ARC
  5
178
330
A3
100
AcDbEntity
  8
0 - Systemaufbauten
  6
Continuous
 62
     7
370
     0
100
AcDbCircle
 10
1157.1079692546
 20
1248.605587086509
 30
0.0
 40
3.33328818123008
100
AcDbArc
 50
30.00044020598759
 51
149.9999952245331
  0
LINE
  5
179
330
A3
100
AcDbEntity
  8
0 - Systemaufbauten
  6
Continuous
 62
     7
370
     0
100
AcDbLine
 10
1159.994718760597
 20
1250.272253355812
 30
0.0
 11
1164.221219748603
 21
1243.605587235521
 31
0.0
  0
ARC
  5
17A
330
A3
100
AcDbEntity
  8
0 - Systemaufbauten
  6
Continuous
 62
     7
370
     0
100
AcDbCircle
 10
1167.1079692546
 20
1245.272253355811
 30
0.0
 40
3.33333146670071
100
AcDbArc
 50
210.0000076799373
 51
270.0
  0
ARC
  5
17B
330
A3
100
AcDbEntity
  8
0 - Systemaufbauten
  6
Continuous
 62
     7
370
     0
100
AcDbCircle
 10
1167.1079692546
 20
1245.272253355811
 30
0.0
 40
3.33333313465154
100
AcDbArc
 50
270.0
 51
329.999997442706
  0
LINE
  5
17C
330
A3
100
AcDbEntity
  8
0 - Systemaufbauten
  6
Continuous
 62
     7
370
     0
100
AcDbLine
 10
1169.994719356642
 20
1243.605587235521
 30
0.0
 11
1174.221219152556
 21
1250.272253355812
 31
0.0
  0
ARC
  5
17D
330
A3
100
AcDbEntity
  8
0 - Systemaufbauten
  6
Continuous
 62
     7
370
     0
100
AcDbCircle
 10
1177.107969254599
 20
1248.605587086509
 30
0.0
 40
3.33328818123008
100
AcDbArc
 50
30.00044020598759
 51
149.9999952245331
  0
LINE
  5
17E
330
A3
100
AcDbEntity
  8
0 - Systemaufbauten
  6
Continuous
 62
     7
370
     0
100
AcDbLine
 10
1179.994718760596
 20
1250.272253355812
 30
0.0
 11
1184.221219748601
 21
1243.605587235521
 31
0.0
  0
ARC
  5
17F
330
A3
100
AcDbEntity
  8
0 - Systemaufbauten
  6
Continuous
 62
     7
370
     0
100
AcDbCircle
 10
1187.107969254598
 20
1245.272253355811
 30
0.0
 40
3.33333146670071
100
AcDbArc
 50
210.0000076799373
 51
270.0
  0
ARC
  5
180
330
A3
100
AcDbEntity
  8
0 - Systemaufbauten
  6
Continuous
 62
     7
370
     0
100
AcDbCircle
 10
1187.107969254598
 20
1245.272253355811
 30
0.0
 40
3.33333313465154
100
AcDbArc
 50
270.0
 51
329.999997442706
  0
LINE
  5
181
330
A3
100
AcDbEntity
  8
0 - Systemaufbauten
  6
Continuous
 62
     7
370
     0
100
AcDbLine
 10
1189.994719356641
 20
1243.605587235521
 30
0.0
 11
1194.221219152555
 21
1250.272253355812
 31
0.0
  0
ARC
  5
182
330
A3
100
AcDbEntity
  8
0 - Systemaufbauten
  6
Continuous
 62
     7
370
     0
100
AcDbCircle
 10
1197.107969254598
 20
1248.605587086509
 30
0.0
 40
3.33328818123008
100
AcDbArc
 50
30.00044020598759
 51
149.9999952245331
  0
LINE
  5
183
330
A3
100
AcDbEntity
  8
0 - Systemaufbauten
  6
Continuous
 62
     7
370
     0
100
AcDbLine
 10
1199.994718760595
 20
1250.272253355812
 30
0.0
 11
1204.221219748601
 21
1243.605587235521
 31
0.0
  0
ARC
  5
184
330
A3
100
AcDbEntity
  8
0 - Systemaufbauten
  6
Continuous
 62
     7
370
     0
100
AcDbCircle
 10
1207.107969254597
 20
1245.272253355811
 30
0.0
 40
3.33333146670071
100
AcDbArc
 50
210.0000076799373
 51
270.0
  0
ARC
  5
185
330
A3
100
AcDbEntity
  8
0 - Systemaufbauten
  6
Continuous
 62
     7
370
     0
100
AcDbCircle
 10
1207.107969254597
 20
1245.272253355811
 30
0.0
 40
3.33333313465154
100
AcDbArc
 50
270.0
 51
329.999997442706
  0
LINE
  5
186
330
A3
100
AcDbEntity
  8
0 - Systemaufbauten
  6
Continuous
 62
     7
370
     0
100
AcDbLine
 10
1209.99471935664
 20
1243.605587235521
 30
0.0
 11
1214.221219152554
 21
1250.272253355812
 31
0.0
  0
ARC
  5
187
330
A3
100
AcDbEntity
  8
0 - Systemaufbauten
  6
Continuous
 62
     7
370
     0
100
AcDbCircle
 10
1217.107969254597
 20
1248.605587086509
 30
0.0
 40
3.33328818123008
100
AcDbArc
 50
30.00044020598759
 51
149.9999952245331
  0
LINE
  5
188
330
A3
100
AcDbEntity
  8
0 - Systemaufbauten
  6
Continuous
 62
     7
370
     0
100
AcDbLine
 10
1219.994718760593
 20
1250.272253355812
 30
0.0
 11
1224.2212197486
 21
1243.605587235521
 31
0.0
  0
ARC
  5
189
330
A3
100
AcDbEntity
  8
0 - Systemaufbauten
  6
Continuous
 62
     7
370
     0
100
AcDbCircle
 10
1227.107969254595
 20
1245.272253355811
 30
0.0
 40
3.33333146670071
100
AcDbArc
 50
210.0000076799373
 51
270.0
  0
ARC
  5
18A
330
A3
100
AcDbEntity
  8
0 - Systemaufbauten
  6
Continuous
 62
     7
370
     0
100
AcDbCircle
 10
1227.107969254595
 20
1245.272253355811
 30
0.0
 40
3.33333313465154
100
AcDbArc
 50
270.0
 51
329.999997442706
  0
LINE
  5
18B
330
A3
100
AcDbEntity
  8
0 - Systemaufbauten
  6
Continuous
 62
     7
370
     0
100
AcDbLine
 10
1229.994719356639
 20
1243.605587235521
 30
0.0
 11
1234.221219152553
 21
1250.272253355812
 31
0.0
  0
ARC
  5
18C
330
A3
100
AcDbEntity
  8
0 - Systemaufbauten
  6
Continuous
 62
     7
370
     0
100
AcDbCircle
 10
1237.107969254596
 20
1248.605587086509
 30
0.0
 40
3.33328818123008
100
AcDbArc
 50
30.00044020598759
 51
149.9999952245331
  0
LINE
  5
18D
330
A3
100
AcDbEntity
  8
0 - Systemaufbauten
  6
Continuous
 62
     7
370
     0
100
AcDbLine
 10
1239.994718760592
 20
1250.272253355812
 30
0.0
 11
1244.221219748598
 21
1243.605587235521
 31
0.0
  0
ARC
  5
18E
330
A3
100
AcDbEntity
  8
0 - Systemaufbauten
  6
Continuous
 62
     7
370
     0
100
AcDbCircle
 10
1247.107969254595
 20
1245.272253355811
 30
0.0
 40
3.33333146670071
100
AcDbArc
 50
210.0000076799373
 51
270.0
  0
ARC
  5
18F
330
A3
100
AcDbEntity
  8
0 - Systemaufbauten
  6
Continuous
 62
     7
370
     0
100
AcDbCircle
 10
1247.107969254595
 20
1245.272253355811
 30
0.0
 40
3.33333313465154
100
AcDbArc
 50
270.0
 51
329.999997442706
  0
LINE
  5
190
330
A3
100
AcDbEntity
  8
0 - Systemaufbauten
  6
Continuous
 62
     7
370
     0
100
AcDbLine
 10
1249.994719356638
 20
1243.605587235521
 30
0.0
 11
1254.221219152552
 21
1250.272253355812
 31
0.0
  0
ARC
  5
191
330
A3
100
AcDbEntity
  8
0 - Systemaufbauten
  6
Continuous
 62
     7
370
     0
100
AcDbCircle
 10
1257.107969254594
 20
1248.605587086509
 30
0.0
 40
3.33328818123008
100
AcDbArc
 50
30.00044020598759
 51
149.9999952245331
  0
LINE
  5
192
330
A3
100
AcDbEntity
  8
0 - Systemaufbauten
  6
Continuous
 62
     7
370
     0
100
AcDbLine
 10
1259.994718760591
 20
1250.272253355812
 30
0.0
 11
1264.221219748597
 21
1243.605587235521
 31
0.0
  0
ARC
  5
193
330
A3
100
AcDbEntity
  8
0 - Systemaufbauten
  6
Continuous
 62
     7
370
     0
100
AcDbCircle
 10
1267.107969254594
 20
1245.272253355811
 30
0.0
 40
3.33333146670071
100
AcDbArc
 50
210.0000076799373
 51
270.0
  0
ARC
  5
194
330
A3
100
AcDbEntity
  8
0 - Systemaufbauten
  6
Continuous
 62
     7
370
     0
100
AcDbCircle
 10
1267.107969254594
 20
1245.272253355811
 30
0.0
 40
3.33333313465154
100
AcDbArc
 50
270.0
 51
329.999997442706
  0
LINE
  5
195
330
A3
100
AcDbEntity
  8
0 - Systemaufbauten
  6
Continuous
 62
     7
370
     0
100
AcDbLine
 10
1269.994719356637
 20
1243.605587235521
 30
0.0
 11
1274.22121915255
 21
1250.272253355812
 31
0.0
  0
ARC
  5
196
330
A3
100
AcDbEntity
  8
0 - Systemaufbauten
  6
Continuous
 62
     7
370
     0
100
AcDbCircle
 10
1277.107969254593
 20
1248.605587086509
 30
0.0
 40
3.33328818123008
100
AcDbArc
 50
30.00044020598759
 51
149.9999952245331
  0
LINE
  5
197
330
A3
100
AcDbEntity
  8
0 - Systemaufbauten
  6
Continuous
 62
     7
370
     0
100
AcDbLine
 10
1279.99471876059
 20
1250.272253355812
 30
0.0
 11
1284.221219748596
 21
1243.605587235521
 31
0.0
  0
ARC
  5
198
330
A3
100
AcDbEntity
  8
0 - Systemaufbauten
  6
Continuous
 62
     7
370
     0
100
AcDbCircle
 10
1287.107969254593
 20
1245.272253355811
 30
0.0
 40
3.33333146670071
100
AcDbArc
 50
210.0000076799373
 51
270.0
  0
ARC
  5
199
330
A3
100
AcDbEntity
  8
0 - Systemaufbauten
  6
Continuous
 62
     7
370
     0
100
AcDbCircle
 10
1287.107969254593
 20
1245.272253355811
 30
0.0
 40
3.33333313465154
100
AcDbArc
 50
270.0
 51
329.999997442706
  0
LINE
  5
19A
330
A3
100
AcDbEntity
  8
0 - Systemaufbauten
  6
Continuous
 62
     7
370
     0
100
AcDbLine
 10
1289.994719356636
 20
1243.605587235521
 30
0.0
 11
1294.221219152549
 21
1250.272253355812
 31
0.0
  0
ARC
  5
19B
330
A3
100
AcDbEntity
  8
0 - Systemaufbauten
  6
Continuous
 62
     7
370
     0
100
AcDbCircle
 10
1297.107969254592
 20
1248.605587086509
 30
0.0
 40
3.33328818123008
100
AcDbArc
 50
30.00044020598759
 51
149.9999952245331
  0
LINE
  5
19C
330
A3
100
AcDbEntity
  8
0 - Systemaufbauten
  6
Continuous
 62
     7
370
     0
100
AcDbLine
 10
1299.994718760589
 20
1250.272253355812
 30
0.0
 11
1304.221219748595
 21
1243.605587235521
 31
0.0
  0
ARC
  5
19D
330
A3
100
AcDbEntity
  8
0 - Systemaufbauten
  6
Continuous
 62
     7
370
     0
100
AcDbCircle
 10
1307.107969254592
 20
1245.272253355811
 30
0.0
 40
3.33333146670071
100
AcDbArc
 50
210.0000076799373
 51
270.0
  0
ARC
  5
19E
330
A3
100
AcDbEntity
  8
0 - Systemaufbauten
  6
Continuous
 62
     7
370
     0
100
AcDbCircle
 10
1307.107969254592
 20
1245.272253355811
 30
0.0
 40
3.33333313465154
100
AcDbArc
 50
270.0
 51
329.999997442706
  0
LINE
  5
19F
330
A3
100
AcDbEntity
  8
0 - Systemaufbauten
  6
Continuous
 62
     7
370
     0
100
AcDbLine
 10
1309.994719356635
 20
1243.605587235521
 30
0.0
 11
1314.221219152548
 21
1250.272253355812
 31
0.0
  0
ARC
  5
1A0
330
A3
100
AcDbEntity
  8
0 - Systemaufbauten
  6
Continuous
 62
     7
370
     0
100
AcDbCircle
 10
1317.107969254591
 20
1248.605587086509
 30
0.0
 40
3.33328818123008
100
AcDbArc
 50
30.00044020598759
 51
149.9999952245331
  0
LINE
  5
1A1
330
A3
100
AcDbEntity
  8
0 - Systemaufbauten
  6
Continuous
 62
     7
370
     0
100
AcDbLine
 10
1319.994718760588
 20
1250.272253355812
 30
0.0
 11
1324.221219748594
 21
1243.605587235521
 31
0.0
  0
ARC
  5
1A2
330
A3
100
AcDbEntity
  8
0 - Systemaufbauten
  6
Continuous
 62
     7
370
     0
100
AcDbCircle
 10
1327.107969254591
 20
1245.272253355811
 30
0.0
 40
3.33333146670071
100
AcDbArc
 50
210.0000076799373
 51
270.0
  0
ARC
  5
1A3
330
A3
100
AcDbEntity
  8
0 - Systemaufbauten
  6
Continuous
 62
     7
370
     0
100
AcDbCircle
 10
1327.107969254591
 20
1245.272253355811
 30
0.0
 40
3.33333313465154
100
AcDbArc
 50
270.0
 51
329.999997442706
  0
LINE
  5
1A4
330
A3
100
AcDbEntity
  8
0 - Systemaufbauten
  6
Continuous
 62
     7
370
     0
100
AcDbLine
 10
1329.994719356633
 20
1243.605587235521
 30
0.0
 11
1334.221219152547
 21
1250.272253355812
 31
0.0
  0
ARC
  5
1A5
330
A3
100
AcDbEntity
  8
0 - Systemaufbauten
  6
Continuous
 62
     7
370
     0
100
AcDbCircle
 10
1337.10796925459
 20
1248.605587086509
 30
0.0
 40
3.33328818123008
100
AcDbArc
 50
30.00044020598759
 51
149.9999952245331
  0
LINE
  5
1A6
330
A3
100
AcDbEntity
  8
0 - Systemaufbauten
  6
Continuous
 62
     7
370
     0
100
AcDbLine
 10
1339.994718760587
 20
1250.272253355812
 30
0.0
 11
1344.221219748593
 21
1243.605587235521
 31
0.0
  0
ARC
  5
1A7
330
A3
100
AcDbEntity
  8
0 - Systemaufbauten
  6
Continuous
 62
     7
370
     0
100
AcDbCircle
 10
1347.107969254589
 20
1245.272253355811
 30
0.0
 40
3.33333146670071
100
AcDbArc
 50
210.0000076799373
 51
270.0
  0
ARC
  5
1A8
330
A3
100
AcDbEntity
  8
0 - Systemaufbauten
  6
Continuous
 62
     7
370
     0
100
AcDbCircle
 10
1347.107969254589
 20
1245.272253355811
 30
0.0
 40
3.33333313465154
100
AcDbArc
 50
270.0
 51
329.999997442706
  0
LINE
  5
1A9
330
A3
100
AcDbEntity
  8
0 - Systemaufbauten
  6
Continuous
 62
     7
370
     0
100
AcDbLine
 10
1349.994719356632
 20
1243.605587235521
 30
0.0
 11
1354.221219152546
 21
1250.272253355812
 31
0.0
  0
ARC
  5
1AA
330
A3
100
AcDbEntity
  8
0 - Systemaufbauten
  6
Continuous
 62
     7
370
     0
100
AcDbCircle
 10
1357.107969254589
 20
1248.605587086509
 30
0.0
 40
3.33328818123008
100
AcDbArc
 50
30.00044020598759
 51
149.9999952245331
  0
LINE
  5
1AB
330
A3
100
AcDbEntity
  8
0 - Systemaufbauten
  6
Continuous
 62
     7
370
     0
100
AcDbLine
 10
1359.994718760585
 20
1250.272253355812
 30
0.0
 11
1364.221219748592
 21
1243.605587235521
 31
0.0
  0
ARC
  5
1AC
330
A3
100
AcDbEntity
  8
0 - Systemaufbauten
  6
Continuous
 62
     7
370
     0
100
AcDbCircle
 10
1367.107969254588
 20
1245.272253355811
 30
0.0
 40
3.33333146670071
100
AcDbArc
 50
210.0000076799373
 51
270.0
  0
ARC
  5
1AD
330
A3
100
AcDbEntity
  8
0 - Systemaufbauten
  6
Continuous
 62
     7
370
     0
100
AcDbCircle
 10
1367.107969254588
 20
1245.272253355811
 30
0.0
 40
3.33333313465154
100
AcDbArc
 50
270.0
 51
329.999997442706
  0
LINE
  5
1AE
330
A3
100
AcDbEntity
  8
0 - Systemaufbauten
  6
Continuous
 62
     7
370
     0
100
AcDbLine
 10
1369.994719356631
 20
1243.605587235521
 30
0.0
 11
1374.221219152545
 21
1250.272253355812
 31
0.0
  0
ARC
  5
1AF
330
A3
100
AcDbEntity
  8
0 - Systemaufbauten
  6
Continuous
 62
     7
370
     0
100
AcDbCircle
 10
1377.107969254588
 20
1248.605587086509
 30
0.0
 40
3.33328818123008
100
AcDbArc
 50
30.00044020598759
 51
149.9999952245331
  0
LINE
  5
1B0
330
A3
100
AcDbEntity
  8
0 - Systemaufbauten
  6
Continuous
 62
     7
370
     0
100
AcDbLine
 10
1379.994718760584
 20
1250.272253355812
 30
0.0
 11
1384.22121974859
 21
1243.605587235521
 31
0.0
  0
ARC
  5
1B1
330
A3
100
AcDbEntity
  8
0 - Systemaufbauten
  6
Continuous
 62
     7
370
     0
100
AcDbCircle
 10
1387.107969254587
 20
1245.272253355811
 30
0.0
 40
3.33333146670071
100
AcDbArc
 50
210.0000076799373
 51
270.0
  0
ARC
  5
1B2
330
A3
100
AcDbEntity
  8
0 - Systemaufbauten
  6
Continuous
 62
     7
370
     0
100
AcDbCircle
 10
1387.107969254587
 20
1245.272253355811
 30
0.0
 40
3.33333313465154
100
AcDbArc
 50
270.0
 51
329.999997442706
  0
LINE
  5
1B3
330
A3
100
AcDbEntity
  8
0 - Systemaufbauten
  6
Continuous
 62
     7
370
     0
100
AcDbLine
 10
1389.99471935663
 20
1243.605587235521
 30
0.0
 11
1394.221219152544
 21
1250.272253355812
 31
0.0
  0
ARC
  5
1B4
330
A3
100
AcDbEntity
  8
0 - Systemaufbauten
  6
Continuous
 62
     7
370
     0
100
AcDbCircle
 10
1397.107969254587
 20
1248.605587086509
 30
0.0
 40
3.33328818123008
100
AcDbArc
 50
30.00044020598759
 51
149.9999952245331
  0
LINE
  5
1B5
330
A3
100
AcDbEntity
  8
0 - Systemaufbauten
  6
Continuous
 62
     7
370
     0
100
AcDbLine
 10
1399.994718760583
 20
1250.272253355812
 30
0.0
 11
1404.221219748589
 21
1243.605587235521
 31
0.0
  0
ARC
  5
1B6
330
A3
100
AcDbEntity
  8
0 - Systemaufbauten
  6
Continuous
 62
     7
370
     0
100
AcDbCircle
 10
1407.107969254586
 20
1245.272253355811
 30
0.0
 40
3.33333146670071
100
AcDbArc
 50
210.0000076799373
 51
270.0
  0
ARC
  5
1B7
330
A3
100
AcDbEntity
  8
0 - Systemaufbauten
  6
Continuous
 62
     7
370
     0
100
AcDbCircle
 10
1407.107969254586
 20
1245.272253355811
 30
0.0
 40
3.33333313465154
100
AcDbArc
 50
270.0
 51
329.999997442706
  0
LINE
  5
1B8
330
A3
100
AcDbEntity
  8
0 - Systemaufbauten
  6
Continuous
 62
     7
370
     0
100
AcDbLine
 10
1409.994719356629
 20
1243.605587235521
 30
0.0
 11
1414.221219152543
 21
1250.272253355812
 31
0.0
  0
ARC
  5
1B9
330
A3
100
AcDbEntity
  8
0 - Systemaufbauten
  6
Continuous
 62
     7
370
     0
100
AcDbCircle
 10
1417.107969254585
 20
1248.605587086509
 30
0.0
 40
3.33328818123008
100
AcDbArc
 50
30.00044020598759
 51
149.9999952245331
  0
LINE
  5
1BA
330
A3
100
AcDbEntity
  8
0 - Systemaufbauten
  6
Continuous
 62
     7
370
     0
100
AcDbLine
 10
1419.994718760582
 20
1250.272253355812
 30
0.0
 11
1424.221219748588
 21
1243.605587235521
 31
0.0
  0
ARC
  5
1BB
330
A3
100
AcDbEntity
  8
0 - Systemaufbauten
  6
Continuous
 62
     7
370
     0
100
AcDbCircle
 10
1427.107969254585
 20
1245.272253355811
 30
0.0
 40
3.33333146670071
100
AcDbArc
 50
210.0000076799373
 51
270.0
  0
ARC
  5
1BC
330
A3
100
AcDbEntity
  8
0 - Systemaufbauten
  6
Continuous
 62
     7
370
     0
100
AcDbCircle
 10
1427.107969254585
 20
1245.272253355811
 30
0.0
 40
3.33333313465154
100
AcDbArc
 50
270.0
 51
329.999997442706
  0
LINE
  5
1BD
330
A3
100
AcDbEntity
  8
0 - Systemaufbauten
  6
Continuous
 62
     7
370
     0
100
AcDbLine
 10
1429.994719356628
 20
1243.605587235521
 30
0.0
 11
1434.221219152541
 21
1250.272253355812
 31
0.0
  0
ARC
  5
1BE
330
A3
100
AcDbEntity
  8
0 - Systemaufbauten
  6
Continuous
 62
     7
370
     0
100
AcDbCircle
 10
1437.107969254584
 20
1248.605587086509
 30
0.0
 40
3.33328818123008
100
AcDbArc
 50
30.00044020598759
 51
149.9999952245331
  0
LINE
  5
1BF
330
A3
100
AcDbEntity
  8
0 - Systemaufbauten
  6
Continuous
 62
     7
370
     0
100
AcDbLine
 10
1439.994718760581
 20
1250.272253355812
 30
0.0
 11
1444.221219748587
 21
1243.605587235521
 31
0.0
  0
ARC
  5
1C0
330
A3
100
AcDbEntity
  8
0 - Systemaufbauten
  6
Continuous
 62
     7
370
     0
100
AcDbCircle
 10
1447.107969254584
 20
1245.272253355811
 30
0.0
 40
3.33333146670071
100
AcDbArc
 50
210.0000076799373
 51
270.0
  0
ARC
  5
1C1
330
A3
100
AcDbEntity
  8
0 - Systemaufbauten
  6
Continuous
 62
     7
370
     0
100
AcDbCircle
 10
1447.107969254584
 20
1245.272253355811
 30
0.0
 40
3.33333313465154
100
AcDbArc
 50
270.0
 51
329.999997442706
  0
LINE
  5
1C2
330
A3
100
AcDbEntity
  8
0 - Systemaufbauten
  6
Continuous
 62
     7
370
     0
100
AcDbLine
 10
1449.994719356627
 20
1243.605587235521
 30
0.0
 11
1454.22121915254
 21
1250.272253355812
 31
0.0
  0
ARC
  5
1C3
330
A3
100
AcDbEntity
  8
0 - Systemaufbauten
  6
Continuous
 62
     7
370
     0
100
AcDbCircle
 10
1457.107969254583
 20
1248.605587086509
 30
0.0
 40
3.33328818123008
100
AcDbArc
 50
30.00044020598759
 51
149.9999952245331
  0
LINE
  5
1C4
330
A3
100
AcDbEntity
  8
0 - Systemaufbauten
  6
Continuous
 62
     7
370
     0
100
AcDbLine
 10
1459.99471876058
 20
1250.272253355812
 30
0.0
 11
1464.221219748586
 21
1243.605587235521
 31
0.0
  0
ARC
  5
1C5
330
A3
100
AcDbEntity
  8
0 - Systemaufbauten
  6
Continuous
 62
     7
370
     0
100
AcDbCircle
 10
1467.107969254583
 20
1245.272253355811
 30
0.0
 40
3.33333146670071
100
AcDbArc
 50
210.0000076799373
 51
270.0
  0
ARC
  5
1C6
330
A3
100
AcDbEntity
  8
0 - Systemaufbauten
  6
Continuous
 62
     7
370
     0
100
AcDbCircle
 10
1467.107969254583
 20
1245.272253355811
 30
0.0
 40
3.33333313465154
100
AcDbArc
 50
270.0
 51
329.999997442706
  0
LINE
  5
1C7
330
A3
100
AcDbEntity
  8
0 - Systemaufbauten
  6
Continuous
 62
     7
370
     0
100
AcDbLine
 10
1469.994719356625
 20
1243.605587235521
 30
0.0
 11
1474.221219152539
 21
1250.272253355812
 31
0.0
  0
ARC
  5
1C8
330
A3
100
AcDbEntity
  8
0 - Systemaufbauten
  6
Continuous
 62
     7
370
     0
100
AcDbCircle
 10
1477.107969254582
 20
1248.605587086509
 30
0.0
 40
3.33328818123008
100
AcDbArc
 50
30.00044020598759
 51
149.9999952245331
  0
LINE
  5
1C9
330
A3
100
AcDbEntity
  8
0 - Systemaufbauten
  6
Continuous
 62
     7
370
     0
100
AcDbLine
 10
1479.994718760579
 20
1250.272253355812
 30
0.0
 11
1484.221219748585
 21
1243.605587235521
 31
0.0
  0
ARC
  5
1CA
330
A3
100
AcDbEntity
  8
0 - Systemaufbauten
  6
Continuous
 62
     7
370
     0
100
AcDbCircle
 10
1487.107969254581
 20
1245.272253355811
 30
0.0
 40
3.33333146670071
100
AcDbArc
 50
210.0000076799373
 51
270.0
  0
ARC
  5
1CB
330
A3
100
AcDbEntity
  8
0 - Systemaufbauten
  6
Continuous
 62
     7
370
     0
100
AcDbCircle
 10
1487.107969254581
 20
1245.272253355811
 30
0.0
 40
3.33333313465154
100
AcDbArc
 50
270.0
 51
329.999997442706
  0
LINE
  5
1CC
330
A3
100
AcDbEntity
  8
0 - Systemaufbauten
  6
Continuous
 62
     7
370
     0
100
AcDbLine
 10
1489.994719356624
 20
1243.605587235521
 30
0.0
 11
1494.221219152538
 21
1250.272253355812
 31
0.0
  0
ARC
  5
1CD
330
A3
100
AcDbEntity
  8
0 - Systemaufbauten
  6
Continuous
 62
     7
370
     0
100
AcDbCircle
 10
1497.10796925458
 20
1248.605587086509
 30
0.0
 40
3.33328818123008
100
AcDbArc
 50
30.00044020598759
 51
149.9999952245331
  0
LINE
  5
1CE
330
A3
100
AcDbEntity
  8
0 - Systemaufbauten
  6
Continuous
 62
     7
370
     0
100
AcDbLine
 10
1499.994718760577
 20
1250.272253355812
 30
0.0
 11
1504.221219748584
 21
1243.605587235521
 31
0.0
  0
ARC
  5
1CF
330
A3
100
AcDbEntity
  8
0 - Systemaufbauten
  6
Continuous
 62
     7
370
     0
100
AcDbCircle
 10
1507.10796925458
 20
1245.272253355811
 30
0.0
 40
3.33333146670071
100
AcDbArc
 50
210.0000076799373
 51
270.0
  0
ARC
  5
1D0
330
A3
100
AcDbEntity
  8
0 - Systemaufbauten
  6
Continuous
 62
     7
370
     0
100
AcDbCircle
 10
1507.10796925458
 20
1245.272253355811
 30
0.0
 40
3.33333313465154
100
AcDbArc
 50
270.0
 51
329.999997442706
  0
LINE
  5
1D1
330
A3
100
AcDbEntity
  8
0 - Systemaufbauten
  6
Continuous
 62
     7
370
     0
100
AcDbLine
 10
1509.994719356623
 20
1243.605587235521
 30
0.0
 11
1514.221219152536
 21
1250.272253355812
 31
0.0
  0
ARC
  5
1D2
330
A3
100
AcDbEntity
  8
0 - Systemaufbauten
  6
Continuous
 62
     7
370
     0
100
AcDbCircle
 10
1517.10796925458
 20
1248.605587086509
 30
0.0
 40
3.33328818123008
100
AcDbArc
 50
30.00044020598759
 51
149.9999952245331
  0
LINE
  5
1D3
330
A3
100
AcDbEntity
  8
0 - Systemaufbauten
  6
Continuous
 62
     7
370
     0
100
AcDbLine
 10
1519.994718760576
 20
1250.272253355812
 30
0.0
 11
1524.221219748582
 21
1243.605587235521
 31
0.0
  0
ARC
  5
1D4
330
A3
100
AcDbEntity
  8
0 - Systemaufbauten
  6
Continuous
 62
     7
370
     0
100
AcDbCircle
 10
1527.107969254579
 20
1245.272253355811
 30
0.0
 40
3.33333146670071
100
AcDbArc
 50
210.0000076799373
 51
270.0
  0
ARC
  5
1D5
330
A3
100
AcDbEntity
  8
0 - Systemaufbauten
  6
Continuous
 62
     7
370
     0
100
AcDbCircle
 10
1527.107969254579
 20
1245.272253355811
 30
0.0
 40
3.33333313465154
100
AcDbArc
 50
270.0
 51
329.999997442706
  0
LINE
  5
1D6
330
A3
100
AcDbEntity
  8
0 - Systemaufbauten
  6
Continuous
 62
     7
370
     0
100
AcDbLine
 10
1529.994719356622
 20
1243.605587235521
 30
0.0
 11
1534.221219152536
 21
1250.272253355812
 31
0.0
  0
ARC
  5
1D7
330
A3
100
AcDbEntity
  8
0 - Systemaufbauten
  6
Continuous
 62
     7
370
     0
100
AcDbCircle
 10
1537.107969254579
 20
1248.605587086509
 30
0.0
 40
3.33328818123008
100
AcDbArc
 50
30.00044020598759
 51
149.9999952245331
  0
LINE
  5
1D8
330
A3
100
AcDbEntity
  8
0 - Systemaufbauten
  6
Continuous
 62
     7
370
     0
100
AcDbLine
 10
1539.994718760574
 20
1250.272253355812
 30
0.0
 11
1544.221219748581
 21
1243.605587235521
 31
0.0
  0
ARC
  5
1D9
330
A3
100
AcDbEntity
  8
0 - Systemaufbauten
  6
Continuous
 62
     7
370
     0
100
AcDbCircle
 10
1547.107969254578
 20
1245.272253355811
 30
0.0
 40
3.33333146670071
100
AcDbArc
 50
210.0000076799373
 51
270.0
  0
ARC
  5
1DA
330
A3
100
AcDbEntity
  8
0 - Systemaufbauten
  6
Continuous
 62
     7
370
     0
100
AcDbCircle
 10
1547.107969254578
 20
1245.272253355811
 30
0.0
 40
3.33333313465154
100
AcDbArc
 50
270.0
 51
329.999997442706
  0
LINE
  5
1DB
330
A3
100
AcDbEntity
  8
0 - Systemaufbauten
  6
Continuous
 62
     7
370
     0
100
AcDbLine
 10
1549.99471935662
 20
1243.605587235521
 30
0.0
 11
1554.221219152535
 21
1250.272253355812
 31
0.0
  0
ARC
  5
1DC
330
A3
100
AcDbEntity
  8
0 - Systemaufbauten
  6
Continuous
 62
     7
370
     0
100
AcDbCircle
 10
1557.107969254577
 20
1248.605587086509
 30
0.0
 40
3.33328818123008
100
AcDbArc
 50
30.00044020598759
 51
149.9999952245331
  0
LINE
  5
1DD
330
A3
100
AcDbEntity
  8
0 - Systemaufbauten
  6
Continuous
 62
     7
370
     0
100
AcDbLine
 10
1559.994718760574
 20
1250.272253355812
 30
0.0
 11
1564.22121974858
 21
1243.605587235521
 31
0.0
  0
ARC
  5
1DE
330
A3
100
AcDbEntity
  8
0 - Systemaufbauten
  6
Continuous
 62
     7
370
     0
100
AcDbCircle
 10
1567.107969254576
 20
1245.272253355811
 30
0.0
 40
3.33333146670071
100
AcDbArc
 50
210.0000076799373
 51
270.0
  0
ARC
  5
1DF
330
A3
100
AcDbEntity
  8
0 - Systemaufbauten
  6
Continuous
 62
     7
370
     0
100
AcDbCircle
 10
1567.107969254576
 20
1245.272253355811
 30
0.0
 40
3.33333313465154
100
AcDbArc
 50
270.0
 51
329.999997442706
  0
LINE
  5
1E0
330
A3
100
AcDbEntity
  8
0 - Systemaufbauten
  6
Continuous
 62
     7
370
     0
100
AcDbLine
 10
1569.99471935662
 20
1243.605587235521
 30
0.0
 11
1574.221219152533
 21
1250.272253355812
 31
0.0
  0
ARC
  5
1E1
330
A3
100
AcDbEntity
  8
0 - Systemaufbauten
  6
Continuous
 62
     7
370
     0
100
AcDbCircle
 10
1577.107969254575
 20
1248.605587086509
 30
0.0
 40
3.33328818123008
100
AcDbArc
 50
30.00044020598759
 51
149.9999952245331
  0
LINE
  5
1E2
330
A3
100
AcDbEntity
  8
0 - Systemaufbauten
  6
Continuous
 62
     7
370
     0
100
AcDbLine
 10
1579.994718760573
 20
1250.272253355812
 30
0.0
 11
1584.221219748579
 21
1243.605587235521
 31
0.0
  0
ARC
  5
1E3
330
A3
100
AcDbEntity
  8
0 - Systemaufbauten
  6
Continuous
 62
     7
370
     0
100
AcDbCircle
 10
1587.107969254576
 20
1245.272253355811
 30
0.0
 40
3.33333146670071
100
AcDbArc
 50
210.0000076799373
 51
270.0
  0
ARC
  5
1E4
330
A3
100
AcDbEntity
  8
0 - Systemaufbauten
  6
Continuous
 62
     7
370
     0
100
AcDbCircle
 10
1587.107969254576
 20
1245.272253355811
 30
0.0
 40
3.33333313465154
100
AcDbArc
 50
270.0
 51
329.999997442706
  0
LINE
  5
1E5
330
A3
100
AcDbEntity
  8
0 - Systemaufbauten
  6
Continuous
 62
     7
370
     0
100
AcDbLine
 10
1589.994719356619
 20
1243.605587235521
 30
0.0
 11
1594.221219152532
 21
1250.272253355812
 31
0.0
  0
ARC
  5
1E6
330
A3
100
AcDbEntity
  8
0 - Systemaufbauten
  6
Continuous
 62
     7
370
     0
100
AcDbCircle
 10
1597.107969254575
 20
1248.605587086509
 30
0.0
 40
3.33328818123008
100
AcDbArc
 50
30.00044020598759
 51
149.9999952245331
  0
LINE
  5
1E7
330
A3
100
AcDbEntity
  8
0 - Systemaufbauten
  6
Continuous
 62
     7
370
     0
100
AcDbLine
 10
1599.994718760572
 20
1250.272253355812
 30
0.0
 11
1604.221219748578
 21
1243.605587235521
 31
0.0
  0
ARC
  5
1E8
330
A3
100
AcDbEntity
  8
0 - Systemaufbauten
  6
Continuous
 62
     7
370
     0
100
AcDbCircle
 10
1607.107969254575
 20
1245.272253355811
 30
0.0
 40
3.33333146670071
100
AcDbArc
 50
210.0000076799373
 51
270.0
  0
ARC
  5
1E9
330
A3
100
AcDbEntity
  8
0 - Systemaufbauten
  6
Continuous
 62
     7
370
     0
100
AcDbCircle
 10
1607.107969254575
 20
1245.272253355811
 30
0.0
 40
3.33333313465154
100
AcDbArc
 50
270.0
 51
329.999997442706
  0
LINE
  5
1EA
330
A3
100
AcDbEntity
  8
0 - Systemaufbauten
  6
Continuous
 62
     7
370
     0
100
AcDbLine
 10
1609.994719356617
 20
1243.605587235521
 30
0.0
 11
1614.221219152531
 21
1250.272253355812
 31
0.0
  0
ARC
  5
1EB
330
A3
100
AcDbEntity
  8
0 - Systemaufbauten
  6
Continuous
 62
     7
370
     0
100
AcDbCircle
 10
1617.107969254574
 20
1248.605587086509
 30
0.0
 40
3.33328818123008
100
AcDbArc
 50
30.00044020598759
 51
149.9999952245331
  0
LINE
  5
1EC
330
A3
100
AcDbEntity
  8
0 - Systemaufbauten
  6
Continuous
 62
     7
370
     0
100
AcDbLine
 10
1619.994718760571
 20
1250.272253355812
 30
0.0
 11
1624.221219748576
 21
1243.605587235521
 31
0.0
  0
ARC
  5
1ED
330
A3
100
AcDbEntity
  8
0 - Systemaufbauten
  6
Continuous
 62
     7
370
     0
100
AcDbCircle
 10
1627.107969254573
 20
1245.272253355811
 30
0.0
 40
3.33333146670071
100
AcDbArc
 50
210.0000076799373
 51
270.0
  0
ARC
  5
1EE
330
A3
100
AcDbEntity
  8
0 - Systemaufbauten
  6
Continuous
 62
     7
370
     0
100
AcDbCircle
 10
1627.107969254573
 20
1245.272253355811
 30
0.0
 40
3.33333313465154
100
AcDbArc
 50
270.0
 51
329.999997442706
  0
LINE
  5
1EF
330
A3
100
AcDbEntity
  8
0 - Systemaufbauten
  6
Continuous
 62
     7
370
     0
100
AcDbLine
 10
1629.994719356616
 20
1243.605587235521
 30
0.0
 11
1634.22121915253
 21
1250.272253355812
 31
0.0
  0
ARC
  5
1F0
330
A3
100
AcDbEntity
  8
0 - Systemaufbauten
  6
Continuous
 62
     7
370
     0
100
AcDbCircle
 10
1637.107969254573
 20
1248.605587086509
 30
0.0
 40
3.33328818123008
100
AcDbArc
 50
30.00044020598759
 51
149.9999952245331
  0
LINE
  5
1F1
330
A3
100
AcDbEntity
  8
0 - Systemaufbauten
  6
Continuous
 62
     7
370
     0
100
AcDbLine
 10
1639.994718760569
 20
1250.272253355812
 30
0.0
 11
1644.221219748576
 21
1243.605587235521
 31
0.0
  0
ARC
  5
1F2
330
A3
100
AcDbEntity
  8
0 - Systemaufbauten
  6
Continuous
 62
     7
370
     0
100
AcDbCircle
 10
1647.107969254572
 20
1245.272253355811
 30
0.0
 40
3.33333146670071
100
AcDbArc
 50
210.0000076799373
 51
270.0
  0
ARC
  5
1F3
330
A3
100
AcDbEntity
  8
0 - Systemaufbauten
  6
Continuous
 62
     7
370
     0
100
AcDbCircle
 10
1647.107969254572
 20
1245.272253355811
 30
0.0
 40
3.33333313465154
100
AcDbArc
 50
270.0
 51
329.999997442706
  0
LINE
  5
1F4
330
A3
100
AcDbEntity
  8
0 - Systemaufbauten
  6
Continuous
 62
     7
370
     0
100
AcDbLine
 10
1649.994719356614
 20
1243.605587235521
 30
0.0
 11
1654.221219152529
 21
1250.272253355812
 31
0.0
  0
ARC
  5
1F5
330
A3
100
AcDbEntity
  8
0 - Systemaufbauten
  6
Continuous
 62
     7
370
     0
100
AcDbCircle
 10
1657.107969254572
 20
1248.605587086509
 30
0.0
 40
3.33328818123008
100
AcDbArc
 50
30.00044020598759
 51
149.9999952245331
  0
LINE
  5
1F6
330
A3
100
AcDbEntity
  8
0 - Systemaufbauten
  6
Continuous
 62
     7
370
     0
100
AcDbLine
 10
1659.994718760568
 20
1250.272253355812
 30
0.0
 11
1664.221219748575
 21
1243.605587235521
 31
0.0
  0
ARC
  5
1F7
330
A3
100
AcDbEntity
  8
0 - Systemaufbauten
  6
Continuous
 62
     7
370
     0
100
AcDbCircle
 10
1667.10796925457
 20
1245.272253355811
 30
0.0
 40
3.33333146670071
100
AcDbArc
 50
210.0000076799373
 51
270.0
  0
ARC
  5
1F8
330
A3
100
AcDbEntity
  8
0 - Systemaufbauten
  6
Continuous
 62
     7
370
     0
100
AcDbCircle
 10
1667.10796925457
 20
1245.272253355811
 30
0.0
 40
3.33333313465154
100
AcDbArc
 50
270.0
 51
329.999997442706
  0
LINE
  5
1F9
330
A3
100
AcDbEntity
  8
0 - Systemaufbauten
  6
Continuous
 62
     7
370
     0
100
AcDbLine
 10
1669.994719356614
 20
1243.605587235521
 30
0.0
 11
1674.221219152528
 21
1250.272253355812
 31
0.0
  0
ARC
  5
1FA
330
A3
100
AcDbEntity
  8
0 - Systemaufbauten
  6
Continuous
 62
     7
370
     0
100
AcDbCircle
 10
1677.107969254571
 20
1248.605587086509
 30
0.0
 40
3.33328818123008
100
AcDbArc
 50
30.00044020598759
 51
149.9999952245331
  0
LINE
  5
1FB
330
A3
100
AcDbEntity
  8
0 - Systemaufbauten
  6
Continuous
 62
     7
370
     0
100
AcDbLine
 10
1679.994718760567
 20
1250.272253355812
 30
0.0
 11
1684.221219748573
 21
1243.605587235521
 31
0.0
  0
ARC
  5
1FC
330
A3
100
AcDbEntity
  8
0 - Systemaufbauten
  6
Continuous
 62
     7
370
     0
100
AcDbCircle
 10
1687.10796925457
 20
1245.272253355811
 30
0.0
 40
3.33333146670071
100
AcDbArc
 50
210.0000076799373
 51
270.0
  0
ARC
  5
1FD
330
A3
100
AcDbEntity
  8
0 - Systemaufbauten
  6
Continuous
 62
     7
370
     0
100
AcDbCircle
 10
1687.10796925457
 20
1245.272253355811
 30
0.0
 40
3.33333313465154
100
AcDbArc
 50
270.0
 51
329.999997442706
  0
LINE
  5
1FE
330
A3
100
AcDbEntity
  8
0 - Systemaufbauten
  6
Continuous
 62
     7
370
     0
100
AcDbLine
 10
1689.994719356613
 20
1243.605587235521
 30
0.0
 11
1694.221219152527
 21
1250.272253355812
 31
0.0
  0
ARC
  5
1FF
330
A3
100
AcDbEntity
  8
0 - Systemaufbauten
  6
Continuous
 62
     7
370
     0
100
AcDbCircle
 10
1697.107969254569
 20
1248.605587086509
 30
0.0
 40
3.33328818123008
100
AcDbArc
 50
30.00044020598759
 51
149.9999952245331
  0
LINE
  5
200
330
A3
100
AcDbEntity
  8
0 - Systemaufbauten
  6
Continuous
 62
     7
370
     0
100
AcDbLine
 10
1699.994718760566
 20
1250.272253355812
 30
0.0
 11
1704.221219748571
 21
1243.605587235521
 31
0.0
  0
ARC
  5
201
330
A3
100
AcDbEntity
  8
0 - Systemaufbauten
  6
Continuous
 62
     7
370
     0
100
AcDbCircle
 10
1707.107969254569
 20
1245.272253355811
 30
0.0
 40
3.33333146670071
100
AcDbArc
 50
210.0000076799373
 51
270.0
  0
ARC
  5
202
330
A3
100
AcDbEntity
  8
0 - Systemaufbauten
  6
Continuous
 62
     7
370
     0
100
AcDbCircle
 10
1707.107969254569
 20
1245.272253355811
 30
0.0
 40
3.33333313465154
100
AcDbArc
 50
270.0
 51
329.999997442706
  0
LINE
  5
203
330
A3
100
AcDbEntity
  8
0 - Systemaufbauten
  6
Continuous
 62
     7
370
     0
100
AcDbLine
 10
1709.994719356612
 20
1243.605587235521
 30
0.0
 11
1714.221219152525
 21
1250.272253355812
 31
0.0
  0
ARC
  5
204
330
A3
100
AcDbEntity
  8
0 - Systemaufbauten
  6
Continuous
 62
     7
370
     0
100
AcDbCircle
 10
1717.107969254568
 20
1248.605587086509
 30
0.0
 40
3.33328818123008
100
AcDbArc
 50
30.00044020598759
 51
149.9999952245331
  0
LINE
  5
205
330
A3
100
AcDbEntity
  8
0 - Systemaufbauten
  6
Continuous
 62
     7
370
     0
100
AcDbLine
 10
1719.994718760565
 20
1250.272253355812
 30
0.0
 11
1724.221219748571
 21
1243.605587235521
 31
0.0
  0
ARC
  5
206
330
A3
100
AcDbEntity
  8
0 - Systemaufbauten
  6
Continuous
 62
     7
370
     0
100
AcDbCircle
 10
1727.107969254568
 20
1245.272253355811
 30
0.0
 40
3.33333146670071
100
AcDbArc
 50
210.0000076799373
 51
270.0
  0
ARC
  5
207
330
A3
100
AcDbEntity
  8
0 - Systemaufbauten
  6
Continuous
 62
     7
370
     0
100
AcDbCircle
 10
1727.107969254568
 20
1245.272253355811
 30
0.0
 40
3.33333313465154
100
AcDbArc
 50
270.0
 51
329.999997442706
  0
LINE
  5
208
330
A3
100
AcDbEntity
  8
0 - Systemaufbauten
  6
Continuous
 62
     7
370
     0
100
AcDbLine
 10
1729.994719356611
 20
1243.605587235521
 30
0.0
 11
1734.221219152524
 21
1250.272253355812
 31
0.0
  0
ARC
  5
209
330
A3
100
AcDbEntity
  8
0 - Systemaufbauten
  6
Continuous
 62
     7
370
     0
100
AcDbCircle
 10
1737.107969254566
 20
1248.605587086509
 30
0.0
 40
3.33328818123008
100
AcDbArc
 50
30.00044020598759
 51
149.9999952245331
  0
LINE
  5
20A
330
A3
100
AcDbEntity
  8
0 - Systemaufbauten
  6
Continuous
 62
     7
370
     0
100
AcDbLine
 10
1739.994718760564
 20
1250.272253355812
 30
0.0
 11
1744.22121974857
 21
1243.605587235521
 31
0.0
  0
ARC
  5
20B
330
A3
100
AcDbEntity
  8
0 - Systemaufbauten
  6
Continuous
 62
     7
370
     0
100
AcDbCircle
 10
1747.107969254567
 20
1245.272253355811
 30
0.0
 40
3.33333146670071
100
AcDbArc
 50
210.0000076799373
 51
270.0
  0
ARC
  5
20C
330
A3
100
AcDbEntity
  8
0 - Systemaufbauten
  6
Continuous
 62
     7
370
     0
100
AcDbCircle
 10
1747.107969254567
 20
1245.272253355811
 30
0.0
 40
3.33333313465154
100
AcDbArc
 50
270.0
 51
329.999997442706
  0
LINE
  5
20D
330
A3
100
AcDbEntity
  8
0 - Systemaufbauten
  6
Continuous
 62
     7
370
     0
100
AcDbLine
 10
1749.994719356609
 20
1243.605587235521
 30
0.0
 11
1754.221219152523
 21
1250.272253355812
 31
0.0
  0
ARC
  5
20E
330
A3
100
AcDbEntity
  8
0 - Systemaufbauten
  6
Continuous
 62
     7
370
     0
100
AcDbCircle
 10
1757.107969254566
 20
1248.605587086509
 30
0.0
 40
3.33328818123008
100
AcDbArc
 50
30.00044020598759
 51
149.9999952245331
  0
LINE
  5
20F
330
A3
100
AcDbEntity
  8
0 - Systemaufbauten
  6
Continuous
 62
     7
370
     0
100
AcDbLine
 10
1759.994718760563
 20
1250.272253355812
 30
0.0
 11
1764.221219748569
 21
1243.605587235521
 31
0.0
  0
ARC
  5
210
330
A3
100
AcDbEntity
  8
0 - Systemaufbauten
  6
Continuous
 62
     7
370
     0
100
AcDbCircle
 10
1767.107969254565
 20
1245.272253355811
 30
0.0
 40
3.33333146670071
100
AcDbArc
 50
210.0000076799373
 51
270.0
  0
ARC
  5
211
330
A3
100
AcDbEntity
  8
0 - Systemaufbauten
  6
Continuous
 62
     7
370
     0
100
AcDbCircle
 10
1767.107969254565
 20
1245.272253355811
 30
0.0
 40
3.33333313465154
100
AcDbArc
 50
270.0
 51
329.999997442706
  0
LINE
  5
212
330
A3
100
AcDbEntity
  8
0 - Systemaufbauten
  6
Continuous
 62
     7
370
     0
100
AcDbLine
 10
1769.994719356608
 20
1243.605587235521
 30
0.0
 11
1774.221219152522
 21
1250.272253355812
 31
0.0
  0
ARC
  5
213
330
A3
100
AcDbEntity
  8
0 - Systemaufbauten
  6
Continuous
 62
     7
370
     0
100
AcDbCircle
 10
1777.107969254565
 20
1248.605587086509
 30
0.0
 40
3.33328818123008
100
AcDbArc
 50
30.00044020598759
 51
149.9999952245331
  0
LINE
  5
214
330
A3
100
AcDbEntity
  8
0 - Systemaufbauten
  6
Continuous
 62
     7
370
     0
100
AcDbLine
 10
1779.994718760562
 20
1250.272253355812
 30
0.0
 11
1784.221219748568
 21
1243.605587235521
 31
0.0
  0
ARC
  5
215
330
A3
100
AcDbEntity
  8
0 - Systemaufbauten
  6
Continuous
 62
     7
370
     0
100
AcDbCircle
 10
1787.107969254564
 20
1245.272253355811
 30
0.0
 40
3.33333146670071
100
AcDbArc
 50
210.0000076799373
 51
270.0
  0
ARC
  5
216
330
A3
100
AcDbEntity
  8
0 - Systemaufbauten
  6
Continuous
 62
     7
370
     0
100
AcDbCircle
 10
1787.107969254564
 20
1245.272253355811
 30
0.0
 40
3.33333313465154
100
AcDbArc
 50
270.0
 51
329.999997442706
  0
LINE
  5
217
330
A3
100
AcDbEntity
  8
0 - Systemaufbauten
  6
Continuous
 62
     7
370
     0
100
AcDbLine
 10
1789.994719356607
 20
1243.605587235521
 30
0.0
 11
1794.22121915252
 21
1250.272253355812
 31
0.0
  0
ARC
  5
218
330
A3
100
AcDbEntity
  8
0 - Systemaufbauten
  6
Continuous
 62
     7
370
     0
100
AcDbCircle
 10
1797.107969254564
 20
1248.605587086509
 30
0.0
 40
3.33328818123008
100
AcDbArc
 50
30.00044020598759
 51
149.9999952245331
  0
LINE
  5
219
330
A3
100
AcDbEntity
  8
0 - Systemaufbauten
  6
Continuous
 62
     7
370
     0
100
AcDbLine
 10
1799.99471876056
 20
1250.272253355812
 30
0.0
 11
1804.221219748566
 21
1243.605587235521
 31
0.0
  0
ARC
  5
21A
330
A3
100
AcDbEntity
  8
0 - Systemaufbauten
  6
Continuous
 62
     7
370
     0
100
AcDbCircle
 10
1807.107969254563
 20
1245.272253355811
 30
0.0
 40
3.33333146670071
100
AcDbArc
 50
210.0000076799373
 51
270.0
  0
ARC
  5
21B
330
A3
100
AcDbEntity
  8
0 - Systemaufbauten
  6
Continuous
 62
     7
370
     0
100
AcDbCircle
 10
1807.107969254563
 20
1245.272253355811
 30
0.0
 40
3.33333313465154
100
AcDbArc
 50
270.0
 51
329.999997442706
  0
LINE
  5
21C
330
A3
100
AcDbEntity
  8
0 - Systemaufbauten
  6
Continuous
 62
     7
370
     0
100
AcDbLine
 10
1809.994719356606
 20
1243.605587235521
 30
0.0
 11
1814.22121915252
 21
1250.272253355812
 31
0.0
  0
ARC
  5
21D
330
A3
100
AcDbEntity
  8
0 - Systemaufbauten
  6
Continuous
 62
     7
370
     0
100
AcDbCircle
 10
1817.107969254563
 20
1248.605587086509
 30
0.0
 40
3.33328818123008
100
AcDbArc
 50
30.00044020598759
 51
149.9999952245331
  0
LINE
  5
21E
330
A3
100
AcDbEntity
  8
0 - Systemaufbauten
  6
Continuous
 62
     7
370
     0
100
AcDbLine
 10
1819.994718760558
 20
1250.272253355812
 30
0.0
 11
1824.221219748565
 21
1243.605587235521
 31
0.0
  0
ARC
  5
21F
330
A3
100
AcDbEntity
  8
0 - Systemaufbauten
  6
Continuous
 62
     7
370
     0
100
AcDbCircle
 10
1827.107969254562
 20
1245.272253355811
 30
0.0
 40
3.33333146670071
100
AcDbArc
 50
210.0000076799373
 51
270.0
  0
ARC
  5
220
330
A3
100
AcDbEntity
  8
0 - Systemaufbauten
  6
Continuous
 62
     7
370
     0
100
AcDbCircle
 10
1827.107969254562
 20
1245.272253355811
 30
0.0
 40
3.33333313465154
100
AcDbArc
 50
270.0
 51
329.999997442706
  0
LINE
  5
221
330
A3
100
AcDbEntity
  8
0 - Systemaufbauten
  6
Continuous
 62
     7
370
     0
100
AcDbLine
 10
1829.994719356604
 20
1243.605587235521
 30
0.0
 11
1834.221219152519
 21
1250.272253355812
 31
0.0
  0
ARC
  5
222
330
A3
100
AcDbEntity
  8
0 - Systemaufbauten
  6
Continuous
 62
     7
370
     0
100
AcDbCircle
 10
1837.107969254562
 20
1248.605587086509
 30
0.0
 40
3.33328818123014
100
AcDbArc
 50
138.5912579324264
 51
149.9999952245331
  0
HATCH
  5
223
330
A3
100
AcDbEntity
  8
0 - Systemaufbauten
  6
Continuous
 62
     2
370
     0
100
AcDbHatch
 10
0.0
 20
0.0
 30
0.0
210
0.0
220
0.0
230
1.0
  2
SOLID
 70
     1
 71
     0
 91
        1
 92
        0
 93
        4
 72
     1
 10
334.6079692546048
 20
1241.93892022116
 11
1834.607969254602
 21
1241.93892022116
 72
     1
 10
1834.607969254602
 20
1241.93892022116
 11
1834.607969254602
 21
961.9389202211595
 72
     1
 10
1834.607969254602
 20
961.9389202211595
 11
334.6079692546048
 21
961.9389202211595
 72
     1
 10
334.6079692546048
 20
961.9389202211595
 11
334.6079692546048
 21
1241.93892022116
 97
        0
 75
     0
 76
     1
 98
        0
  0
LINE
  5
224
330
A3
100
AcDbEntity
  8
0 - Systemaufbauten
  6
Continuous
 62
     7
370
     0
100
AcDbLine
 10
334.6079692546048
 20
1101.938920221159
 30
0.0
 11
390.6079700890697
 21
1241.93892022116
 31
0.0
  0
LINE
  5
225
330
A3
100
AcDbEntity
  8
0 - Systemaufbauten
  6
Continuous
 62
     7
370
     0
100
AcDbLine
 10
390.6079700890697
 20
1241.93892022116
 30
0.0
 11
446.6079709235347
 21
1101.938920221159
 31
0.0
  0
LINE
  5
226
330
A3
100
AcDbEntity
  8
0 - Systemaufbauten
  6
Continuous
 62
     7
370
     0
100
AcDbLine
 10
446.6079709235347
 20
1101.938920221159
 30
0.0
 11
502.6079717579996
 21
1241.93892022116
 31
0.0
  0
LINE
  5
227
330
A3
100
AcDbEntity
  8
0 - Systemaufbauten
  6
Continuous
 62
     7
370
     0
100
AcDbLine
 10
502.6079717579996
 20
1241.93892022116
 30
0.0
 11
558.6079725924646
 21
1101.938920221159
 31
0.0
  0
LINE
  5
228
330
A3
100
AcDbEntity
  8
0 - Systemaufbauten
  6
Continuous
 62
     7
370
     0
100
AcDbLine
 10
558.6079725924646
 20
1101.938920221159
 30
0.0
 11
614.6079734269297
 21
1241.93892022116
 31
0.0
  0
LINE
  5
229
330
A3
100
AcDbEntity
  8
0 - Systemaufbauten
  6
Continuous
 62
     7
370
     0
100
AcDbLine
 10
614.6079734269297
 20
1241.93892022116
 30
0.0
 11
670.6079742613947
 21
1101.938920221159
 31
0.0
  0
LINE
  5
22A
330
A3
100
AcDbEntity
  8
0 - Systemaufbauten
  6
Continuous
 62
     7
370
     0
100
AcDbLine
 10
670.6079742613947
 20
1101.938920221159
 30
0.0
 11
684.6079692546048
 21
1136.938907182644
 31
0.0
  0
LINE
  5
22B
330
A3
100
AcDbEntity
  8
0 - Systemaufbauten
  6
Continuous
 62
     7
370
     0
100
AcDbLine
 10
684.6079692546048
 20
1101.938920221159
 30
0.0
 11
740.6079700890698
 21
1241.93892022116
 31
0.0
  0
LINE
  5
22C
330
A3
100
AcDbEntity
  8
0 - Systemaufbauten
  6
Continuous
 62
     7
370
     0
100
AcDbLine
 10
740.6079700890698
 20
1241.93892022116
 30
0.0
 11
796.6079709235346
 21
1101.938920221159
 31
0.0
  0
LINE
  5
22D
330
A3
100
AcDbEntity
  8
0 - Systemaufbauten
  6
Continuous
 62
     7
370
     0
100
AcDbLine
 10
796.6079709235346
 20
1101.938920221159
 30
0.0
 11
852.6079717579996
 21
1241.93892022116
 31
0.0
  0
LINE
  5
22E
330
A3
100
AcDbEntity
  8
0 - Systemaufbauten
  6
Continuous
 62
     7
370
     0
100
AcDbLine
 10
852.6079717579996
 20
1241.93892022116
 30
0.0
 11
908.6079725924646
 21
1101.938920221159
 31
0.0
  0
LINE
  5
22F
330
A3
100
AcDbEntity
  8
0 - Systemaufbauten
  6
Continuous
 62
     7
370
     0
100
AcDbLine
 10
908.6079725924646
 20
1101.938920221159
 30
0.0
 11
964.6079734269297
 21
1241.93892022116
 31
0.0
  0
LINE
  5
230
330
A3
100
AcDbEntity
  8
0 - Systemaufbauten
  6
Continuous
 62
     7
370
     0
100
AcDbLine
 10
964.6079734269297
 20
1241.93892022116
 30
0.0
 11
1020.607974261395
 21
1101.938920221159
 31
0.0
  0
LINE
  5
231
330
A3
100
AcDbEntity
  8
0 - Systemaufbauten
  6
Continuous
 62
     7
370
     0
100
AcDbLine
 10
1020.607974261395
 20
1101.938920221159
 30
0.0
 11
1076.60797509586
 21
1241.93892022116
 31
0.0
  0
LINE
  5
232
330
A3
100
AcDbEntity
  8
0 - Systemaufbauten
  6
Continuous
 62
     7
370
     0
100
AcDbLine
 10
1076.60797509586
 20
1241.93892022116
 30
0.0
 11
1082.107969254603
 21
1228.188935029194
 31
0.0
  0
LINE
  5
233
330
A3
100
AcDbEntity
  8
0 - Systemaufbauten
  6
Continuous
 62
     7
370
     0
100
AcDbLine
 10
1087.107969254604
 20
1101.938920221159
 30
0.0
 11
1143.107970089069
 21
1241.93892022116
 31
0.0
  0
LINE
  5
234
330
A3
100
AcDbEntity
  8
0 - Systemaufbauten
  6
Continuous
 62
     7
370
     0
100
AcDbLine
 10
1143.107970089069
 20
1241.93892022116
 30
0.0
 11
1199.107970923534
 21
1101.938920221159
 31
0.0
  0
LINE
  5
235
330
A3
100
AcDbEntity
  8
0 - Systemaufbauten
  6
Continuous
 62
     7
370
     0
100
AcDbLine
 10
1199.107970923534
 20
1101.938920221159
 30
0.0
 11
1255.107971757999
 21
1241.93892022116
 31
0.0
  0
LINE
  5
236
330
A3
100
AcDbEntity
  8
0 - Systemaufbauten
  6
Continuous
 62
     7
370
     0
100
AcDbLine
 10
1255.107971757999
 20
1241.93892022116
 30
0.0
 11
1311.107972592464
 21
1101.938920221159
 31
0.0
  0
LINE
  5
237
330
A3
100
AcDbEntity
  8
0 - Systemaufbauten
  6
Continuous
 62
     7
370
     0
100
AcDbLine
 10
1311.107972592464
 20
1101.938920221159
 30
0.0
 11
1367.107973426929
 21
1241.93892022116
 31
0.0
  0
LINE
  5
238
330
A3
100
AcDbEntity
  8
0 - Systemaufbauten
  6
Continuous
 62
     7
370
     0
100
AcDbLine
 10
1367.107973426929
 20
1241.93892022116
 30
0.0
 11
1423.107974261394
 21
1101.938920221159
 31
0.0
  0
LINE
  5
239
330
A3
100
AcDbEntity
  8
0 - Systemaufbauten
  6
Continuous
 62
     7
370
     0
100
AcDbLine
 10
1423.107974261394
 20
1101.938920221159
 30
0.0
 11
1479.107975095859
 21
1241.93892022116
 31
0.0
  0
LINE
  5
23A
330
A3
100
AcDbEntity
  8
0 - Systemaufbauten
  6
Continuous
 62
     7
370
     0
100
AcDbLine
 10
1479.107975095859
 20
1241.93892022116
 30
0.0
 11
1535.107975930324
 21
1101.938920221159
 31
0.0
  0
LINE
  5
23B
330
A3
100
AcDbEntity
  8
0 - Systemaufbauten
  6
Continuous
 62
     7
370
     0
100
AcDbLine
 10
1535.107975930324
 20
1101.938920221159
 30
0.0
 11
1591.107976764788
 21
1241.93892022116
 31
0.0
  0
LINE
  5
23C
330
A3
100
AcDbEntity
  8
0 - Systemaufbauten
  6
Continuous
 62
     7
370
     0
100
AcDbLine
 10
1591.107976764788
 20
1241.93892022116
 30
0.0
 11
1647.107977599254
 21
1101.938920221159
 31
0.0
  0
LINE
  5
23D
330
A3
100
AcDbEntity
  8
0 - Systemaufbauten
  6
Continuous
 62
     7
370
     0
100
AcDbLine
 10
1647.107977599254
 20
1101.938920221159
 30
0.0
 11
1703.107978433718
 21
1241.93892022116
 31
0.0
  0
LINE
  5
23E
330
A3
100
AcDbEntity
  8
0 - Systemaufbauten
  6
Continuous
 62
     7
370
     0
100
AcDbLine
 10
1703.107978433718
 20
1241.93892022116
 30
0.0
 11
1759.107979268184
 21
1101.938920221159
 31
0.0
  0
LINE
  5
23F
330
A3
100
AcDbEntity
  8
0 - Systemaufbauten
  6
Continuous
 62
     7
370
     0
100
AcDbLine
 10
1759.107979268184
 20
1101.938920221159
 30
0.0
 11
1815.107980102649
 21
1241.93892022116
 31
0.0
  0
LINE
  5
240
330
A3
100
AcDbEntity
  8
0 - Systemaufbauten
  6
Continuous
 62
     7
370
     0
100
AcDbLine
 10
1815.107980102649
 20
1241.93892022116
 30
0.0
 11
1834.607969254602
 21
1193.188948067707
 31
0.0
  0
LINE
  5
241
330
A3
100
AcDbEntity
  8
0 - Systemaufbauten
  6
Continuous
 62
     7
370
     0
100
AcDbLine
 10
334.6079692546048
 20
961.9389202211595
 30
0.0
 11
390.6079700890697
 21
1101.938920221159
 31
0.0
  0
LINE
  5
242
330
A3
100
AcDbEntity
  8
0 - Systemaufbauten
  6
Continuous
 62
     7
370
     0
100
AcDbLine
 10
390.6079700890697
 20
1101.938920221159
 30
0.0
 11
446.6079709235347
 21
961.9389202211595
 31
0.0
  0
LINE
  5
243
330
A3
100
AcDbEntity
  8
0 - Systemaufbauten
  6
Continuous
 62
     7
370
     0
100
AcDbLine
 10
446.6079709235347
 20
961.9389202211595
 30
0.0
 11
502.6079717579996
 21
1101.938920221159
 31
0.0
  0
LINE
  5
244
330
A3
100
AcDbEntity
  8
0 - Systemaufbauten
  6
Continuous
 62
     7
370
     0
100
AcDbLine
 10
502.6079717579996
 20
1101.938920221159
 30
0.0
 11
558.6079725924646
 21
961.9389202211595
 31
0.0
  0
LINE
  5
245
330
A3
100
AcDbEntity
  8
0 - Systemaufbauten
  6
Continuous
 62
     7
370
     0
100
AcDbLine
 10
558.6079725924646
 20
961.9389202211595
 30
0.0
 11
614.6079734269297
 21
1101.938920221159
 31
0.0
  0
LINE
  5
246
330
A3
100
AcDbEntity
  8
0 - Systemaufbauten
  6
Continuous
 62
     7
370
     0
100
AcDbLine
 10
614.6079734269297
 20
1101.938920221159
 30
0.0
 11
670.6079742613947
 21
961.9389202211595
 31
0.0
  0
LINE
  5
247
330
A3
100
AcDbEntity
  8
0 - Systemaufbauten
  6
Continuous
 62
     7
370
     0
100
AcDbLine
 10
670.6079742613947
 20
961.9389202211595
 30
0.0
 11
726.6079750958597
 21
1101.938920221159
 31
0.0
  0
LINE
  5
248
330
A3
100
AcDbEntity
  8
0 - Systemaufbauten
  6
Continuous
 62
     7
370
     0
100
AcDbLine
 10
726.6079750958597
 20
1101.938920221159
 30
0.0
 11
782.6079759303248
 21
961.9389202211595
 31
0.0
  0
LINE
  5
249
330
A3
100
AcDbEntity
  8
0 - Systemaufbauten
  6
Continuous
 62
     7
370
     0
100
AcDbLine
 10
782.6079759303248
 20
961.9389202211595
 30
0.0
 11
838.6079767647896
 21
1101.938920221159
 31
0.0
  0
LINE
  5
24A
330
A3
100
AcDbEntity
  8
0 - Systemaufbauten
  6
Continuous
 62
     7
370
     0
100
AcDbLine
 10
838.6079767647896
 20
1101.938920221159
 30
0.0
 11
894.6079775992546
 21
961.9389202211595
 31
0.0
  0
LINE
  5
24B
330
A3
100
AcDbEntity
  8
0 - Systemaufbauten
  6
Continuous
 62
     7
370
     0
100
AcDbLine
 10
894.6079775992546
 20
961.9389202211595
 30
0.0
 11
950.6079784337198
 21
1101.938920221159
 31
0.0
  0
LINE
  5
24C
330
A3
100
AcDbEntity
  8
0 - Systemaufbauten
  6
Continuous
 62
     7
370
     0
100
AcDbLine
 10
950.6079784337198
 20
1101.938920221159
 30
0.0
 11
1006.607979268186
 21
961.9389202211595
 31
0.0
  0
LINE
  5
24D
330
A3
100
AcDbEntity
  8
0 - Systemaufbauten
  6
Continuous
 62
     7
370
     0
100
AcDbLine
 10
1006.607979268186
 20
961.9389202211595
 30
0.0
 11
1062.60798010265
 21
1101.938920221159
 31
0.0
  0
LINE
  5
24E
330
A3
100
AcDbEntity
  8
0 - Systemaufbauten
  6
Continuous
 62
     7
370
     0
100
AcDbLine
 10
1062.60798010265
 20
1101.938920221159
 30
0.0
 11
1082.107969254603
 21
1053.18894806771
 31
0.0
  0
LINE
  5
24F
330
A3
100
AcDbEntity
  8
0 - Systemaufbauten
  6
Continuous
 62
     7
370
     0
100
AcDbLine
 10
1087.107969254604
 20
961.9389202211595
 30
0.0
 11
1143.107970089069
 21
1101.938920221159
 31
0.0
  0
LINE
  5
250
330
A3
100
AcDbEntity
  8
0 - Systemaufbauten
  6
Continuous
 62
     7
370
     0
100
AcDbLine
 10
1143.107970089069
 20
1101.938920221159
 30
0.0
 11
1199.107970923534
 21
961.9389202211595
 31
0.0
  0
LINE
  5
251
330
A3
100
AcDbEntity
  8
0 - Systemaufbauten
  6
Continuous
 62
     7
370
     0
100
AcDbLine
 10
1199.107970923534
 20
961.9389202211595
 30
0.0
 11
1255.107971757999
 21
1101.938920221159
 31
0.0
  0
LINE
  5
252
330
A3
100
AcDbEntity
  8
0 - Systemaufbauten
  6
Continuous
 62
     7
370
     0
100
AcDbLine
 10
1255.107971757999
 20
1101.938920221159
 30
0.0
 11
1311.107972592464
 21
961.9389202211595
 31
0.0
  0
LINE
  5
253
330
A3
100
AcDbEntity
  8
0 - Systemaufbauten
  6
Continuous
 62
     7
370
     0
100
AcDbLine
 10
1311.107972592464
 20
961.9389202211595
 30
0.0
 11
1367.107973426929
 21
1101.938920221159
 31
0.0
  0
LINE
  5
254
330
A3
100
AcDbEntity
  8
0 - Systemaufbauten
  6
Continuous
 62
     7
370
     0
100
AcDbLine
 10
1367.107973426929
 20
1101.938920221159
 30
0.0
 11
1423.107974261394
 21
961.9389202211595
 31
0.0
  0
LINE
  5
255
330
A3
100
AcDbEntity
  8
0 - Systemaufbauten
  6
Continuous
 62
     7
370
     0
100
AcDbLine
 10
1423.107974261394
 20
961.9389202211595
 30
0.0
 11
1479.107975095859
 21
1101.938920221159
 31
0.0
  0
LINE
  5
256
330
A3
100
AcDbEntity
  8
0 - Systemaufbauten
  6
Continuous
 62
     7
370
     0
100
AcDbLine
 10
1479.107975095859
 20
1101.938920221159
 30
0.0
 11
1535.107975930324
 21
961.9389202211595
 31
0.0
  0
LINE
  5
257
330
A3
100
AcDbEntity
  8
0 - Systemaufbauten
  6
Continuous
 62
     7
370
     0
100
AcDbLine
 10
1535.107975930324
 20
961.9389202211595
 30
0.0
 11
1591.107976764788
 21
1101.938920221159
 31
0.0
  0
LINE
  5
258
330
A3
100
AcDbEntity
  8
0 - Systemaufbauten
  6
Continuous
 62
     7
370
     0
100
AcDbLine
 10
1591.107976764788
 20
1101.938920221159
 30
0.0
 11
1647.107977599254
 21
961.9389202211595
 31
0.0
  0
LINE
  5
259
330
A3
100
AcDbEntity
  8
0 - Systemaufbauten
  6
Continuous
 62
     7
370
     0
100
AcDbLine
 10
1647.107977599254
 20
961.9389202211595
 30
0.0
 11
1703.107978433718
 21
1101.938920221159
 31
0.0
  0
LINE
  5
25A
330
A3
100
AcDbEntity
  8
0 - Systemaufbauten
  6
Continuous
 62
     7
370
     0
100
AcDbLine
 10
1703.107978433718
 20
1101.938920221159
 30
0.0
 11
1759.107979268184
 21
961.9389202211595
 31
0.0
  0
LINE
  5
25B
330
A3
100
AcDbEntity
  8
0 - Systemaufbauten
  6
Continuous
 62
     7
370
     0
100
AcDbLine
 10
1759.107979268184
 20
961.9389202211595
 30
0.0
 11
1815.107980102649
 21
1101.938920221159
 31
0.0
  0
LINE
  5
25C
330
A3
100
AcDbEntity
  8
0 - Systemaufbauten
  6
Continuous
 62
     7
370
     0
100
AcDbLine
 10
1815.107980102649
 20
1101.938920221159
 30
0.0
 11
1834.607969254602
 21
1053.188948067707
 31
0.0
  0
HATCH
  5
25D
330
A3
100
AcDbEntity
  8
0 - Systemaufbauten
  6
Continuous
 62
    30
370
     0
100
AcDbHatch
 10
0.0
 20
0.0
 30
0.0
210
0.0
220
0.0
230
1.0
  2
SOLID
 70
     1
 71
     0
 91
        1
 92
        0
 93
       12
 72
     1
 10
1069.607968702605
 20
1266.93892022116
 11
1099.607968702609
 21
1266.93892022116
 72
     2
 10
1099.607972471876
 20
1261.938920221161
 40
5.000000000000959
 50
269.9999568073794
 51
360.0
 73
     0
 72
     2
 10
1109.607972471882
 20
1261.938920221163
 40
5.000000000004536
 50
180.0000000000326
 51
270.0000305417271
 73
     1
 72
     1
 10
1109.60797513715
 20
1256.938920221159
 11
1114.607972471877
 21
1256.938920221159
 72
     1
 10
1114.607972471877
 20
1256.938920221159
 11
1114.607972471877
 21
1271.938914890202
 72
     2
 10
1109.607972471881
 20
1271.938920221162
 40
4.99999999999895
 50
359.9999389116999
 51
450.0000431926707
 73
     1
 72
     1
 10
1109.607968702609
 20
1276.938920221159
 11
1059.60796116407
 21
1276.938920221159
 72
     2
 10
1059.607964933338
 20
1271.938920221159
 40
5.000000000001491
 50
90.00004319263687
 51
180.0
 73
     1
 72
     1
 10
1054.607964933337
 20
1271.938920221159
 11
1054.607964933337
 21
1256.938920221159
 72
     1
 10
1054.607964933337
 20
1256.938920221159
 11
1059.607962268064
 21
1256.938920221159
 72
     2
 10
1059.607964933339
 20
1261.93892022116
 40
5.000000000000989
 50
269.999969458199
 51
360.0000000000115
 73
     1
 72
     2
 10
1069.607964933343
 20
1261.938920221159
 40
5.000000000002968
 50
180.0000000000217
 51
270.0000431925636
 73
     0
 97
        0
 75
     0
 76
     1
 98
        0
  0
HATCH
  5
25E
330
A3
100
AcDbEntity
  8
0 - Systemaufbauten
  6
Continuous
 62
    30
370
     0
100
AcDbHatch
 10
0.0
 20
0.0
 30
0.0
210
0.0
220
0.0
230
1.0
  2
SOLID
 70
     1
 71
     0
 91
        1
 92
        0
 93
        5
 72
     1
 10
1054.607964933337
 20
1256.938920221159
 11
1054.607964933337
 21
1271.938915603755
 72
     2
 10
1049.607964933339
 20
1271.93892022116
 40
5.000000000000069
 50
0.0000529115651411
 51
90.00003054178877
 73
     0
 72
     1
 10
1049.607962268065
 20
1266.93892022116
 11
334.6079692546048
 21
1266.93892022116
 72
     1
 10
334.6079692546048
 20
1266.93892022116
 11
334.6079692546048
 21
1256.938920221159
 72
     1
 10
334.6079692546048
 20
1256.938920221159
 11
1054.607964933337
 21
1256.938920221159
 97
        0
 75
     0
 76
     1
 98
        0
  0
HATCH
  5
25F
330
A3
100
AcDbEntity
  8
0 - Systemaufbauten
  6
Continuous
 62
    30
370
     0
100
AcDbHatch
 10
0.0
 20
0.0
 30
0.0
210
0.0
220
0.0
230
1.0
  2
SOLID
 70
     1
 71
     0
 91
        1
 92
        0
 93
        5
 72
     1
 10
1634.607969254602
 20
1256.938920221159
 11
1634.607969254602
 21
1266.93892022116
 72
     1
 10
1634.607969254602
 20
1266.93892022116
 11
1119.607975137149
 21
1266.93892022116
 72
     2
 10
1119.607972471875
 20
1271.938920221161
 40
5.000000000001107
 50
89.99996945821056
 51
179.9999999999837
 73
     0
 72
     1
 10
1114.607972471874
 20
1271.938920221159
 11
1114.607972471877
 21
1256.938920221159
 72
     1
 10
1114.607972471877
 20
1256.938920221159
 11
1634.607969254602
 21
1256.938920221159
 97
        0
 75
     0
 76
     1
 98
        0
  0
HATCH
  5
260
330
A3
100
AcDbEntity
  8
0 - Systemaufbauten
  6
Continuous
 62
    30
370
     0
100
AcDbHatch
 10
0.0
 20
0.0
 30
0.0
210
0.0
220
0.0
230
1.0
  2
SOLID
 70
     1
 71
     0
 91
        1
 92
        0
 93
        4
 72
     1
 10
1834.607969254602
 20
1256.938920221159
 11
1834.607969254602
 21
1266.93892022116
 72
     1
 10
1834.607969254602
 20
1266.93892022116
 11
1634.607969254602
 21
1266.93892022116
 72
     1
 10
1634.607969254602
 20
1266.93892022116
 11
1634.607969254602
 21
1256.938920221159
 72
     1
 10
1634.607969254602
 20
1256.938920221159
 11
1834.607969254602
 21
1256.938920221159
 97
        0
 75
     0
 76
     1
 98
        0
  0
HATCH
  5
261
330
A3
100
AcDbEntity
  8
0 - Systemaufbauten
  6
Continuous
 62
     7
370
     0
100
AcDbHatch
 10
0.0
 20
0.0
 30
0.0
210
0.0
220
0.0
230
1.0
  2
SOLID
 70
     1
 71
     0
 91
        1
 92
        0
 93
       10
 72
     1
 10
1034.607962268063
 20
1266.93892022116
 11
1049.607962268065
 21
1266.93892022116
 72
     2
 10
1049.607964933339
 20
1271.938920221161
 40
5.000000000001107
 50
269.9999694582112
 51
359.9999999999844
 73
     1
 72
     1
 10
1054.60796493334
 20
1271.938920221159
 11
1054.607964933337
 21
1276.938920221159
 72
     1
 10
1054.607964933337
 20
1276.938920221159
 11
1114.607972471877
 21
1276.938920221159
 72
     1
 10
1114.607972471877
 20
1276.938920221159
 11
1114.607972471877
 21
1271.938920221159
 72
     2
 10
1119.607972471878
 20
1271.938920221161
 40
5.0000000000014
 50
180.0000000000203
 51
270.0000305417543
 73
     1
 72
     1
 10
1119.607975137149
 20
1266.93892022116
 11
1134.607976241144
 21
1266.93892022116
 72
     1
 10
1134.607976241144
 20
1266.93892022116
 11
1134.607976241144
 21
1286.93892022116
 72
     1
 10
1134.607976241144
 20
1286.93892022116
 11
1034.607962268063
 21
1286.93892022116
 72
     1
 10
1034.607962268063
 20
1286.93892022116
 11
1034.607962268063
 21
1266.93892022116
 97
        0
 75
     0
 76
     1
 98
        0
  0
HATCH
  5
262
330
A3
100
AcDbEntity
  8
0 - Systemaufbauten
  6
Continuous
 62
     7
370
     0
100
AcDbHatch
 10
0.0
 20
0.0
 30
0.0
210
0.0
220
0.0
230
1.0
  2
SOLID
 70
     1
 71
     0
 91
        1
 92
        0
 93
       10
 72
     1
 10
1071.744336700873
 20
1262.30255829928
 11
1097.471607332719
 21
1262.30255829928
 72
     1
 10
1097.471607332719
 20
1262.30255829928
 11
1092.107969254601
 21
1256.938920221159
 72
     1
 10
1092.107969254601
 20
1256.938920221159
 11
1099.607972471876
 21
1256.938920221159
 72
     1
 10
1099.607972471876
 20
1256.938920221159
 11
1104.607972471875
 21
1261.938920221161
 72
     2
 10
1099.607972471871
 20
1261.938920221158
 40
5.000000000003325
 50
0.0000000000244267
 51
90.00004319256638
 73
     1
 72
     1
 10
1099.607968702609
 20
1266.93892022116
 11
1069.607968702605
 21
1266.93892022116
 72
     2
 10
1069.607964933338
 20
1261.938920221161
 40
5.000000000000959
 50
89.9999568073794
 51
180.0
 73
     1
 72
     1
 10
1064.607964933337
 20
1261.938920221161
 11
1069.607962268062
 21
1256.938920221159
 72
     1
 10
1069.607962268062
 20
1256.938920221159
 11
1077.107971919879
 21
1256.938920221159
 72
     1
 10
1077.107971919879
 20
1256.938920221159
 11
1071.744336700873
 21
1262.30255829928
 97
        0
 75
     0
 76
     1
 98
        0
  0
HATCH
  5
263
330
A3
100
AcDbEntity
  8
0 - Systemaufbauten
  6
Continuous
 62
     7
370
     0
100
AcDbHatch
 10
0.0
 20
0.0
 30
0.0
210
0.0
220
0.0
230
1.0
  2
SOLID
 70
     1
 71
     0
 91
        1
 92
        0
 93
        4
 72
     1
 10
1082.107969254603
 20
1251.938920221159
 11
1077.107971919879
 21
1256.938920221159
 72
     1
 10
1077.107971919879
 20
1256.938920221159
 11
1034.607962268063
 21
1256.938920221159
 72
     1
 10
1034.607962268063
 20
1256.938920221159
 11
1034.607962268063
 21
1251.938920221159
 72
     1
 10
1034.607962268063
 20
1251.938920221159
 11
1082.107969254603
 21
1251.938920221159
 97
        0
 75
     0
 76
     1
 98
        0
  0
HATCH
  5
264
330
A3
100
AcDbEntity
  8
0 - Systemaufbauten
  6
Continuous
 62
     7
370
     0
100
AcDbHatch
 10
0.0
 20
0.0
 30
0.0
210
0.0
220
0.0
230
1.0
  2
SOLID
 70
     1
 71
     0
 91
        1
 92
        0
 93
        5
 72
     1
 10
1099.607972471876
 20
1256.938920221159
 11
1092.107969254601
 21
1256.938920221159
 72
     1
 10
1092.107969254601
 20
1256.938920221159
 11
1087.107969254604
 21
1251.938920221159
 72
     1
 10
1087.107969254604
 20
1251.938920221159
 11
1134.607976241144
 21
1251.938920221159
 72
     1
 10
1134.607976241144
 20
1251.938920221159
 11
1134.607976241144
 21
1256.938920221159
 72
     1
 10
1134.607976241144
 20
1256.938920221159
 11
1099.607972471876
 21
1256.938920221159
 97
        0
 75
     0
 76
     1
 98
        0
  0
LWPOLYLINE
  5
265
330
A3
100
AcDbEntity
  8
0 - Systemaufbauten
  6
Continuous
 62
     7
370
     0
100
AcDbPolyline
 90
        4
 70
     1
 43
0.0
 10
2.091549295774598
 20
1.481514084507069
 10
2972.091549295775
 20
1.481514084507069
 10
2972.091549295775
 20
2101.481514084507
 10
2.091549295774598
 20
2101.481514084507
  0
LWPOLYLINE
  5
266
330
A3
100
AcDbEntity
  8
0 - Systemaufbauten
  6
Continuous
 62
     7
370
     0
100
AcDbPolyline
 90
        4
 70
     1
 43
0.0
 10
252.0915492957747
 20
2051.481514084507
 10
2922.091549295775
 20
2051.481514084507
 10
2922.091549295775
 20
51.48151408450707
 10
252.0915492957747
 20
51.48151408450707
  0
LWPOLYLINE
  5
267
330
A3
100
AcDbEntity
  8
0 - Systemaufbauten
  6
Continuous
 62
     7
370
     0
100
AcDbPolyline
 90
        3
 70
     0
 43
0.0
 10
1572.091549295774
 20
51.48151408450707
 10
1572.091549295774
 20
501.481514084507
 10
2922.091549295775
 20
501.481514084507
  0
LINE
  5
268
330
A3
100
AcDbEntity
  8
0 - Systemaufbauten
  6
Continuous
 62
     7
370
     0
100
AcDbLine
 10
1572.091549295774
 20
151.481514084507
 30
0.0
 11
2922.091549295775
 21
151.481514084507
 31
0.0
  0
LINE
  5
269
330
A3
100
AcDbEntity
  8
0 - Systemaufbauten
  6
Continuous
 62
     7
370
     0
100
AcDbLine
 10
1572.091549295774
 20
351.481514084507
 30
0.0
 11
2922.091549295775
 21
351.481514084507
 31
0.0
  0
LINE
  5
26A
330
A3
100
AcDbEntity
  8
0 - Systemaufbauten
  6
Continuous
 62
     7
370
     0
100
AcDbLine
 10
1842.091549295776
 20
151.481514084507
 30
0.0
 11
1842.091549295776
 21
51.48151408450707
 31
0.0
  0
LINE
  5
26B
330
A3
100
AcDbEntity
  8
0 - Systemaufbauten
  6
Continuous
 62
     7
370
     0
100
AcDbLine
 10
2112.091549295774
 20
151.481514084507
 30
0.0
 11
2112.091549295774
 21
51.48151408450707
 31
0.0
  0
LINE
  5
26C
330
A3
100
AcDbEntity
  8
0 - Systemaufbauten
  6
Continuous
 62
     7
370
     0
100
AcDbLine
 10
2382.091549295776
 20
151.481514084507
 30
0.0
 11
2382.091549295776
 21
51.48151408450707
 31
0.0
  0
LINE
  5
26D
330
A3
100
AcDbEntity
  8
0 - Systemaufbauten
  6
Continuous
 62
     7
370
     0
100
AcDbLine
 10
2652.091549295775
 20
151.481514084507
 30
0.0
 11
2652.091549295775
 21
51.48151408450707
 31
0.0
  0
TEXT
  5
26E
330
A3
100
AcDbEntity
  8
0 - Systemaufbauten
  6
Continuous
 62
     7
370
     0
100
AcDbText
 10
1592.091549295776
 20
471.4815140845074
 30
0.0
 40
22.69896125793457
  1
PLANINHALT:
 41
0.8579923483530327
  7
Style0
100
AcDbText
  0
TEXT
  5
26F
330
A3
100
AcDbEntity
  8
0 - Systemaufbauten
  6
Continuous
 62
     7
370
     0
100
AcDbText
 10
1592.091549295776
 20
121.4815140845074
 30
0.0
 40
22.69896125793457
  1
MASSSTAB:
 41
0.9111284619623434
  7
Style0
100
AcDbText
  0
TEXT
  5
270
330
A3
100
AcDbEntity
  8
0 - Systemaufbauten
  6
Continuous
 62
     7
370
     0
100
AcDbText
 10
1862.091549295777
 20
121.4815140845074
 30
0.0
 40
22.69896125793457
  1
ERSTELLT:
 41
0.8423641974483923
  7
Style0
100
AcDbText
  0
TEXT
  5
271
330
A3
100
AcDbEntity
  8
0 - Systemaufbauten
  6
Continuous
 62
     7
370
     0
100
AcDbText
 10
2132.091549295776
 20
121.4815140845074
 30
0.0
 40
22.69896125793457
  1
BLATT NR.:
 41
0.8458022923346369
  7
Style0
100
AcDbText
  0
TEXT
  5
272
330
A3
100
AcDbEntity
  8
0 - Systemaufbauten
  6
Continuous
 62
     7
370
     0
100
AcDbText
 10
2402.091549295775
 20
121.4815140845074
 30
0.0
 40
22.69896125793457
  1
DETAIL NR.:
 41
0.8204844463352615
  7
Style0
100
AcDbText
  0
TEXT
  5
273
330
A3
100
AcDbEntity
  8
0 - Systemaufbauten
  6
Continuous
 62
     7
370
     0
100
AcDbText
 10
2672.091549295775
 20
121.4815140845074
 30
0.0
 40
22.69896125793457
  1
GEZEICHNET:
 41
0.8908118839923805
  7
Style0
100
AcDbText
  0
TEXT
  5
274
330
A3
100
AcDbEntity
  8
0 - Systemaufbauten
  6
Continuous
 62
     7
370
     0
100
AcDbText
 10
1593.366153926748
 20
325.5759793770691
 30
0.0
 40
9.079585075378418
  1
Die oben dargestellte Detailzeichnung bezieht sich auf eine Regelkonstruktion, d.h. sie ist zu überprüfen,
 41
0.8426884399575822
  7
Style0
100
AcDbText
  0
TEXT
  5
275
330
A3
100
AcDbEntity
  8
0 - Systemaufbauten
  6
Continuous
 62
     7
370
     0
100
AcDbText
 10
1593.366153926748
 20
306.4029689964469
 30
0.0
 40
9.079585075378418
  1
objektgebunden anzupassen, abzustimmen und gegebenfalls zu ergänzen.
 41
0.9123924215372422
  7
Style0
100
AcDbText
  0
TEXT
  5
276
330
A3
100
AcDbEntity
  8
0 - Systemaufbauten
  6
Continuous
 62
     7
370
     0
100
AcDbText
 10
1593.366153926748
 20
287.2299586158247
 30
0.0
 40
9.079585075378418
  1
Die empfohlenen Anwendungsbereiche sind auf Grund der Erfahrungen und Normen ausgearbeitet.
 41
0.9124509843910388
  7
Style0
100
AcDbText
  0
TEXT
  5
277
330
A3
100
AcDbEntity
  8
0 - Systemaufbauten
  6
Continuous
 62
     7
370
     0
100
AcDbText
 10
1593.366153926748
 20
268.056948235201
 30
0.0
 40
9.079585075378418
  1
Eine Verbindlichkeit kann hieraus nicht abgeleitet werden. Technische Änderungen sind vorbehalten.
 41
0.8551696102436678
  7
Style0
100
AcDbText
  0
TEXT
  5
278
330
A3
100
AcDbEntity
  8
0 - Systemaufbauten
  6
Continuous
 62
     7
370
     0
100
AcDbText
 10
1593.366153926748
 20
248.8839378545774
 30
0.0
 40
9.079585075378418
  1
Die vorliegende Detailzeichnung verliert bei Erscheinen einer Neuausgabe ihre Gültigkeit.
 41
0.8332855365681433
  7
Style0
100
AcDbText
  0
TEXT
  5
279
330
A3
100
AcDbEntity
  8
0 - Systemaufbauten
  6
Continuous
 62
     7
370
     0
100
AcDbText
 10
1593.366153926748
 20
229.7109274739566
 30
0.0
 40
9.079585075378418
  1
Jede Haftung von COVERiT bei leichter Fahrlässigkeit sowie für Beratung ohne nachfolgende Warenlieferung
 41
0.8747626777695675
  7
Style0
100
AcDbText
  0
TEXT
  5
27A
330
A3
100
AcDbEntity
  8
0 - Systemaufbauten
  6
Continuous
 62
     7
370
     0
100
AcDbText
 10
1593.366153926748
 20
210.5379170933331
 30
0.0
 40
9.079585075378418
  1
von COVERiT und gegenüber Dritten (andere als COVERiT-Vertragspartner) ist ausgeschlossen.
 41
0.8853418449037859
  7
Style0
100
AcDbText
  0
TEXT
  5
27B
330
A3
100
AcDbEntity
  8
0 - Systemaufbauten
  6
Continuous
 62
     7
370
     0
100
AcDbText
 10
1593.366153926748
 20
191.3649067127094
 30
0.0
 40
9.079585075378418
  1
Verkauf und Lieferung von COVERiT erfolgt ausschließlich zu den allgemeinen Liefer-, Zahlungs- und Gewährleistungsbedingungen von COVERiT.
 41
0.7222222222222222
  7
Style0
100
AcDbText
  0
TEXT
  5
27C
330
A3
100
AcDbEntity
  8
0 - Systemaufbauten
  6
Continuous
 62
     7
370
     0
100
AcDbText
 10
1593.366153926748
 20
172.1918963320871
 30
0.0
 40
9.079585075378418
  1
Es gilt österreichisches Recht (ohne UN Kaufrecht). Gerichtsstand ist Wels.
 41
0.8506157414920329
  7
Style0
100
AcDbText
  0
TEXT
  5
27D
330
A3
100
AcDbEntity
  8
0 - Systemaufbauten
  6
Continuous
 62
     7
370
     0
100
AcDbText
 10
1592.091549295776
 20
61.48151408450804
 30
0.0
 40
31.7785472869873
  1
1:1
 41
0.6016886835724486
  7
Style0
100
AcDbText
  0
TEXT
  5
27E
330
A3
100
AcDbEntity
  8
0 - Systemaufbauten
  6
Continuous
 62
     7
370
     0
100
AcDbText
 10
1862.091549295777
 20
61.48151408450804
 30
0.0
 40
31.7785472869873
  1
07/15
 41
0.990207449084411
  7
Style0
100
AcDbText
  0
TEXT
  5
27F
330
A3
100
AcDbEntity
  8
0 - Systemaufbauten
  6
Continuous
 62
     7
370
     0
100
AcDbText
 10
2132.091549295776
 20
61.48151408450804
 30
0.0
 40
31.7785472869873
  1
16
 41
0.7993863474450573
  7
Style0
100
AcDbText
  0
TEXT
  5
280
330
A3
100
AcDbEntity
  8
0 - Systemaufbauten
  6
Continuous
 62
     7
370
     0
100
AcDbText
 10
2402.091549295775
 20
61.48151408450804
 30
0.0
 40
31.7785472869873
  1
16
 41
0.7993863474450573
  7
Style0
100
AcDbText
  0
TEXT
  5
281
330
A3
100
AcDbEntity
  8
0 - Systemaufbauten
  6
Continuous
 62
     7
370
     0
100
AcDbText
 10
2672.091549295775
 20
61.48151408450804
 30
0.0
 40
31.7785472869873
  1
TR/AP
 41
0.9695781525146926
  7
Style0
100
AcDbText
  0
LINE
  5
282
330
A3
100
AcDbEntity
  8
0 - Systemaufbauten
  6
Continuous
 62
     7
370
     0
100
AcDbLine
 10
2446.89331111101
 20
351.481514084507
 30
0.0
 11
2446.89331111101
 21
151.481514084507
 31
0.0
  0
LINE
  5
283
330
A3
100
AcDbEntity
  8
0 - Systemaufbauten
  6
Continuous
 62
     7
370
     0
100
AcDbLine
 10
434.6079692546048
 20
961.9389202211595
 30
0.0
 11
434.6079692546048
 21
951.9389202211593
 31
0.0
  0
LINE
  5
284
330
A3
100
AcDbEntity
  8
0 - Systemaufbauten
  6
Continuous
 62
     7
370
     0
100
AcDbLine
 10
534.6079692546048
 20
961.9389202211595
 30
0.0
 11
534.6079692546048
 21
951.9389202211593
 31
0.0
  0
LINE
  5
285
330
A3
100
AcDbEntity
  8
0 - Systemaufbauten
  6
Continuous
 62
     7
370
     0
100
AcDbLine
 10
634.6079692546048
 20
961.9389202211595
 30
0.0
 11
634.6079692546048
 21
951.9389202211593
 31
0.0
  0
LINE
  5
286
330
A3
100
AcDbEntity
  8
0 - Systemaufbauten
  6
Continuous
 62
     7
370
     0
100
AcDbLine
 10
734.6079692546048
 20
961.9389202211595
 30
0.0
 11
734.6079692546048
 21
951.9389202211593
 31
0.0
  0
LINE
  5
287
330
A3
100
AcDbEntity
  8
0 - Systemaufbauten
  6
Continuous
 62
     7
370
     0
100
AcDbLine
 10
834.6079692546048
 20
961.9389202211595
 30
0.0
 11
834.6079692546048
 21
951.9389202211593
 31
0.0
  0
LINE
  5
288
330
A3
100
AcDbEntity
  8
0 - Systemaufbauten
  6
Continuous
 62
     7
370
     0
100
AcDbLine
 10
934.6079692546048
 20
961.9389202211595
 30
0.0
 11
934.6079692546048
 21
951.9389202211593
 31
0.0
  0
LINE
  5
289
330
A3
100
AcDbEntity
  8
0 - Systemaufbauten
  6
Continuous
 62
     7
370
     0
100
AcDbLine
 10
1034.607969254605
 20
961.9389202211595
 30
0.0
 11
1034.607969254605
 21
951.9389202211593
 31
0.0
  0
LINE
  5
28A
330
A3
100
AcDbEntity
  8
0 - Systemaufbauten
  6
Continuous
 62
     7
370
     0
100
AcDbLine
 10
1134.607969254605
 20
961.9389202211595
 30
0.0
 11
1134.607969254605
 21
951.9389202211593
 31
0.0
  0
LINE
  5
28B
330
A3
100
AcDbEntity
  8
0 - Systemaufbauten
  6
Continuous
 62
     7
370
     0
100
AcDbLine
 10
1234.607969254605
 20
961.9389202211595
 30
0.0
 11
1234.607969254605
 21
951.9389202211593
 31
0.0
  0
LINE
  5
28C
330
A3
100
AcDbEntity
  8
0 - Systemaufbauten
  6
Continuous
 62
     7
370
     0
100
AcDbLine
 10
1334.607969254605
 20
961.9389202211595
 30
0.0
 11
1334.607969254605
 21
951.9389202211593
 31
0.0
  0
LINE
  5
28D
330
A3
100
AcDbEntity
  8
0 - Systemaufbauten
  6
Continuous
 62
     7
370
     0
100
AcDbLine
 10
1434.607969254605
 20
961.9389202211595
 30
0.0
 11
1434.607969254605
 21
951.9389202211593
 31
0.0
  0
LINE
  5
28E
330
A3
100
AcDbEntity
  8
0 - Systemaufbauten
  6
Continuous
 62
     7
370
     0
100
AcDbLine
 10
1534.607969254605
 20
961.9389202211595
 30
0.0
 11
1534.607969254605
 21
951.9389202211593
 31
0.0
  0
LINE
  5
28F
330
A3
100
AcDbEntity
  8
0 - Systemaufbauten
  6
Continuous
 62
     7
370
     0
100
AcDbLine
 10
1634.607969254602
 20
961.9389202211595
 30
0.0
 11
1634.607969254602
 21
951.9389202211593
 31
0.0
  0
LINE
  5
290
330
A3
100
AcDbEntity
  8
0 - Systemaufbauten
  6
Continuous
 62
     7
370
     0
100
AcDbLine
 10
1734.607969254602
 20
961.9389202211595
 30
0.0
 11
1734.607969254602
 21
951.9389202211593
 31
0.0
  0
LINE
  5
291
330
A3
100
AcDbEntity
  8
0 - Systemaufbauten
  6
Continuous
 62
     7
370
     0
100
AcDbLine
 10
405.1079692545975
 20
801.9389202211593
 30
0.0
 11
465.1079692545967
 21
951.9389202211593
 31
0.0
  0
LINE
  5
292
330
A3
100
AcDbEntity
  8
0 - Systemaufbauten
  6
Continuous
 62
     7
370
     0
100
AcDbLine
 10
864.1079692545977
 20
951.9389202211593
 30
0.0
 11
924.1079692545977
 21
801.9389202211593
 31
0.0
  0
LINE
  5
293
330
A3
100
AcDbEntity
  8
0 - Systemaufbauten
  6
Continuous
 62
     7
370
     0
100
AcDbLine
 10
965.1079692545998
 20
801.9389202211593
 30
0.0
 11
1025.107969254599
 21
951.9389202211593
 31
0.0
  0
LINE
  5
294
330
A3
100
AcDbEntity
  8
0 - Systemaufbauten
  6
Continuous
 62
     7
370
     0
100
AcDbLine
 10
1144.107969254599
 20
951.9389202211593
 30
0.0
 11
1204.107969254599
 21
801.9389202211593
 31
0.0
  0
LINE
  5
295
330
A3
100
AcDbEntity
  8
0 - Systemaufbauten
  6
Continuous
 62
     7
370
     0
100
AcDbLine
 10
1245.107969254601
 20
801.9389202211593
 30
0.0
 11
1305.107969254601
 21
951.9389202211593
 31
0.0
  0
LINE
  5
296
330
A3
100
AcDbEntity
  8
0 - Systemaufbauten
  6
Continuous
 62
     7
370
     0
100
AcDbLine
 10
1424.1079692546
 20
951.9389202211593
 30
0.0
 11
1484.1079692546
 21
801.9389202211593
 31
0.0
  0
LINE
  5
297
330
A3
100
AcDbEntity
  8
0 - Systemaufbauten
  6
Continuous
 62
     7
370
     0
100
AcDbLine
 10
1525.107969254602
 20
801.9389202211593
 30
0.0
 11
1585.107969254602
 21
951.9389202211593
 31
0.0
  0
LINE
  5
298
330
A3
100
AcDbEntity
  8
0 - Systemaufbauten
  6
Continuous
 62
     7
370
     0
100
AcDbLine
 10
1704.107969254601
 20
951.9389202211593
 30
0.0
 11
1764.1079692546
 21
801.9389202211593
 31
0.0
  0
LINE
  5
299
330
A3
100
AcDbEntity
  8
0 - Systemaufbauten
  6
Continuous
 62
     7
370
     0
100
AcDbLine
 10
584.1079692545966
 20
951.9389202211593
 30
0.0
 11
644.1079692545957
 21
801.9389202211593
 31
0.0
  0
LINE
  5
29A
330
A3
100
AcDbEntity
  8
0 - Systemaufbauten
  6
Continuous
 62
     7
370
     0
100
AcDbLine
 10
685.1079692545989
 20
801.9389202211593
 30
0.0
 11
745.1079692545977
 21
951.9389202211593
 31
0.0
  0
LINE
  5
29B
330
A3
100
AcDbEntity
  8
0 - Systemaufbauten
  6
Continuous
 62
     7
370
     0
100
AcDbLine
 10
334.6079692546048
 20
875.6889202211363
 30
0.0
 11
364.107969254595
 21
801.9389202211593
 31
0.0
  0
LINE
  5
29C
330
A3
100
AcDbEntity
  8
0 - Systemaufbauten
  6
Continuous
 62
     7
370
     0
100
AcDbLine
 10
1805.107969254603
 20
801.9389202211593
 30
0.0
 11
1834.607969254602
 21
875.6889202211574
 31
0.0
  0
LINE
  5
29D
330
A3
100
AcDbEntity
  8
0 - Systemaufbauten
  6
Continuous
 62
     7
370
     0
100
AcDbLine
 10
364.107969254595
 20
801.9389202211593
 30
0.0
 11
405.1079692545975
 21
801.9389202211593
 31
0.0
  0
LINE
  5
29E
330
A3
100
AcDbEntity
  8
0 - Systemaufbauten
  6
Continuous
 62
     7
370
     0
100
AcDbLine
 10
644.1079692545957
 20
801.9389202211593
 30
0.0
 11
685.1079692545989
 21
801.9389202211593
 31
0.0
  0
LINE
  5
29F
330
A3
100
AcDbEntity
  8
0 - Systemaufbauten
  6
Continuous
 62
     7
370
     0
100
AcDbLine
 10
924.1079692545977
 20
801.9389202211593
 30
0.0
 11
965.1079692545998
 21
801.9389202211593
 31
0.0
  0
LINE
  5
2A0
330
A3
100
AcDbEntity
  8
0 - Systemaufbauten
  6
Continuous
 62
     7
370
     0
100
AcDbLine
 10
1204.107969254599
 20
801.9389202211593
 30
0.0
 11
1245.107969254601
 21
801.9389202211593
 31
0.0
  0
LINE
  5
2A1
330
A3
100
AcDbEntity
  8
0 - Systemaufbauten
  6
Continuous
 62
     7
370
     0
100
AcDbLine
 10
1484.1079692546
 20
801.9389202211593
 30
0.0
 11
1525.107969254602
 21
801.9389202211593
 31
0.0
  0
LINE
  5
2A2
330
A3
100
AcDbEntity
  8
0 - Systemaufbauten
  6
Continuous
 62
     7
370
     0
100
AcDbLine
 10
1764.1079692546
 20
801.9389202211593
 30
0.0
 11
1805.107969254603
 21
801.9389202211593
 31
0.0
  0
LINE
  5
2A3
330
A3
100
AcDbEntity
  8
0 - Systemaufbauten
  6
Continuous
 62
     7
370
     0
100
AcDbLine
 10
334.6079692546048
 20
1251.938920221159
 30
0.0
 11
1082.107969254603
 21
1251.938920221159
 31
0.0
  0
LINE
  5
2A4
330
A3
100
AcDbEntity
  8
0 - Systemaufbauten
  6
Continuous
 62
     7
370
     0
100
AcDbLine
 10
1087.107969254604
 20
1251.938920221159
 30
0.0
 11
1834.607969254602
 21
1251.938920221159
 31
0.0
  0
LINE
  5
2A5
330
A3
100
AcDbEntity
  8
0 - Systemaufbauten
  6
Continuous
 62
     7
370
     0
100
AcDbLine
 10
334.6079692546048
 20
1241.93892022116
 30
0.0
 11
1082.107969254603
 21
1241.93892022116
 31
0.0
  0
LINE
  5
2A6
330
A3
100
AcDbEntity
  8
0 - Systemaufbauten
  6
Continuous
 62
     7
370
     0
100
AcDbLine
 10
1087.107969254604
 20
1241.93892022116
 30
0.0
 11
1834.607969254602
 21
1241.93892022116
 31
0.0
  0
LINE
  5
2A7
330
A3
100
AcDbEntity
  8
0 - Systemaufbauten
  6
Continuous
 62
     7
370
     0
100
AcDbLine
 10
334.6079692546048
 20
1101.938920221159
 30
0.0
 11
1082.107969254603
 21
1101.938920221159
 31
0.0
  0
LINE
  5
2A8
330
A3
100
AcDbEntity
  8
0 - Systemaufbauten
  6
Continuous
 62
     7
370
     0
100
AcDbLine
 10
1087.107969254604
 20
1101.938920221159
 30
0.0
 11
1834.607969254602
 21
1101.938920221159
 31
0.0
  0
LINE
  5
2A9
330
A3
100
AcDbEntity
  8
0 - Systemaufbauten
  6
Continuous
 62
     7
370
     0
100
AcDbLine
 10
1634.607969254602
 20
1067.372113045393
 30
0.0
 11
1634.607969254602
 21
1915.519353512014
 31
0.0
  0
TEXT
  5
2AA
330
A3
100
AcDbEntity
  8
0 - Systemaufbauten
  6
Continuous
 62
     7
370
     0
100
AcDbText
 10
1633.128789869158
 20
1683.70323884812
 30
0.0
 40
31.7785472869873
  1
- Stahltrapezblech
 41
0.7222222222222222
  7
Style0
100
AcDbText
  0
TEXT
  5
2AB
330
A3
100
AcDbEntity
  8
0 - Systemaufbauten
  6
Continuous
 62
     7
370
     0
100
AcDbText
 10
1633.128789869158
 20
1738.308775180301
 30
0.0
 40
31.7785472869873
  1
- Dampfsperre (*3)
 41
0.7222222222222222
  7
Style0
100
AcDbText
  0
TEXT
  5
2AC
330
A3
100
AcDbEntity
  8
0 - Systemaufbauten
  6
Continuous
 62
     7
370
     0
100
AcDbText
 10
1633.128789869158
 20
1792.914311512479
 30
0.0
 40
31.7785472869873
  1
- Wärmedämmung (*2)
 41
0.7222222222222222
  7
Style0
100
AcDbText
  0
TEXT
  5
2AD
330
A3
100
AcDbEntity
  8
0 - Systemaufbauten
  6
Continuous
 62
     7
370
     0
100
AcDbText
 10
1633.128789869158
 20
1847.519847844661
 30
0.0
 40
31.7785472869873
  1
- Brandschutzlage (*1)
 41
0.7222222222222222
  7
Style0
100
AcDbText
  0
TEXT
  5
2AE
330
A3
100
AcDbEntity
  8
0 - Systemaufbauten
  6
Continuous
 62
    30
370
     0
100
AcDbText
 10
1633.128789869158
 20
1902.125384176839
 30
0.0
 40
31.7785472869873
  1
- COVERiT NOVOtan EPDM Plane F 1,3/ 1,5 mm
 41
0.7222222222222222
  7
Style0
100
AcDbText
  0
LINE
  5
2AF
330
A3
100
AcDbEntity
  8
0 - Systemaufbauten
  6
Continuous
 62
     7
370
     0
100
AcDbLine
 10
1087.107969254604
 20
937.6516624198003
 30
0.0
 11
1082.107969254603
 21
937.6516624198003
 31
0.0
  0
LINE
  5
2B0
330
A3
100
AcDbEntity
  8
0 - Systemaufbauten
  6
Continuous
 62
     7
370
     0
100
AcDbLine
 10
334.6079692546048
 20
951.9389202211593
 30
0.0
 11
1082.107969254603
 21
951.9389202211593
 31
0.0
  0
LINE
  5
2B1
330
A3
100
AcDbEntity
  8
0 - Systemaufbauten
  6
Continuous
 62
     7
370
     0
100
AcDbLine
 10
334.6079692546048
 20
961.9389202211595
 30
0.0
 11
1082.107969254603
 21
961.9389202211595
 31
0.0
  0
LINE
  5
2B2
330
A3
100
AcDbEntity
  8
0 - Systemaufbauten
  6
Continuous
 62
     7
370
     0
100
AcDbLine
 10
1087.107969254604
 20
961.9389202211595
 30
0.0
 11
1834.607969254602
 21
961.9389202211595
 31
0.0
  0
LINE
  5
2B3
330
A3
100
AcDbEntity
  8
0 - Systemaufbauten
  6
Continuous
 62
     7
370
     0
100
AcDbLine
 10
1087.107969254604
 20
951.9389202211593
 30
0.0
 11
1834.607969254602
 21
951.9389202211593
 31
0.0
  0
LINE
  5
2B4
330
A3
100
AcDbEntity
  8
0 - Systemaufbauten
  6
Continuous
 62
     7
370
     0
100
AcDbLine
 10
1484.607969254602
 20
1101.938920221159
 30
0.0
 11
1484.607969254602
 21
961.9389202211595
 31
0.0
  0
LINE
  5
2B5
330
A3
100
AcDbEntity
  8
0 - Systemaufbauten
  6
Continuous
 62
     7
370
     0
100
AcDbLine
 10
684.6079692546048
 20
1241.93892022116
 30
0.0
 11
684.6079692546048
 21
1101.938920221159
 31
0.0
  0
ARC
  5
2B6
330
A3
100
AcDbEntity
  8
0 - Systemaufbauten
  6
Continuous
 62
     7
370
     0
100
AcDbCircle
 10
1099.607972471876
 20
1261.938920221161
 30
0.0
 40
5.00000000000114
100
AcDbArc
 50
0.0
 51
90.0000431926206
  0
ARC
  5
2B7
330
A3
100
AcDbEntity
  8
0 - Systemaufbauten
  6
Continuous
 62
     7
370
     0
100
AcDbCircle
 10
1109.607972471876
 20
1261.938920221161
 30
0.0
 40
5.00000000000114
100
AcDbArc
 50
180.0
 51
270.0000305417929
  0
ARC
  5
2B8
330
A3
100
AcDbEntity
  8
0 - Systemaufbauten
  6
Continuous
 62
     7
370
     0
100
AcDbCircle
 10
1109.607972471876
 20
1271.938920221159
 30
0.0
 40
5.00000000000114
100
AcDbArc
 50
0.0
 51
90.0000431926206
  0
ARC
  5
2B9
330
A3
100
AcDbEntity
  8
0 - Systemaufbauten
  6
Continuous
 62
     7
370
     0
100
AcDbCircle
 10
1119.607972471875
 20
1271.938920221159
 30
0.0
 40
5.00000000000114
100
AcDbArc
 50
180.0
 51
270.0000305417929
  0
ARC
  5
2BA
330
A3
100
AcDbEntity
  8
0 - Systemaufbauten
  6
Continuous
 62
     7
370
     0
100
AcDbCircle
 10
1069.607964933338
 20
1261.938920221161
 30
0.0
 40
5.00000000000114
100
AcDbArc
 50
89.9999568073794
 51
180.0
  0
ARC
  5
2BB
330
A3
100
AcDbEntity
  8
0 - Systemaufbauten
  6
Continuous
 62
     7
370
     0
100
AcDbCircle
 10
1059.607964933338
 20
1261.938920221161
 30
0.0
 40
5.00000000000185
100
AcDbArc
 50
269.9999694582071
 51
0.0
  0
ARC
  5
2BC
330
A3
100
AcDbEntity
  8
0 - Systemaufbauten
  6
Continuous
 62
     7
370
     0
100
AcDbCircle
 10
1059.607964933338
 20
1271.938920221159
 30
0.0
 40
5.00000000000114
100
AcDbArc
 50
89.9999568073794
 51
180.0
  0
ARC
  5
2BD
330
A3
100
AcDbEntity
  8
0 - Systemaufbauten
  6
Continuous
 62
     7
370
     0
100
AcDbCircle
 10
1049.607964933339
 20
1271.938920221159
 30
0.0
 40
5.00000000000043
100
AcDbArc
 50
269.9999694582071
 51
0.0
  0
LINE
  5
2BE
330
A3
100
AcDbEntity
  8
0 - Systemaufbauten
  6
Continuous
 62
     7
370
     0
100
AcDbLine
 10
1059.60796116407
 20
1276.938920221159
 30
0.0
 11
1109.607968702609
 21
1276.938920221159
 31
0.0
  0
LINE
  5
2BF
330
A3
100
AcDbEntity
  8
0 - Systemaufbauten
  6
Continuous
 62
     7
370
     0
100
AcDbLine
 10
1099.607968702609
 20
1266.93892022116
 30
0.0
 11
1069.607968702605
 21
1266.93892022116
 31
0.0
  0
LWPOLYLINE
  5
2C0
330
A3
100
AcDbEntity
  8
0 - Systemaufbauten
  6
Continuous
 62
     7
370
     0
100
AcDbPolyline
 90
        4
 70
     0
 43
0.0
 10
1034.607962268063
 20
1266.93892022116
 10
1034.607962268063
 20
1286.93892022116
 10
1134.607976241144
 20
1286.93892022116
 10
1134.607976241144
 20
1266.93892022116
  0
LWPOLYLINE
  5
2C1
330
A3
100
AcDbEntity
  8
0 - Systemaufbauten
  6
Continuous
 62
     7
370
     0
100
AcDbPolyline
 90
        3
 70
     0
 43
0.0
 10
1054.607964933337
 20
1271.938920221159
 10
1054.607964933337
 20
1276.938920221159
 10
1059.607968702607
 20
1276.938920221159
  0
LWPOLYLINE
  5
2C2
330
A3
100
AcDbEntity
  8
0 - Systemaufbauten
  6
Continuous
 62
     7
370
     0
100
AcDbPolyline
 90
        3
 70
     0
 43
0.0
 10
1114.607972471877
 20
1271.938920221159
 10
1114.607972471877
 20
1276.938920221159
 10
1109.607976241144
 20
1276.938920221159
  0
LINE
  5
2C3
330
A3
100
AcDbEntity
  8
0 - Systemaufbauten
  6
Continuous
 62
     7
370
     0
100
AcDbLine
 10
1064.607964933337
 20
1261.938920221161
 30
0.0
 11
1069.607962268062
 21
1256.938920221159
 31
0.0
  0
LINE
  5
2C4
330
A3
100
AcDbEntity
  8
0 - Systemaufbauten
  6
Continuous
 62
     7
370
     0
100
AcDbLine
 10
1104.607972471875
 20
1261.938920221161
 30
0.0
 11
1099.607972471876
 21
1256.938920221159
 31
0.0
  0
LINE
  5
2C5
330
A3
100
AcDbEntity
  8
0 - Systemaufbauten
  6
Continuous
 62
     7
370
     0
100
AcDbLine
 10
1059.607967598614
 20
1256.938920221159
 30
0.0
 11
1069.607962268062
 21
1256.938920221159
 31
0.0
  0
LINE
  5
2C6
330
A3
100
AcDbEntity
  8
0 - Systemaufbauten
  6
Continuous
 62
     7
370
     0
100
AcDbLine
 10
1099.607972471876
 20
1256.938920221159
 30
0.0
 11
1109.60797513715
 21
1256.938920221159
 31
0.0
  0
LINE
  5
2C7
330
A3
100
AcDbEntity
  8
0 - Systemaufbauten
  6
Continuous
 62
     7
370
     0
100
AcDbLine
 10
1054.607964933337
 20
1271.938915604297
 30
0.0
 11
1054.607964933337
 21
1256.938920221159
 31
0.0
  0
LINE
  5
2C8
330
A3
100
AcDbEntity
  8
0 - Systemaufbauten
  6
Continuous
 62
     7
370
     0
100
AcDbLine
 10
1114.607972471877
 20
1271.938914890202
 30
0.0
 11
1114.607972471877
 21
1256.938920221159
 31
0.0
  0
LINE
  5
2C9
330
A3
100
AcDbEntity
  8
0 - Systemaufbauten
  6
Continuous
 62
     7
370
     0
100
AcDbLine
 10
1082.107969254603
 20
1251.938920221159
 30
0.0
 11
1082.107969254603
 21
937.6516624198003
 31
0.0
  0
LINE
  5
2CA
330
A3
100
AcDbEntity
  8
0 - Systemaufbauten
  6
Continuous
 62
     7
370
     0
100
AcDbLine
 10
1087.107969254604
 20
937.6516624198003
 30
0.0
 11
1087.107969254604
 21
1251.938920221159
 31
0.0
  0
LWPOLYLINE
  5
2CB
330
A3
100
AcDbEntity
  8
0 - Systemaufbauten
  6
Continuous
 62
     7
370
     0
100
AcDbPolyline
 90
        3
 70
     0
 43
0.0
 10
1034.607962268063
 20
1256.938920221159
 10
1034.607962268063
 20
1251.938920221159
 10
1082.107969254603
 20
1251.938920221159
  0
LWPOLYLINE
  5
2CC
330
A3
100
AcDbEntity
  8
0 - Systemaufbauten
  6
Continuous
 62
     7
370
     0
100
AcDbPolyline
 90
        3
 70
     0
 43
0.0
 10
1087.107969254604
 20
1251.938920221159
 10
1134.607976241144
 20
1251.938920221159
 10
1134.607976241144
 20
1256.938920221159
  0
LINE
  5
2CD
330
A3
100
AcDbEntity
  8
0 - Systemaufbauten
  6
Continuous
 62
     7
370
     0
100
AcDbLine
 10
1049.607962268065
 20
1266.93892022116
 30
0.0
 11
334.6079692546048
 21
1266.93892022116
 31
0.0
  0
LINE
  5
2CE
330
A3
100
AcDbEntity
  8
0 - Systemaufbauten
  6
Continuous
 62
     7
370
     0
100
AcDbLine
 10
1059.607962268064
 20
1256.938920221159
 30
0.0
 11
334.6079692546048
 21
1256.938920221159
 31
0.0
  0
LINE
  5
2CF
330
A3
100
AcDbEntity
  8
0 - Systemaufbauten
  6
Continuous
 62
     7
370
     0
100
AcDbLine
 10
1119.607975137149
 20
1266.93892022116
 30
0.0
 11
1834.607969254602
 21
1266.93892022116
 31
0.0
  0
LINE
  5
2D0
330
A3
100
AcDbEntity
  8
0 - Systemaufbauten
  6
Continuous
 62
     7
370
     0
100
AcDbLine
 10
1109.60797513715
 20
1256.938920221159
 30
0.0
 11
1834.607969254602
 21
1256.938920221159
 31
0.0
  0
LINE
  5
2D1
330
A3
100
AcDbEntity
  8
0 - Systemaufbauten
  6
Continuous
 62
     7
370
     0
100
AcDbLine
 10
1082.107969254603
 20
1251.938920221159
 30
0.0
 11
1071.744336700873
 21
1262.30255829928
 31
0.0
  0
LINE
  5
2D2
330
A3
100
AcDbEntity
  8
0 - Systemaufbauten
  6
Continuous
 62
     7
370
     0
100
AcDbLine
 10
1071.744336700873
 20
1262.30255829928
 30
0.0
 11
1097.53491975764
 21
1262.30255829928
 31
0.0
  0
LINE
  5
2D3
330
A3
100
AcDbEntity
  8
0 - Systemaufbauten
  6
Continuous
 62
     7
370
     0
100
AcDbLine
 10
1087.107969254604
 20
1251.938920221159
 30
0.0
 11
1097.503263545179
 21
1262.334214511741
 31
0.0
  0
LINE
  5
2D4
330
A3
100
AcDbEntity
  8
0 - Systemaufbauten
  6
Continuous
 62
     7
370
     0
100
AcDbLine
 10
1069.607962268062
 20
1256.938920221159
 30
0.0
 11
1077.107971919879
 21
1256.938920221159
 31
0.0
  0
LINE
  5
2D5
330
A3
100
AcDbEntity
  8
0 - Systemaufbauten
  6
Continuous
 62
     7
370
     0
100
AcDbLine
 10
1092.107969254601
 20
1256.938920221159
 30
0.0
 11
1099.607972471876
 21
1256.938920221159
 31
0.0
  0
TEXT
  5
2D6
330
A3
100
AcDbEntity
  8
0 - Systemaufbauten
  6
Continuous
 62
     7
370
     0
100
AcDbText
 10
331.610664268745
 20
468.9840894161574
 30
0.0
 40
31.7785472869873
  1
(*1) Anforderung für Broof(t1),
 41
0.7222222222222222
  7
Style0
100
AcDbText
  0
TEXT
  5
2D7
330
A3
100
AcDbEntity
  8
0 - Systemaufbauten
  6
Continuous
 62
     7
370
     0
100
AcDbText
 10
331.610664268745
 20
414.3785530839776
 30
0.0
 40
31.7785472869873
  1
Glasvlies A2 120 g erforderlich
 41
0.7222222222222222
  7
Style0
100
AcDbText
  0
TEXT
  5
2D8
330
A3
100
AcDbEntity
  8
0 - Systemaufbauten
  6
Continuous
 62
     7
370
     0
100
AcDbText
 10
331.610664268745
 20
359.7730167517979
 30
0.0
 40
31.7785472869873
  1
(*2) Wärmedämmung entsprechend druckfest,
 41
0.7222222222222222
  7
Style0
100
AcDbText
  0
TEXT
  5
2D9
330
A3
100
AcDbEntity
  8
0 - Systemaufbauten
  6
Continuous
 62
     7
370
     0
100
AcDbText
 10
331.610664268745
 20
305.167480419618
 30
0.0
 40
31.7785472869873
  1
2- lagig lt. ÖNORM B 3691
 41
0.7222222222222222
  7
Style0
100
AcDbText
  0
TEXT
  5
2DA
330
A3
100
AcDbEntity
  8
0 - Systemaufbauten
  6
Continuous
 62
     7
370
     0
100
AcDbText
 10
334.6079692546048
 20
252.9318442435082
 30
0.0
 40
31.7785472869873
  1
(*3) Ohne vorhandene bauphysikalische
 41
0.7222222222222222
  7
Style0
100
AcDbText
  0
TEXT
  5
2DB
330
A3
100
AcDbEntity
  8
0 - Systemaufbauten
  6
Continuous
 62
     7
370
     0
100
AcDbText
 10
334.6079692546048
 20
198.3263079113284
 30
0.0
 40
31.7785472869873
  1
Berechnung, Dampfsperre >1000m sd-Wert
 41
0.7222222222222222
  7
Style0
100
AcDbText
  0
TEXT
  5
2DC
330
A3
100
AcDbEntity
  8
0 - Systemaufbauten
  6
Continuous
 62
     7
370
     0
100
AcDbText
 10
334.6079692546048
 20
143.7207715791485
 30
0.0
 40
31.7785472869873
  1
lt. ÖNORM B 3691 erforderlich
 41
0.7222222222222222
  7
Style0
100
AcDbText
  0
TEXT
  5
2DD
330
A3
100
AcDbEntity
  8
0 - Systemaufbauten
  6
Continuous
 62
     7
370
     0
100
AcDbText
 10
1592.385638110599
 20
421.7742087704363
 30
0.0
 40
31.7785472869873
  1
Warmdach - Stahltrapezblech durchdringungsfrei
 41
0.7222222222222222
  7
Style0
100
AcDbText
  0
TEXT
  5
2DE
330
A3
100
AcDbEntity
  8
0 - Systemaufbauten
  6
Continuous
 62
     7
370
     0
100
AcDbText
 10
1592.385638110599
 20
367.1686724382565
 30
0.0
 40
31.7785472869873
  1
mechanisch befestigt
 41
0.7222222222222222
  7
Style0
100
AcDbText
  0
LINE
  5
2DF
330
A3
100
AcDbEntity
  8
0 - Systemaufbauten
  6
Continuous
 62
     7
370
     0
100
AcDbLine
 10
1634.607969254602
 20
1067.372113045393
 30
0.0
 11
1634.607969254602
 21
751.9389202211593
 31
0.0
  0
IMAGE
  5
2E0
330
A3
100
AcDbEntity
  8
00_Allgemein - Systemaufbauten
  6
Continuous
 62
     7
370
     0
 92
      140
310
8C00000001000000840000000600000005000000488AD1AF9333A340D452397F65F865400000000000000000488AD18F64BEA640D452397F65F865400000000000000000488AD18F64BEA6406AA99CCF357374400000000000000000488AD1AF9333A3406AA99CCF357374400000000000000000488AD1AF9333A340D45239
310
7F65F865400000000000000000
100
AcDbRasterImage
 90
        0
 10
2457.788450763826
 20
175.762389766655
 30
0.0
 11
0.2876954054469384
 21
0.0
 31
0.0
 12
0.0
 22
0.2873591037583758
 32
0.0
 13
1576.0
 23
527.0
340
A2
 70
     3
280
     0
281
    50
282
    50
283
     0
360
0
 71
     1
 91
        2
 14
-0.5
 24
-0.5
 14
1575.5
 24
526.5
  0
HATCH
  5
2E1
330
A3
100
AcDbEntity
  8
0 - Systemaufbauten
  6
Continuous
 62
     7
370
     0
100
AcDbHatch
 10
0.0
 20
0.0
 30
0.0
210
0.0
220
0.0
230
1.0
  2
SOLID
 70
     1
 71
     0
 91
        1
 92
        0
 93
        4
 72
     1
 10
334.6079692546048
 20
961.9389202211595
 11
434.6079692546048
 21
961.9389202211595
 72
     1
 10
434.6079692546048
 20
961.9389202211595
 11
434.6079692546048
 21
951.9389202211593
 72
     1
 10
434.6079692546048
 20
951.9389202211593
 11
334.6079692546048
 21
951.9389202211593
 72
     1
 10
334.6079692546048
 20
951.9389202211593
 11
334.6079692546048
 21
961.9389202211595
 97
        0
 75
     0
 76
     1
 98
        0
  0
ENDBLK
  5
2E4
330
A3
100
AcDbEntity
  8
0
100
AcDbBlockEnd
  0
ENDSEC
  0
SECTION
  2
ENTITIES
  0
IMAGE
  5
9F
330
1F
100
AcDbEntity
  8
00_Allgemein - Systemaufbauten
  6
Continuous
 62
     7
370
     0
 92
      140
310
8C00000001000000840000000600000005000000488AD1AF9333A340D452397F65F865400000000000000000488AD18F64BEA640D452397F65F865400000000000000000488AD18F64BEA6406AA99CCF357374400000000000000000488AD1AF9333A3406AA99CCF357374400000000000000000488AD1AF9333A340D45239
310
7F65F865400000000000000000
100
AcDbRasterImage
 90
        0
 10
2457.788450763826
 20
175.762389766655
 30
0.0
 11
0.2876954054469384
 21
0.0
 31
0.0
 12
0.0
 22
0.2873591037583758
 32
0.0
 13
1576.0
 23
527.0
340
9E
 70
     3
280
     0
281
    50
282
    50
283
     0
360
A0
 71
     1
 91
        2
 14
-0.5
 24
-0.5
 14
1575.5
 24
526.5
  0
INSERT
  5
2E2
330
1F
100
AcDbEntity
  8
00_Allgemein - Systemaufbauten
  6
Continuous
 62
     7
370
     0
100
AcDbBlockReference
  2
dokument systemaufbauten.asc(id_1)
 10
0.0
 20
0.0
 30
0.0
  0
ENDSEC
  0
SECTION
  2
OBJECTS
  0
DICTIONARY
  5
C
330
0
100
AcDbDictionary
281
     1
  3
ACAD_DETAILVIEWSTYLE
350
32A
  3
ACAD_GROUP
350
D
  3
ACAD_IMAGE_DICT
350
9D
  3
ACAD_LAYOUT
350
1A
  3
ACAD_MATERIAL
350
43
  3
ACAD_MLEADERSTYLE
350
6B
  3
ACAD_MLINESTYLE
350
17
  3
ACAD_PLOTSETTINGS
350
19
  3
ACAD_PLOTSTYLENAME
350
E
  3
ACAD_SCALELIST
350
47
  3
ACAD_SECTIONVIEWSTYLE
350
32B
  3
ACAD_TABLESTYLE
350
69
  3
ACAD_VISUALSTYLE
350
2A
  3
ACDB_RECOMPOSE_DATA
350
327
  3
AcDbVariableDictionary
350
2E7
  0
DICTIONARY
  5
2E5
330
8
100
AcDbDictionary
280
     1
281
     1
  3
ACAD_XREC_ROUNDTRIP
360
2E6
  0
IMAGEDEF_REACTOR
  5
A0
330
9F
100
AcDbRasterImageDefReactor
 90
        2
330
9F
  0
DICTIONARY
  5
32A
102
{ACAD_REACTORS
330
C
102
}
330
C
100
AcDbDictionary
281
     1
  0
DICTIONARY
  5
D
102
{ACAD_REACTORS
330
C
102
}
330
C
100
AcDbDictionary
281
     1
  0
DICTIONARY
  5
9D
102
{ACAD_REACTORS
330
C
102
}
330
C
100
AcDbDictionary
281
     1
  3
Image0
350
9E
  3
Image1
350
A2
  0
DICTIONARY
  5
1A
102
{ACAD_REACTORS
330
C
102
}
330
C
100
AcDbDictionary
281
     1
  3
Layout1
350
1E
  3
Layout2
350
26
  3
Model
350
22
  0
DICTIONARY
  5
43
102
{ACAD_REACTORS
330
C
102
}
330
C
100
AcDbDictionary
281
     1
  3
ByBlock
350
45
  3
ByLayer
350
44
  3
Global
350
46
  0
DICTIONARY
  5
6B
102
{ACAD_REACTORS
330
C
102
}
330
C
100
AcDbDictionary
281
     1
  3
Standard
350
6C
  0
DICTIONARY
  5
17
102
{ACAD_REACTORS
330
C
102
}
330
C
100
AcDbDictionary
281
     1
  3
Standard
350
18
  0
DICTIONARY
  5
19
102
{ACAD_REACTORS
330
C
102
}
330
C
100
AcDbDictionary
281
     1
  0
ACDBDICTIONARYWDFLT
  5
E
102
{ACAD_REACTORS
330
C
102
}
330
C
100
AcDbDictionary
281
     1
  3
Normal
350
F
100
AcDbDictionaryWithDefault
340
F
  0
DICTIONARY
  5
47
102
{ACAD_REACTORS
330
C
102
}
330
C
100
AcDbDictionary
281
     1
  3
A0
350
48
  3
A1
350
49
  3
A2
350
4A
  3
A3
350
4B
  3
A4
350
4C
  3
A5
350
4D
  3
A6
350
4E
  3
A7
350
4F
  3
A8
350
50
  3
A9
350
51
  3
B0
350
52
  3
B1
350
53
  3
B2
350
54
  3
B3
350
55
  3
B4
350
56
  3
B5
350
57
  3
B6
350
58
  3
B7
350
59
  3
B8
350
5A
  3
B9
350
5B
  3
C0
350
5C
  3
C1
350
5D
  3
C2
350
5E
  3
C3
350
5F
  3
C4
350
60
  3
C5
350
61
  3
C6
350
62
  3
C7
350
63
  3
C8
350
64
  3
C9
350
65
  3
D0
350
66
  3
D1
350
67
  3
D2
350
68
  0
DICTIONARY
  5
32B
102
{ACAD_REACTORS
330
C
102
}
330
C
100
AcDbDictionary
281
     1
  0
DICTIONARY
  5
69
102
{ACAD_REACTORS
330
C
102
}
330
C
100
AcDbDictionary
281
     1
  3
Standard
350
6A
  0
DICTIONARY
  5
2A
102
{ACAD_REACTORS
330
C
102
}
330
C
100
AcDbDictionary
281
     1
  3
2dWireframe
350
2F
  3
Basic
350
32
  3
Brighten
350
36
  3
ColorChange
350
3A
  3
Conceptual
350
34
  3
Dim
350
35
  3
EdgeColorOff
350
3D
  3
Facepattern
350
39
  3
Flat
350
2B
  3
FlatWithEdges
350
2C
  3
Gouraud
350
2D
  3
GouraudWithEdges
350
2E
  3
Hidden
350
31
  3
JitterOff
350
3B
  3
Linepattern
350
38
  3
OverhangOff
350
3C
  3
Realistic
350
33
  3
Shaded
350
42
  3
Shaded with edges
350
41
  3
Shades of Gray
350
3E
  3
Sketchy
350
3F
  3
Thicken
350
37
  3
Wireframe
350
30
  3
X-Ray
350
40
  0
XRECORD
  5
327
102
{ACAD_REACTORS
330
C
102
}
330
C
100
AcDbXrecord
280
     1
 90
        1
330
6A
  0
DICTIONARY
  5
2E7
102
{ACAD_REACTORS
330
C
102
}
330
C
100
AcDbDictionary
281
     1
  3
CANNOSCALE
350
2E8
  3
CMLEADERSTYLE
350
329
  3
CTABLESTYLE
350
328
  3
MSLTSCALE
350
2E9
  3
XCLIPFRAME
350
2EA
  0
XRECORD
  5
2E6
102
{ACAD_REACTORS
330
2E5
102
}
330
2E5
100
AcDbXrecord
280
     1
102
VTR_0.000_0.000_1.000_1.000_VISUALSTYLE
340
2F
102
VTR_0.000_0.000_1.000_1.000_GRIDDISPLAY
 70
     3
102
VTR_0.000_0.000_1.000_1.000_GRIDMAJOR
 70
     5
102
VTR_0.000_0.000_1.000_1.000_DEFAULTLIGHTING
280
     1
102
VTR_0.000_0.000_1.000_1.000_DEFAULTLIGHTINGTYPE
 70
     1
102
VTR_0.000_0.000_1.000_1.000_BRIGHTNESS
141
0.0
102
VTR_0.000_0.000_1.000_1.000_CONTRAST
142
0.0
  0
IMAGEDEF
  5
9E
102
{ACAD_REACTORS
330
9D
330
A0
102
}
330
9D
100
AcDbRasterImageDef
 90
        0
  1
__ID1_Coverit+www.jpg
 10
1576.0
 20
527.0
 11
0.0006345177664974619
 21
0.0006345177664974619
280
     1
281
     1
  0
IMAGEDEF
  5
A2
102
{ACAD_REACTORS
330
9D
102
}
330
9D
100
AcDbRasterImageDef
 90
        0
  1
__ID1_Coverit+www.jpg
 10
1576.0
 20
527.0
 11
0.0006345177664974619
 21
0.0006345177664974619
280
     1
281
     1
  0
LAYOUT
  5
1E
102
{ACAD_REACTORS
330
1A
102
}
330
1A
100
AcDbPlotSettings
  1

  2
none_device
  4

  6

 40
0.0
 41
0.0
 42
0.0
 43
0.0
 44
0.0
 45
0.0
 46
0.0
 47
0.0
 48
0.0
 49
0.0
140
0.0
141
0.0
142
1.0
143
1.0
 70
   688
 72
     0
 73
     0
 74
     5
  7

 75
    16
 76
     0
 77
     2
 78
   300
147
1.0
148
0.0
149
0.0
100
AcDbLayout
  1
Layout1
 70
     1
 71
     1
 10
0.0
 20
0.0
 11
12.0
 21
9.0
 12
0.0
 22
0.0
 32
0.0
 14
1.000000000000000E+20
 24
1.000000000000000E+20
 34
1.000000000000000E+20
 15
-1.000000000000000E+20
 25
-1.000000000000000E+20
 35
-1.000000000000000E+20
146
0.0
 13
0.0
 23
0.0
 33
0.0
 16
1.0
 26
0.0
 36
0.0
 17
0.0
 27
1.0
 37
0.0
 76
     0
330
1B
  0
LAYOUT
  5
26
102
{ACAD_REACTORS
330
1A
102
}
330
1A
100
AcDbPlotSettings
  1

  2
none_device
  4

  6

 40
0.0
 41
0.0
 42
0.0
 43
0.0
 44
0.0
 45
0.0
 46
0.0
 47
0.0
 48
0.0
 49
0.0
140
0.0
141
0.0
142
1.0
143
1.0
 70
   688
 72
     0
 73
     0
 74
     5
  7

 75
    16
 76
     0
 77
     2
 78
   300
147
1.0
148
0.0
149
0.0
100
AcDbLayout
  1
Layout2
 70
     1
 71
     2
 10
0.0
 20
0.0
 11
0.0
 21
0.0
 12
0.0
 22
0.0
 32
0.0
 14
0.0
 24
0.0
 34
0.0
 15
0.0
 25
0.0
 35
0.0
146
0.0
 13
0.0
 23
0.0
 33
0.0
 16
1.0
 26
0.0
 36
0.0
 17
0.0
 27
1.0
 37
0.0
 76
     0
330
23
  0
LAYOUT
  5
22
102
{ACAD_REACTORS
330
1A
102
}
330
1A
100
AcDbPlotSettings
  1

  2
none_device
  4
Letter_(8.50_x_11.00_Inches)
  6

 40
6.35
 41
6.35
 42
6.35000508
 43
6.35000508
 44
215.9
 45
279.4
 46
0.0
 47
0.0
 48
0.0
 49
0.0
140
0.0
141
0.0
142
1.0
143
1.0
 70
  1712
 72
     0
 73
     0
 74
     0
  7

 75
     0
 76
     0
 77
     2
 78
   300
147
1.0
148
0.0
149
0.0
100
AcDbLayout
  1
Model
 70
     1
 71
     0
 10
0.0
 20
0.0
 11
12.0
 21
9.0
 12
0.0
 22
0.0
 32
0.0
 14
2.091549295774598
 24
1.481514084507069
 34
0.0
 15
2972.091549295775
 25
2101.481514084507
 35
0.0
146
0.0
 13
0.0
 23
0.0
 33
0.0
 16
1.0
 26
0.0
 36
0.0
 17
0.0
 27
1.0
 37
0.0
 76
     0
330
1F
331
29
  0
MATERIAL
  5
45
102
{ACAD_REACTORS
330
43
102
}
102
{ACAD_XDICTIONARY
360
31D
102
}
330
43
100
AcDbMaterial
  1
ByBlock
  0
MATERIAL
  5
44
102
{ACAD_REACTORS
330
43
102
}
102
{ACAD_XDICTIONARY
360
31B
102
}
330
43
100
AcDbMaterial
  1
ByLayer
  0
MATERIAL
  5
46
102
{ACAD_REACTORS
330
43
102
}
102
{ACAD_XDICTIONARY
360
31F
102
}
330
43
100
AcDbMaterial
  1
Global
  0
MLEADERSTYLE
  5
6C
102
{ACAD_REACTORS
330
6B
102
}
102
{ACAD_XDICTIONARY
360
325
102
}
330
6B
100
AcDbMLeaderStyle
170
     2
171
     1
172
     0
 90
        2
 40
0.0
 41
0.0
173
     1
 91
-1056964608
340
14
 92
       -2
290
     1
 42
0.09
291
     1
 43
0.36
  3
Standard
341
0
 44
0.18
300

342
11
174
     1
178
     6
175
     1
176
     0
 93
-1056964608
 45
0.18
292
     0
297
     0
 46
0.18
343
0
 94
-1056964608
 47
1.0
 49
1.0
140
1.0
293
     1
141
0.0
294
     1
177
     0
142
1.0
295
     0
296
     0
143
0.125
1001
ACAD_MLEADERVER
1070
     2
  0
MLINESTYLE
  5
18
102
{ACAD_REACTORS
330
17
102
}
330
17
100
AcDbMlineStyle
  2
Standard
 70
     0
  3

 62
   256
 51
90.0
 52
90.0
 71
     2
 49
0.5
 62
   256
  6
BYLAYER
 49
-0.5
 62
   256
  6
BYLAYER
  0
ACDBPLACEHOLDER
  5
F
102
{ACAD_REACTORS
330
E
102
}
330
E
  0
SCALE
  5
48
102
{ACAD_REACTORS
330
47
102
}
330
47
100
AcDbScale
 70
     0
300
1:1
140
1.0
141
1.0
290
     1
  0
SCALE
  5
49
102
{ACAD_REACTORS
330
47
102
}
330
47
100
AcDbScale
 70
     0
300
1:2
140
1.0
141
2.0
290
     0
  0
SCALE
  5
4A
102
{ACAD_REACTORS
330
47
102
}
330
47
100
AcDbScale
 70
     0
300
1:4
140
1.0
141
4.0
290
     0
  0
SCALE
  5
4B
102
{ACAD_REACTORS
330
47
102
}
330
47
100
AcDbScale
 70
     0
300
1:5
140
1.0
141
5.0
290
     0
  0
SCALE
  5
4C
102
{ACAD_REACTORS
330
47
102
}
330
47
100
AcDbScale
 70
     0
300
1:8
140
1.0
141
8.0
290
     0
  0
SCALE
  5
4D
102
{ACAD_REACTORS
330
47
102
}
330
47
100
AcDbScale
 70
     0
300
1:10
140
1.0
141
10.0
290
     0
  0
SCALE
  5
4E
102
{ACAD_REACTORS
330
47
102
}
330
47
100
AcDbScale
 70
     0
300
1:16
140
1.0
141
16.0
290
     0
  0
SCALE
  5
4F
102
{ACAD_REACTORS
330
47
102
}
330
47
100
AcDbScale
 70
     0
300
1:20
140
1.0
141
20.0
290
     0
  0
SCALE
  5
50
102
{ACAD_REACTORS
330
47
102
}
330
47
100
AcDbScale
 70
     0
300
1:30
140
1.0
141
30.0
290
     0
  0
SCALE
  5
51
102
{ACAD_REACTORS
330
47
102
}
330
47
100
AcDbScale
 70
     0
300
1:40
140
1.0
141
40.0
290
     0
  0
SCALE
  5
52
102
{ACAD_REACTORS
330
47
102
}
330
47
100
AcDbScale
 70
     0
300
1:50
140
1.0
141
50.0
290
     0
  0
SCALE
  5
53
102
{ACAD_REACTORS
330
47
102
}
330
47
100
AcDbScale
 70
     0
300
1:100
140
1.0
141
100.0
290
     0
  0
SCALE
  5
54
102
{ACAD_REACTORS
330
47
102
}
330
47
100
AcDbScale
 70
     0
300
2:1
140
2.0
141
1.0
290
     0
  0
SCALE
  5
55
102
{ACAD_REACTORS
330
47
102
}
330
47
100
AcDbScale
 70
     0
300
4:1
140
4.0
141
1.0
290
     0
  0
SCALE
  5
56
102
{ACAD_REACTORS
330
47
102
}
330
47
100
AcDbScale
 70
     0
300
8:1
140
8.0
141
1.0
290
     0
  0
SCALE
  5
57
102
{ACAD_REACTORS
330
47
102
}
330
47
100
AcDbScale
 70
     0
300
10:1
140
10.0
141
1.0
290
     0
  0
SCALE
  5
58
102
{ACAD_REACTORS
330
47
102
}
330
47
100
AcDbScale
 70
     0
300
100:1
140
100.0
141
1.0
290
     0
  0
SCALE
  5
59
102
{ACAD_REACTORS
330
47
102
}
330
47
100
AcDbScale
 70
     0
300
1/128" = 1'-0"
140
0.0078125
141
12.0
290
     0
  0
SCALE
  5
5A
102
{ACAD_REACTORS
330
47
102
}
330
47
100
AcDbScale
 70
     0
300
1/64" = 1'-0"
140
0.015625
141
12.0
290
     0
  0
SCALE
  5
5B
102
{ACAD_REACTORS
330
47
102
}
330
47
100
AcDbScale
 70
     0
300
1/32" = 1'-0"
140
0.03125
141
12.0
290
     0
  0
SCALE
  5
5C
102
{ACAD_REACTORS
330
47
102
}
330
47
100
AcDbScale
 70
     0
300
1/16" = 1'-0"
140
0.0625
141
12.0
290
     0
  0
SCALE
  5
5D
102
{ACAD_REACTORS
330
47
102
}
330
47
100
AcDbScale
 70
     0
300
3/32" = 1'-0"
140
0.09375
141
12.0
290
     0
  0
SCALE
  5
5E
102
{ACAD_REACTORS
330
47
102
}
330
47
100
AcDbScale
 70
     0
300
1/8" = 1'-0"
140
0.125
141
12.0
290
     0
  0
SCALE
  5
5F
102
{ACAD_REACTORS
330
47
102
}
330
47
100
AcDbScale
 70
     0
300
3/16" = 1'-0"
140
0.1875
141
12.0
290
     0
  0
SCALE
  5
60
102
{ACAD_REACTORS
330
47
102
}
330
47
100
AcDbScale
 70
     0
300
1/4" = 1'-0"
140
0.25
141
12.0
290
     0
  0
SCALE
  5
61
102
{ACAD_REACTORS
330
47
102
}
330
47
100
AcDbScale
 70
     0
300
3/8" = 1'-0"
140
0.375
141
12.0
290
     0
  0
SCALE
  5
62
102
{ACAD_REACTORS
330
47
102
}
330
47
100
AcDbScale
 70
     0
300
1/2" = 1'-0"
140
0.5
141
12.0
290
     0
  0
SCALE
  5
63
102
{ACAD_REACTORS
330
47
102
}
330
47
100
AcDbScale
 70
     0
300
3/4" = 1'-0"
140
0.75
141
12.0
290
     0
  0
SCALE
  5
64
102
{ACAD_REACTORS
330
47
102
}
330
47
100
AcDbScale
 70
     0
300
1" = 1'-0"
140
1.0
141
12.0
290
     0
  0
SCALE
  5
65
102
{ACAD_REACTORS
330
47
102
}
330
47
100
AcDbScale
 70
     0
300
1-1/2" = 1'-0"
140
1.5
141
12.0
290
     0
  0
SCALE
  5
66
102
{ACAD_REACTORS
330
47
102
}
330
47
100
AcDbScale
 70
     0
300
3" = 1'-0"
140
3.0
141
12.0
290
     0
  0
SCALE
  5
67
102
{ACAD_REACTORS
330
47
102
}
330
47
100
AcDbScale
 70
     0
300
6" = 1'-0"
140
6.0
141
12.0
290
     0
  0
SCALE
  5
68
102
{ACAD_REACTORS
330
47
102
}
330
47
100
AcDbScale
 70
     0
300
1'-0" = 1'-0"
140
12.0
141
12.0
290
     0
  0
TABLESTYLE
  5
6A
102
{ACAD_REACTORS
330
69
102
}
102
{ACAD_XDICTIONARY
360
321
102
}
330
69
100
AcDbTableStyle
  3
Standard
 70
     0
 71
     0
 40
0.06
 41
0.06
280
     0
281
     0
  7
Standard
140
0.18
170
     2
 62
     0
 63
   257
283
     0
274
    -2
284
     1
 64
     0
275
    -2
285
     1
 65
     0
276
    -2
286
     1
 66
     0
277
    -2
287
     1
 67
     0
278
    -2
288
     1
 68
     0
279
    -2
289
     1
 69
     0
  7
Standard
140
0.25
170
     5
 62
     0
 63
   257
283
     0
274
    -2
284
     1
 64
     0
275
    -2
285
     1
 65
     0
276
    -2
286
     1
 66
     0
277
    -2
287
     1
 67
     0
278
    -2
288
     1
 68
     0
279
    -2
289
     1
 69
     0
  7
Standard
140
0.18
170
     5
 62
     0
 63
   257
283
     0
274
    -2
284
     1
 64
     0
275
    -2
285
     1
 65
     0
276
    -2
286
     1
 66
     0
277
    -2
287
     1
 67
     0
278
    -2
288
     1
 68
     0
279
    -2
289
     1
 69
     0
  0
VISUALSTYLE
  5
2F
102
{ACAD_REACTORS
330
2A
102
}
102
{ACAD_XDICTIONARY
360
2F3
102
}
330
2A
100
AcDbVisualStyle
  2
2dWireframe
 70
     4
 71
     0
 72
     2
 73
     0
 90
        0
 40
0.6
 41
30.0
 62
     5
 63
     7
421
 16777215
 74
     1
 91
        4
 64
     7
 65
   257
 75
     1
175
     1
 42
1.0
 92
        0
 66
   257
 43
1.0
 76
     1
 77
     6
 78
     2
 67
     7
 79
     5
170
     0
171
     0
290
     0
174
     0
 93
        1
 44
0.0
173
     0
291
     0
 45
0.0
1001
ACAD
1000
AcDbSavedByObjectVersion
1070
     0
  0
VISUALSTYLE
  5
32
102
{ACAD_REACTORS
330
2A
102
}
102
{ACAD_XDICTIONARY
360
2F9
102
}
330
2A
100
AcDbVisualStyle
  2
Basic
 70
     7
 71
     1
 72
     0
 73
     1
 90
        0
 40
0.6
 41
30.0
 62
     5
 63
     7
421
 16777215
 74
     0
 91
        4
 64
     7
 65
   257
 75
     1
175
     1
 42
1.0
 92
        8
 66
     7
 43
1.0
 76
     1
 77
     6
 78
     2
 67
     7
 79
     5
170
     0
171
     0
290
     0
174
     0
 93
        1
 44
0.0
173
     0
291
     1
 45
0.0
1001
ACAD
1000
AcDbSavedByObjectVersion
1070
     0
  0
VISUALSTYLE
  5
36
102
{ACAD_REACTORS
330
2A
102
}
102
{ACAD_XDICTIONARY
360
301
102
}
330
2A
100
AcDbVisualStyle
  2
Brighten
 70
    12
 71
     2
 72
     2
 73
     0
 90
        0
 40
0.6
 41
30.0
 62
     5
 63
     7
421
 16777215
 74
     1
 91
        4
 64
     7
 65
   257
 75
     1
175
     1
 42
1.0
 92
        8
 66
     7
 43
1.0
 76
     1
 77
     6
 78
     2
 67
     7
 79
     5
170
     0
171
     0
290
     0
174
     0
 93
        1
 44
50.0
173
     0
291
     1
 45
0.0
1001
ACAD
1000
AcDbSavedByObjectVersion
1070
     0
  0
VISUALSTYLE
  5
3A
102
{ACAD_REACTORS
330
2A
102
}
102
{ACAD_XDICTIONARY
360
309
102
}
330
2A
100
AcDbVisualStyle
  2
ColorChange
 70
    16
 71
     2
 72
     2
 73
     3
 90
        0
 40
0.6
 41
30.0
 62
     5
 63
     8
421
  8421504
 74
     1
 91
        4
 64
     7
 65
   257
 75
     1
175
     1
 42
1.0
 92
        8
 66
     8
424
  8421504
 43
1.0
 76
     1
 77
     6
 78
     2
 67
     7
 79
     5
170
     0
171
     0
290
     0
174
     0
 93
        1
 44
0.0
173
     0
291
     1
 45
0.0
1001
ACAD
1000
AcDbSavedByObjectVersion
1070
     0
  0
VISUALSTYLE
  5
34
102
{ACAD_REACTORS
330
2A
102
}
102
{ACAD_XDICTIONARY
360
2FD
102
}
330
2A
100
AcDbVisualStyle
  2
Conceptual
 70
     9
 71
     3
 72
     2
 73
     0
 90
        0
 40
0.6
 41
30.0
 62
     5
 63
     7
421
 16777215
 74
     2
 91
        2
 64
     7
 65
   257
 75
     1
175
     1
 42
179.0
 92
        8
 66
     7
 43
1.0
 76
     1
 77
     6
 78
     2
 67
     7
 79
     3
170
     0
171
     0
290
     0
174
     0
 93
        1
 44
0.0
173
     0
291
     0
 45
0.0
1001
ACAD
1000
AcDbSavedByObjectVersion
1070
     0
  0
VISUALSTYLE
  5
35
102
{ACAD_REACTORS
330
2A
102
}
102
{ACAD_XDICTIONARY
360
2FF
102
}
330
2A
100
AcDbVisualStyle
  2
Dim
 70
    11
 71
     2
 72
     2
 73
     0
 90
        0
 40
0.6
 41
30.0
 62
     5
 63
     7
421
 16777215
 74
     1
 91
        4
 64
     7
 65
   257
 75
     1
175
     1
 42
1.0
 92
        8
 66
     7
 43
1.0
 76
     1
 77
     6
 78
     2
 67
     7
 79
     5
170
     0
171
     0
290
     0
174
     0
 93
        1
 44
-50.0
173
     0
291
     1
 45
0.0
1001
ACAD
1000
AcDbSavedByObjectVersion
1070
     0
  0
VISUALSTYLE
  5
3D
102
{ACAD_REACTORS
330
2A
102
}
102
{ACAD_XDICTIONARY
360
30F
102
}
330
2A
100
AcDbVisualStyle
  2
EdgeColorOff
 70
    22
 71
     2
 72
     2
 73
     0
 90
        0
 40
0.6
 41
30.0
 62
     5
 63
     7
421
 16777215
 74
     1
 91
        4
 64
     7
 65
   257
 75
     1
175
     1
 42
1.0
 92
        8
 66
     7
 43
1.0
 76
     1
 77
     6
 78
     2
 67
     7
 79
     5
170
     0
171
     0
290
     0
174
     0
 93
        1
 44
0.0
173
     0
291
     1
 45
0.0
1001
ACAD
1000
AcDbSavedByObjectVersion
1070
     0
  0
VISUALSTYLE
  5
39
102
{ACAD_REACTORS
330
2A
102
}
102
{ACAD_XDICTIONARY
360
307
102
}
330
2A
100
AcDbVisualStyle
  2
Facepattern
 70
    15
 71
     2
 72
     2
 73
     0
 90
        0
 40
0.6
 41
30.0
 62
     5
 63
     7
421
 16777215
 74
     1
 91
        4
 64
     7
 65
   257
 75
     1
175
     1
 42
1.0
 92
        8
 66
     7
 43
1.0
 76
     1
 77
     6
 78
     2
 67
     7
 79
     5
170
     0
171
     0
290
     0
174
     0
 93
        1
 44
0.0
173
     0
291
     1
 45
0.0
1001
ACAD
1000
AcDbSavedByObjectVersion
1070
     0
  0
VISUALSTYLE
  5
2B
102
{ACAD_REACTORS
330
2A
102
}
102
{ACAD_XDICTIONARY
360
2EB
102
}
330
2A
100
AcDbVisualStyle
  2
Flat
 70
     0
 71
     2
 72
     1
 73
     1
 90
        2
 40
0.6
 41
30.0
 62
     5
 63
     7
421
 16777215
 74
     0
 91
        0
 64
     7
 65
   257
 75
     1
175
     1
 42
1.0
 92
        8
 66
     7
 43
1.0
 76
     1
 77
     6
 78
     2
 67
     7
 79
     5
170
     0
171
     0
290
     0
174
     0
 93
       13
 44
0.0
173
     0
291
     1
 45
0.0
1001
ACAD
1000
AcDbSavedByObjectVersion
1070
     0
  0
VISUALSTYLE
  5
2C
102
{ACAD_REACTORS
330
2A
102
}
102
{ACAD_XDICTIONARY
360
2ED
102
}
330
2A
100
AcDbVisualStyle
  2
FlatWithEdges
 70
     1
 71
     2
 72
     1
 73
     1
 90
        2
 40
0.6
 41
30.0
 62
     5
 63
     7
421
 16777215
 74
     1
 91
        0
 64
     7
 65
   257
 75
     1
175
     1
 42
1.0
 92
        0
 66
   257
 43
1.0
 76
     1
 77
     6
 78
     2
 67
     7
 79
     5
170
     0
171
     0
290
     0
174
     0
 93
       13
 44
0.0
173
     0
291
     1
 45
0.0
1001
ACAD
1000
AcDbSavedByObjectVersion
1070
     0
  0
VISUALSTYLE
  5
2D
102
{ACAD_REACTORS
330
2A
102
}
102
{ACAD_XDICTIONARY
360
2EF
102
}
330
2A
100
AcDbVisualStyle
  2
Gouraud
 70
     2
 71
     2
 72
     2
 73
     1
 90
        2
 40
0.6
 41
30.0
 62
     5
 63
     7
421
 16777215
 74
     0
 91
        0
 64
     7
 65
   257
 75
     1
175
     1
 42
1.0
 92
        0
 66
     7
 43
1.0
 76
     1
 77
     6
 78
     2
 67
     7
 79
     5
170
     0
171
     0
290
     0
174
     0
 93
       13
 44
0.0
173
     0
291
     1
 45
0.0
1001
ACAD
1000
AcDbSavedByObjectVersion
1070
     0
  0
VISUALSTYLE
  5
2E
102
{ACAD_REACTORS
330
2A
102
}
102
{ACAD_XDICTIONARY
360
2F1
102
}
330
2A
100
AcDbVisualStyle
  2
GouraudWithEdges
 70
     3
 71
     2
 72
     2
 73
     1
 90
        2
 40
0.6
 41
30.0
 62
     5
 63
     7
421
 16777215
 74
     1
 91
        0
 64
     7
 65
   257
 75
     1
175
     1
 42
1.0
 92
        0
 66
   257
 43
1.0
 76
     1
 77
     6
 78
     2
 67
     7
 79
     5
170
     0
171
     0
290
     0
174
     0
 93
       13
 44
0.0
173
     0
291
     1
 45
0.0
1001
ACAD
1000
AcDbSavedByObjectVersion
1070
     0
  0
VISUALSTYLE
  5
31
102
{ACAD_REACTORS
330
2A
102
}
102
{ACAD_XDICTIONARY
360
2F7
102
}
330
2A
100
AcDbVisualStyle
  2
Hidden
 70
     6
 71
     1
 72
     2
 73
     2
 90
        0
 40
0.6
 41
30.0
 62
     5
 63
     7
421
 16777215
 74
     2
 91
        2
 64
     7
 65
   257
 75
     2
175
     1
 42
40.0
 92
        0
 66
   257
 43
1.0
 76
     1
 77
     6
 78
     2
 67
     7
 79
     3
170
     0
171
     0
290
     0
174
     0
 93
        1
 44
0.0
173
     0
291
     0
 45
0.0
1001
ACAD
1000
AcDbSavedByObjectVersion
1070
     0
  0
VISUALSTYLE
  5
3B
102
{ACAD_REACTORS
330
2A
102
}
102
{ACAD_XDICTIONARY
360
30B
102
}
330
2A
100
AcDbVisualStyle
  2
JitterOff
 70
    20
 71
     2
 72
     2
 73
     0
 90
        0
 40
0.6
 41
30.0
 62
     5
 63
     7
421
 16777215
 74
     1
 91
        4
 64
     7
 65
   257
 75
     1
175
     1
 42
1.0
 92
       10
 66
     7
 43
1.0
 76
     1
 77
     6
 78
     2
 67
     7
 79
     5
170
     0
171
     0
290
     0
174
     0
 93
        1
 44
0.0
173
     0
291
     1
 45
0.0
1001
ACAD
1000
AcDbSavedByObjectVersion
1070
     0
  0
VISUALSTYLE
  5
38
102
{ACAD_REACTORS
330
2A
102
}
102
{ACAD_XDICTIONARY
360
305
102
}
330
2A
100
AcDbVisualStyle
  2
Linepattern
 70
    14
 71
     2
 72
     2
 73
     0
 90
        0
 40
0.6
 41
30.0
 62
     5
 63
     7
421
 16777215
 74
     1
 91
        4
 64
     7
 65
   257
 75
     7
175
     7
 42
1.0
 92
        8
 66
     7
 43
1.0
 76
     1
 77
     6
 78
     2
 67
     7
 79
     5
170
     0
171
     0
290
     0
174
     0
 93
        1
 44
0.0
173
     0
291
     1
 45
0.0
1001
ACAD
1000
AcDbSavedByObjectVersion
1070
     0
  0
VISUALSTYLE
  5
3C
102
{ACAD_REACTORS
330
2A
102
}
102
{ACAD_XDICTIONARY
360
30D
102
}
330
2A
100
AcDbVisualStyle
  2
OverhangOff
 70
    21
 71
     2
 72
     2
 73
     0
 90
        0
 40
0.6
 41
30.0
 62
     5
 63
     7
421
 16777215
 74
     1
 91
        4
 64
     7
 65
   257
 75
     1
175
     1
 42
1.0
 92
        9
 66
     7
 43
1.0
 76
     1
 77
     6
 78
     2
 67
     7
 79
     5
170
     0
171
     0
290
     0
174
     0
 93
        1
 44
0.0
173
     0
291
     1
 45
0.0
1001
ACAD
1000
AcDbSavedByObjectVersion
1070
     0
  0
VISUALSTYLE
  5
33
102
{ACAD_REACTORS
330
2A
102
}
102
{ACAD_XDICTIONARY
360
2FB
102
}
330
2A
100
AcDbVisualStyle
  2
Realistic
 70
     8
 71
     2
 72
     3
 73
     0
 90
        2
 40
0.6
 41
30.0
 62
     5
 63
     7
421
 16777215
 74
     0
 91
        0
 64
     7
 65
   257
 75
     1
175
     1
 42
1.0
 92
        8
 66
   257
 43
1.0
 76
     1
 77
     6
 78
     2
 67
     7
 79
     3
170
     0
171
     0
290
     0
174
     0
 93
       13
 44
0.0
173
     0
291
     0
 45
0.0
1001
ACAD
1000
AcDbSavedByObjectVersion
1070
     0
  0
VISUALSTYLE
  5
42
102
{ACAD_REACTORS
330
2A
102
}
102
{ACAD_XDICTIONARY
360
319
102
}
330
2A
100
AcDbVisualStyle
  2
Shaded
 70
    27
 71
     2
 72
     2
 73
     1
 90
        2
 40
0.6
 41
30.0
 62
     5
 63
     7
421
 16777215
 74
     0
 91
        4
 64
     7
 65
   257
 75
     1
175
     1
 42
1.0
 92
        8
 66
   257
 43
1.0
 76
     1
 77
     6
 78
     2
 67
     8
425
  7895160
 79
     3
170
     0
171
     0
290
     0
174
     0
 93
        5
 44
0.0
173
     0
291
     0
 45
0.0
1001
ACAD
1000
AcDbSavedByObjectVersion
1070
     0
  0
VISUALSTYLE
  5
41
102
{ACAD_REACTORS
330
2A
102
}
102
{ACAD_XDICTIONARY
360
317
102
}
330
2A
100
AcDbVisualStyle
  2
Shaded with edges
 70
    26
 71
     2
 72
     2
 73
     1
 90
        2
 40
0.6
 41
30.0
 62
     5
 63
     7
421
 16777215
 74
     1
 91
       10
 64
     7
 65
   257
 75
     2
175
     1
 42
1.0
 92
        8
 66
   257
 43
1.0
 76
     1
 77
     6
 78
     2
 67
     7
 79
     3
170
     0
171
     0
290
     0
174
     0
 93
        5
 44
0.0
173
     0
291
     0
 45
0.0
1001
ACAD
1000
AcDbSavedByObjectVersion
1070
     0
  0
VISUALSTYLE
  5
3E
102
{ACAD_REACTORS
330
2A
102
}
102
{ACAD_XDICTIONARY
360
311
102
}
330
2A
100
AcDbVisualStyle
  2
Shades of Gray
 70
    23
 71
     2
 72
     2
 73
     3
 90
        0
 40
0.6
 41
30.0
 62
     5
 63
     7
421
 16777215
 74
     2
 91
        2
 64
     7
 65
     7
 75
     1
175
     1
 42
40.0
 92
        8
 66
     7
 43
1.0
 76
     1
 77
     6
 78
     2
 67
     7
 79
     3
170
     0
171
     0
290
     0
174
     0
 93
        1
 44
0.0
173
     0
291
     0
 45
0.0
1001
ACAD
1000
AcDbSavedByObjectVersion
1070
     0
  0
VISUALSTYLE
  5
3F
102
{ACAD_REACTORS
330
2A
102
}
102
{ACAD_XDICTIONARY
360
313
102
}
330
2A
100
AcDbVisualStyle
  2
Sketchy
 70
    24
 71
     1
 72
     2
 73
     2
 90
        0
 40
0.6
 41
30.0
 62
     5
 63
     7
421
 16777215
 74
     2
 91
        2
 64
     7
 65
     7
 75
     1
175
     1
 42
40.0
 92
       11
 66
     7
 43
1.0
 76
     1
 77
     6
 78
     2
 67
     7
 79
     6
170
     0
171
     0
290
     0
174
     0
 93
        1
 44
0.0
173
     0
291
     0
 45
0.0
1001
ACAD
1000
AcDbSavedByObjectVersion
1070
     0
  0
VISUALSTYLE
  5
37
102
{ACAD_REACTORS
330
2A
102
}
102
{ACAD_XDICTIONARY
360
303
102
}
330
2A
100
AcDbVisualStyle
  2
Thicken
 70
    13
 71
     2
 72
     2
 73
     0
 90
        0
 40
0.6
 41
30.0
 62
     5
 63
     7
421
 16777215
 74
     1
 91
        4
 64
     7
 65
   257
 75
     1
175
     1
 42
1.0
 92
       12
 66
     7
 43
1.0
 76
     1
 77
     6
 78
     2
 67
     7
 79
     5
170
     0
171
     0
290
     0
174
     0
 93
        1
 44
0.0
173
     0
291
     1
 45
0.0
1001
ACAD
1000
AcDbSavedByObjectVersion
1070
     0
  0
VISUALSTYLE
  5
30
102
{ACAD_REACTORS
330
2A
102
}
102
{ACAD_XDICTIONARY
360
2F5
102
}
330
2A
100
AcDbVisualStyle
  2
Wireframe
 70
     5
 71
     0
 72
     2
 73
     0
 90
        0
 40
0.6
 41
30.0
 62
     5
 63
     7
421
 16777215
 74
     1
 91
        4
 64
     7
 65
   257
 75
     1
175
     1
 42
1.0
 92
        0
 66
   257
 43
1.0
 76
     1
 77
     6
 78
     2
 67
     7
 79
     3
170
     0
171
     0
290
     0
174
     0
 93
        1
 44
0.0
173
     0
291
     0
 45
0.0
1001
ACAD
1000
AcDbSavedByObjectVersion
1070
     0
  0
VISUALSTYLE
  5
40
102
{ACAD_REACTORS
330
2A
102
}
102
{ACAD_XDICTIONARY
360
315
102
}
330
2A
100
AcDbVisualStyle
  2
X-Ray
 70
    25
 71
     2
 72
     2
 73
     1
 90
        1
 40
0.5
 41
30.0
 62
     5
 63
     7
421
 16777215
 74
     1
 91
        0
 64
     7
 65
   257
 75
     1
175
     1
 42
1.0
 92
        8
 66
     7
 43
1.0
 76
     1
 77
     6
 78
     2
 67
     7
 79
     3
170
     0
171
     0
290
     0
174
     0
 93
       13
 44
0.0
173
     0
291
     0
 45
0.0
1001
ACAD
1000
AcDbSavedByObjectVersion
1070
     0
  0
DICTIONARYVAR
  5
2E8
102
{ACAD_REACTORS
330
2E7
102
}
330
2E7
100
DictionaryVariables
280
     0
  1
1:1
  0
DICTIONARYVAR
  5
329
102
{ACAD_REACTORS
330
2E7
102
}
330
2E7
100
DictionaryVariables
280
     0
  1
Standard
  0
DICTIONARYVAR
  5
328
102
{ACAD_REACTORS
330
2E7
102
}
330
2E7
100
DictionaryVariables
280
     0
  1
Standard
  0
DICTIONARYVAR
  5
2E9
102
{ACAD_REACTORS
330
2E7
102
}
330
2E7
100
DictionaryVariables
280
     0
  1
1
  0
DICTIONARYVAR
  5
2EA
102
{ACAD_REACTORS
330
2E7
102
}
330
2E7
100
DictionaryVariables
280
     0
  1
2
  0
DICTIONARY
  5
31D
330
45
100
AcDbDictionary
280
     1
281
     1
  3
ACAD_XREC_ROUNDTRIP
360
31E
  0
DICTIONARY
  5
31B
330
44
100
AcDbDictionary
280
     1
281
     1
  3
ACAD_XREC_ROUNDTRIP
360
31C
  0
DICTIONARY
  5
31F
330
46
100
AcDbDictionary
280
     1
281
     1
  3
ACAD_XREC_ROUNDTRIP
360
320
  0
DICTIONARY
  5
325
330
6C
100
AcDbDictionary
280
     1
281
     1
  3
ACAD_XREC_ROUNDTRIP
360
326
  0
DICTIONARY
  5
321
330
6A
100
AcDbDictionary
280
     1
281
     1
  3
ACAD_ROUNDTRIP_2008_TABLESTYLE_CELLSTYLEMAP
360
323
  3
ACAD_XREC_ROUNDTRIP
360
322
  0
DICTIONARY
  5
2F3
330
2F
100
AcDbDictionary
280
     1
281
     1
  3
ACAD_XREC_ROUNDTRIP
360
2F4
  0
DICTIONARY
  5
2F9
330
32
100
AcDbDictionary
280
     1
281
     1
  3
ACAD_XREC_ROUNDTRIP
360
2FA
  0
DICTIONARY
  5
301
330
36
100
AcDbDictionary
280
     1
281
     1
  3
ACAD_XREC_ROUNDTRIP
360
302
  0
DICTIONARY
  5
309
330
3A
100
AcDbDictionary
280
     1
281
     1
  3
ACAD_XREC_ROUNDTRIP
360
30A
  0
DICTIONARY
  5
2FD
330
34
100
AcDbDictionary
280
     1
281
     1
  3
ACAD_XREC_ROUNDTRIP
360
2FE
  0
DICTIONARY
  5
2FF
330
35
100
AcDbDictionary
280
     1
281
     1
  3
ACAD_XREC_ROUNDTRIP
360
300
  0
DICTIONARY
  5
30F
330
3D
100
AcDbDictionary
280
     1
281
     1
  3
ACAD_XREC_ROUNDTRIP
360
310
  0
DICTIONARY
  5
307
330
39
100
AcDbDictionary
280
     1
281
     1
  3
ACAD_XREC_ROUNDTRIP
360
308
  0
DICTIONARY
  5
2EB
330
2B
100
AcDbDictionary
280
     1
281
     1
  3
ACAD_XREC_ROUNDTRIP
360
2EC
  0
DICTIONARY
  5
2ED
330
2C
100
AcDbDictionary
280
     1
281
     1
  3
ACAD_XREC_ROUNDTRIP
360
2EE
  0
DICTIONARY
  5
2EF
330
2D
100
AcDbDictionary
280
     1
281
     1
  3
ACAD_XREC_ROUNDTRIP
360
2F0
  0
DICTIONARY
  5
2F1
330
2E
100
AcDbDictionary
280
     1
281
     1
  3
ACAD_XREC_ROUNDTRIP
360
2F2
  0
DICTIONARY
  5
2F7
330
31
100
AcDbDictionary
280
     1
281
     1
  3
ACAD_XREC_ROUNDTRIP
360
2F8
  0
DICTIONARY
  5
30B
330
3B
100
AcDbDictionary
280
     1
281
     1
  3
ACAD_XREC_ROUNDTRIP
360
30C
  0
DICTIONARY
  5
305
330
38
100
AcDbDictionary
280
     1
281
     1
  3
ACAD_XREC_ROUNDTRIP
360
306
  0
DICTIONARY
  5
30D
330
3C
100
AcDbDictionary
280
     1
281
     1
  3
ACAD_XREC_ROUNDTRIP
360
30E
  0
DICTIONARY
  5
2FB
330
33
100
AcDbDictionary
280
     1
281
     1
  3
ACAD_XREC_ROUNDTRIP
360
2FC
  0
DICTIONARY
  5
319
330
42
100
AcDbDictionary
280
     1
281
     1
  3
ACAD_XREC_ROUNDTRIP
360
31A
  0
DICTIONARY
  5
317
330
41
100
AcDbDictionary
280
     1
281
     1
  3
ACAD_XREC_ROUNDTRIP
360
318
  0
DICTIONARY
  5
311
330
3E
100
AcDbDictionary
280
     1
281
     1
  3
ACAD_XREC_ROUNDTRIP
360
312
  0
DICTIONARY
  5
313
330
3F
100
AcDbDictionary
280
     1
281
     1
  3
ACAD_XREC_ROUNDTRIP
360
314
  0
DICTIONARY
  5
303
330
37
100
AcDbDictionary
280
     1
281
     1
  3
ACAD_XREC_ROUNDTRIP
360
304
  0
DICTIONARY
  5
2F5
330
30
100
AcDbDictionary
280
     1
281
     1
  3
ACAD_XREC_ROUNDTRIP
360
2F6
  0
DICTIONARY
  5
315
330
40
100
AcDbDictionary
280
     1
281
     1
  3
ACAD_XREC_ROUNDTRIP
360
316
  0
XRECORD
  5
31E
102
{ACAD_REACTORS
330
31D
102
}
330
31D
100
AcDbXrecord
280
     1
102
MATERIAL
148
0.0
149
0.0
149
0.0
 93
        0
 94
      127
282
     0
 72
     1
 77
     1
171
     1
175
     1
179
     1
273
     0
  0
XRECORD
  5
31C
102
{ACAD_REACTORS
330
31B
102
}
330
31B
100
AcDbXrecord
280
     1
102
MATERIAL
148
0.0
149
0.0
149
0.0
 93
        0
 94
      127
282
     0
 72
     1
 77
     1
171
     1
175
     1
179
     1
273
     0
  0
XRECORD
  5
320
102
{ACAD_REACTORS
330
31F
102
}
330
31F
100
AcDbXrecord
280
     1
102
MATERIAL
148
0.0
149
0.0
149
0.0
 93
        0
 94
      127
282
     0
 72
     1
 77
     1
171
     1
175
     1
179
     1
273
     0
  0
XRECORD
  5
326
102
{ACAD_REACTORS
330
325
102
}
330
325
100
AcDbXrecord
280
     1
102
ACAD_ROUNDTRIP_2010_MLEADER_STYLE
  0
CELLSTYLEMAP
  5
323
102
{ACAD_REACTORS
330
321
102
}
330
321
100
AcDbCellStyleMap
 90
        3
300
CELLSTYLE
  1
TABLEFORMAT_BEGIN
 90
        5
170
     1
 91
        0
 92
    32768
 62
   257
 93
        1
300
CONTENTFORMAT
  1
CONTENTFORMAT_BEGIN
 90
        0
 91
        0
 92
        4
 93
        0
300

 40
0.0
140
1.0
 94
        5
 62
     0
340
11
144
0.25
309
CONTENTFORMAT_END
171
     1
301
MARGIN
  1
CELLMARGIN_BEGIN
 40
0.06
 40
0.06
 40
0.06
 40
0.06
 40
0.06
 40
0.06
309
CELLMARGIN_END
 94
        6
 95
        1
302
GRIDFORMAT
  1
GRIDFORMAT_BEGIN
 90
        0
 91
        1
 62
     0
 92
       -2
340
14
 93
        0
 40
0.045
309
GRIDFORMAT_END
 95
        2
302
GRIDFORMAT
  1
GRIDFORMAT_BEGIN
 90
        0
 91
        1
 62
     0
 92
       -2
340
14
 93
        0
 40
0.045
309
GRIDFORMAT_END
 95
        4
302
GRIDFORMAT
  1
GRIDFORMAT_BEGIN
 90
        0
 91
        1
 62
     0
 92
       -2
340
14
 93
        0
 40
0.045
309
GRIDFORMAT_END
 95
        8
302
GRIDFORMAT
  1
GRIDFORMAT_BEGIN
 90
        0
 91
        1
 62
     0
 92
       -2
340
14
 93
        0
 40
0.045
309
GRIDFORMAT_END
 95
       16
302
GRIDFORMAT
  1
GRIDFORMAT_BEGIN
 90
        0
 91
        1
 62
     0
 92
       -2
340
14
 93
        0
 40
0.045
309
GRIDFORMAT_END
 95
       32
302
GRIDFORMAT
  1
GRIDFORMAT_BEGIN
 90
        0
 91
        1
 62
     0
 92
       -2
340
14
 93
        0
 40
0.045
309
GRIDFORMAT_END
309
TABLEFORMAT_END
  1
CELLSTYLE_BEGIN
 90
        1
 91
        1
300
_TITLE
309
CELLSTYLE_END
300
CELLSTYLE
  1
TABLEFORMAT_BEGIN
 90
        5
170
     1
 91
        0
 92
        0
 62
   257
 93
        1
300
CONTENTFORMAT
  1
CONTENTFORMAT_BEGIN
 90
        0
 91
        0
 92
        4
 93
        0
300

 40
0.0
140
1.0
 94
        5
 62
     0
340
11
144
0.18
309
CONTENTFORMAT_END
171
     1
301
MARGIN
  1
CELLMARGIN_BEGIN
 40
0.06
 40
0.06
 40
0.06
 40
0.06
 40
0.06
 40
0.06
309
CELLMARGIN_END
 94
        6
 95
        1
302
GRIDFORMAT
  1
GRIDFORMAT_BEGIN
 90
        0
 91
        1
 62
     0
 92
       -2
340
14
 93
        0
 40
0.045
309
GRIDFORMAT_END
 95
        2
302
GRIDFORMAT
  1
GRIDFORMAT_BEGIN
 90
        0
 91
        1
 62
     0
 92
       -2
340
14
 93
        0
 40
0.045
309
GRIDFORMAT_END
 95
        4
302
GRIDFORMAT
  1
GRIDFORMAT_BEGIN
 90
        0
 91
        1
 62
     0
 92
       -2
340
14
 93
        0
 40
0.045
309
GRIDFORMAT_END
 95
        8
302
GRIDFORMAT
  1
GRIDFORMAT_BEGIN
 90
        0
 91
        1
 62
     0
 92
       -2
340
14
 93
        0
 40
0.045
309
GRIDFORMAT_END
 95
       16
302
GRIDFORMAT
  1
GRIDFORMAT_BEGIN
 90
        0
 91
        1
 62
     0
 92
       -2
340
14
 93
        0
 40
0.045
309
GRIDFORMAT_END
 95
       32
302
GRIDFORMAT
  1
GRIDFORMAT_BEGIN
 90
        0
 91
        1
 62
     0
 92
       -2
340
14
 93
        0
 40
0.045
309
GRIDFORMAT_END
309
TABLEFORMAT_END
  1
CELLSTYLE_BEGIN
 90
        2
 91
        1
300
_HEADER
309
CELLSTYLE_END
300
CELLSTYLE
  1
TABLEFORMAT_BEGIN
 90
        5
170
     1
 91
        0
 92
        0
 62
   257
 93
        1
300
CONTENTFORMAT
  1
CONTENTFORMAT_BEGIN
 90
        0
 91
        0
 92
        4
 93
        0
300

 40
0.0
140
1.0
 94
        2
 62
     0
340
11
144
0.18
309
CONTENTFORMAT_END
171
     1
301
MARGIN
  1
CELLMARGIN_BEGIN
 40
0.06
 40
0.06
 40
0.06
 40
0.06
 40
0.06
 40
0.06
309
CELLMARGIN_END
 94
        6
 95
        1
302
GRIDFORMAT
  1
GRIDFORMAT_BEGIN
 90
        0
 91
        1
 62
     0
 92
       -2
340
14
 93
        0
 40
0.045
309
GRIDFORMAT_END
 95
        2
302
GRIDFORMAT
  1
GRIDFORMAT_BEGIN
 90
        0
 91
        1
 62
     0
 92
       -2
340
14
 93
        0
 40
0.045
309
GRIDFORMAT_END
 95
        4
302
GRIDFORMAT
  1
GRIDFORMAT_BEGIN
 90
        0
 91
        1
 62
     0
 92
       -2
340
14
 93
        0
 40
0.045
309
GRIDFORMAT_END
 95
        8
302
GRIDFORMAT
  1
GRIDFORMAT_BEGIN
 90
        0
 91
        1
 62
     0
 92
       -2
340
14
 93
        0
 40
0.045
309
GRIDFORMAT_END
 95
       16
302
GRIDFORMAT
  1
GRIDFORMAT_BEGIN
 90
        0
 91
        1
 62
     0
 92
       -2
340
14
 93
        0
 40
0.045
309
GRIDFORMAT_END
 95
       32
302
GRIDFORMAT
  1
GRIDFORMAT_BEGIN
 90
        0
 91
        1
 62
     0
 92
       -2
340
14
 93
        0
 40
0.045
309
GRIDFORMAT_END
309
TABLEFORMAT_END
  1
CELLSTYLE_BEGIN
 90
        3
 91
        2
300
_DATA
309
CELLSTYLE_END
  0
XRECORD
  5
322
102
{ACAD_REACTORS
330
321
102
}
330
321
100
AcDbXrecord
280
     1
102
ACAD_ROUNDTRIP_PRE2007_TABLESTYLE
 90
        4
 91
        0
  1

 92
        4
 93
        0
  2

 94
        4
 95
        0
  3

  0
XRECORD
  5
2F4
102
{ACAD_REACTORS
330
2F3
102
}
330
2F3
100
AcDbXrecord
280
     1
102
RTVSPropertyOp0
 70
     1
102
RTVSPropertyOp1
 70
     1
102
RTVSPropertyOp2
 70
     1
102
RTVSPropertyOp3
 70
     1
102
RTVSPropertyOp4
 70
     1
102
RTVSPropertyOp5
 70
     1
102
RTVSPropertyOp6
 70
     1
102
RTVSPropertyOp7
 70
     1
102
RTVSPropertyOp8
 70
     1
102
RTVSPropertyOp9
 70
     1
102
RTVSPropertyOp10
 70
     1
102
RTVSPropertyOp11
 70
     1
102
RTVSPropertyOp12
 70
     1
102
RTVSPropertyOp13
 70
     1
102
RTVSPropertyOp14
 70
     1
102
RTVSPropertyOp15
 70
     1
102
RTVSPropertyOp16
 70
     1
102
RTVSPropertyOp17
 70
     1
102
RTVSPropertyOp18
 70
     1
102
RTVSPropertyOp19
 70
     1
102
RTVSPropertyOp20
 70
     1
102
RTVSPropertyOp21
 70
     1
102
RTVSPropertyOp22
 70
     1
102
RTVSPropertyOp23
 70
     1
102
RTVSPropertyOp24
 70
     1
102
RTVSPropertyOp25
 70
     1
102
RTVSPropertyOp26
 70
     1
102
RTVSPropertyOp27
 70
     1
102
RTVSPropertyOp28
 70
     1
102
RTVSPropertyOp29
 70
     1
102
RTVSPropertyOp30
 70
     1
102
RTVSPropertyOp31
 70
     1
102
RTVSPropertyOp32
 70
     1
102
RTVSPropertyOp33
 70
     1
102
RTVSPropertyOp34
 70
     1
102
RTVSPropertyOp35
 70
     1
102
RTVSPropertyOp36
 70
     1
102
RTVSPropertyOp37
 70
     1
102
RTVSPropertyOp38
 70
     1
102
RTVSPropertyOp39
 70
     1
102
RTVSPropertyOp40
 70
     1
102
RTVSPropertyOp41
 70
     1
102
RTVSPropertyOp42
 70
     1
102
RTVSPropertyOp43
 70
     1
102
RTVSPropertyOp44
 70
     1
102
RTVSPropertyOp45
 70
     1
102
RTVSPropertyOp46
 70
     1
102
RTVSPropertyOp47
 70
     1
102
RTVSPropertyOp48
 70
     1
102
RTVSPropertyOp49
 70
     1
102
RTVSPropertyOp50
 70
     1
102
RTVSPropertyOp51
 70
     0
102
RTVSPropertyOp52
 70
     0
102
RTVSPropertyOp53
 70
     1
102
RTVSPropertyOp54
 70
     1
102
RTVSPropertyOp55
 70
     1
102
RTVSPropertyOp56
 70
     1
102
RTVSPropertyOp57
 70
     1
102
RTVSPost2010Prop28
280
     1
102
RTVSPost2010PropOp28
 70
     1
102
RTVSPost2010Prop29
280
     1
102
RTVSPost2010PropOp29
 70
     1
102
RTVSPost2010Prop30
280
     0
102
RTVSPost2010PropOp30
 70
     1
102
RTVSPost2010Prop31
280
     0
102
RTVSPost2010PropOp31
 70
     1
102
RTVSPost2010Prop32
280
     0
102
RTVSPost2010PropOp32
 70
     1
102
RTVSPost2010Prop33
280
     0
102
RTVSPost2010PropOp33
 70
     1
102
RTVSPost2010Prop34
280
     0
102
RTVSPost2010PropOp34
 70
     1
102
RTVSPost2010Prop35
280
     0
102
RTVSPost2010PropOp35
 70
     1
102
RTVSPost2010Prop36
280
     0
102
RTVSPost2010PropOp36
 70
     1
102
RTVSPost2010Prop37
 90
       50
102
RTVSPost2010PropOp37
 70
     1
102
RTVSPost2010Prop38
140
0.0
102
RTVSPost2010PropOp38
 70
     1
102
RTVSPost2010Prop39
140
1.0
102
RTVSPost2010PropOp39
 70
     1
102
RTVSPost2010Prop40
 90
        0
102
RTVSPost2010PropOp40
 70
     1
102
RTVSPost2010Prop41ColorIndex
 90
       18
102
RTVSPost2010Prop41ColorRGB
 90
        0
102
RTVSPost2010PropOp41
 70
     1
102
RTVSPost2010Prop42
 90
       50
102
RTVSPost2010PropOp42
 70
     1
102
RTVSPost2010Prop43
 90
        3
102
RTVSPost2010PropOp43
 70
     1
102
RTVSPost2010Prop44ColorIndex
 90
        5
102
RTVSPost2010Prop44ColorRGB
 90
      255
102
RTVSPost2010PropOp44
 70
     1
102
RTVSPost2010Prop45
280
     0
102
RTVSPost2010PropOp45
 70
     1
102
RTVSPost2010Prop46
 90
       50
102
RTVSPost2010PropOp46
 70
     1
102
RTVSPost2010Prop47
 90
       50
102
RTVSPost2010PropOp47
 70
     1
102
RTVSPost2010Prop48
 90
       50
102
RTVSPost2010PropOp48
 70
     1
102
RTVSPost2010Prop49
280
     0
102
RTVSPost2010PropOp49
 70
     1
102
RTVSPost2010Prop50
 90
       50
102
RTVSPost2010PropOp50
 70
     1
102
RTVSPost2010Prop51ColorIndex
 90
      256
102
RTVSPost2010Prop51ColorRGB
 90
-16777216
102
RTVSPost2010PropOp51
 70
     0
102
RTVSPost2010Prop52
140
1.0
102
RTVSPost2010PropOp52
 70
     0
102
RTVSPost2010Prop53
 90
        2
102
RTVSPost2010PropOp53
 70
     1
102
RTVSPost2010Prop54
  1
strokes_ogs.tif
102
RTVSPost2010PropOp54
 70
     1
102
RTVSPost2010Prop55
280
     0
102
RTVSPost2010PropOp55
 70
     1
102
RTVSPost2010Prop56
140
1.0
102
RTVSPost2010PropOp56
 70
     1
102
RTVSPost2010Prop57
140
1.0
102
RTVSPost2010PropOp57
 70
     1
  0
XRECORD
  5
2FA
102
{ACAD_REACTORS
330
2F9
102
}
330
2F9
100
AcDbXrecord
280
     1
102
RTVSPropertyOp0
 70
     1
102
RTVSPropertyOp1
 70
     1
102
RTVSPropertyOp2
 70
     1
102
RTVSPropertyOp3
 70
     1
102
RTVSPropertyOp4
 70
     1
102
RTVSPropertyOp5
 70
     1
102
RTVSPropertyOp6
 70
     1
102
RTVSPropertyOp7
 70
     1
102
RTVSPropertyOp8
 70
     1
102
RTVSPropertyOp9
 70
     1
102
RTVSPropertyOp10
 70
     1
102
RTVSPropertyOp11
 70
     1
102
RTVSPropertyOp12
 70
     1
102
RTVSPropertyOp13
 70
     1
102
RTVSPropertyOp14
 70
     1
102
RTVSPropertyOp15
 70
     1
102
RTVSPropertyOp16
 70
     1
102
RTVSPropertyOp17
 70
     1
102
RTVSPropertyOp18
 70
     1
102
RTVSPropertyOp19
 70
     1
102
RTVSPropertyOp20
 70
     1
102
RTVSPropertyOp21
 70
     1
102
RTVSPropertyOp22
 70
     1
102
RTVSPropertyOp23
 70
     1
102
RTVSPropertyOp24
 70
     1
102
RTVSPropertyOp25
 70
     1
102
RTVSPropertyOp26
 70
     1
102
RTVSPropertyOp27
 70
     1
102
RTVSPropertyOp28
 70
     1
102
RTVSPropertyOp29
 70
     1
102
RTVSPropertyOp30
 70
     1
102
RTVSPropertyOp31
 70
     1
102
RTVSPropertyOp32
 70
     1
102
RTVSPropertyOp33
 70
     1
102
RTVSPropertyOp34
 70
     1
102
RTVSPropertyOp35
 70
     1
102
RTVSPropertyOp36
 70
     1
102
RTVSPropertyOp37
 70
     1
102
RTVSPropertyOp38
 70
     1
102
RTVSPropertyOp39
 70
     1
102
RTVSPropertyOp40
 70
     1
102
RTVSPropertyOp41
 70
     1
102
RTVSPropertyOp42
 70
     1
102
RTVSPropertyOp43
 70
     1
102
RTVSPropertyOp44
 70
     1
102
RTVSPropertyOp45
 70
     1
102
RTVSPropertyOp46
 70
     1
102
RTVSPropertyOp47
 70
     1
102
RTVSPropertyOp48
 70
     1
102
RTVSPropertyOp49
 70
     1
102
RTVSPropertyOp50
 70
     1
102
RTVSPropertyOp51
 70
     0
102
RTVSPropertyOp52
 70
     0
102
RTVSPropertyOp53
 70
     1
102
RTVSPropertyOp54
 70
     1
102
RTVSPropertyOp55
 70
     1
102
RTVSPropertyOp56
 70
     1
102
RTVSPropertyOp57
 70
     1
102
RTVSPost2010Prop28
280
     0
102
RTVSPost2010PropOp28
 70
     1
102
RTVSPost2010Prop29
280
     1
102
RTVSPost2010PropOp29
 70
     1
102
RTVSPost2010Prop30
280
     1
102
RTVSPost2010PropOp30
 70
     1
102
RTVSPost2010Prop31
280
     0
102
RTVSPost2010PropOp31
 70
     1
102
RTVSPost2010Prop32
280
     0
102
RTVSPost2010PropOp32
 70
     1
102
RTVSPost2010Prop33
280
     0
102
RTVSPost2010PropOp33
 70
     1
102
RTVSPost2010Prop34
280
     0
102
RTVSPost2010PropOp34
 70
     1
102
RTVSPost2010Prop35
280
     0
102
RTVSPost2010PropOp35
 70
     1
102
RTVSPost2010Prop36
280
     0
102
RTVSPost2010PropOp36
 70
     1
102
RTVSPost2010Prop37
 90
       50
102
RTVSPost2010PropOp37
 70
     1
102
RTVSPost2010Prop38
140
0.0
102
RTVSPost2010PropOp38
 70
     1
102
RTVSPost2010Prop39
140
1.0
102
RTVSPost2010PropOp39
 70
     1
102
RTVSPost2010Prop40
 90
        0
102
RTVSPost2010PropOp40
 70
     1
102
RTVSPost2010Prop41ColorIndex
 90
       18
102
RTVSPost2010Prop41ColorRGB
 90
        0
102
RTVSPost2010PropOp41
 70
     1
102
RTVSPost2010Prop42
 90
       50
102
RTVSPost2010PropOp42
 70
     1
102
RTVSPost2010Prop43
 90
        3
102
RTVSPost2010PropOp43
 70
     1
102
RTVSPost2010Prop44ColorIndex
 90
        5
102
RTVSPost2010Prop44ColorRGB
 90
      255
102
RTVSPost2010PropOp44
 70
     1
102
RTVSPost2010Prop45
280
     0
102
RTVSPost2010PropOp45
 70
     1
102
RTVSPost2010Prop46
 90
       50
102
RTVSPost2010PropOp46
 70
     1
102
RTVSPost2010Prop47
 90
       50
102
RTVSPost2010PropOp47
 70
     1
102
RTVSPost2010Prop48
 90
       50
102
RTVSPost2010PropOp48
 70
     1
102
RTVSPost2010Prop49
280
     0
102
RTVSPost2010PropOp49
 70
     1
102
RTVSPost2010Prop50
 90
       50
102
RTVSPost2010PropOp50
 70
     1
102
RTVSPost2010Prop51ColorIndex
 90
      256
102
RTVSPost2010Prop51ColorRGB
 90
-16777216
102
RTVSPost2010PropOp51
 70
     0
102
RTVSPost2010Prop52
140
1.0
102
RTVSPost2010PropOp52
 70
     0
102
RTVSPost2010Prop53
 90
        2
102
RTVSPost2010PropOp53
 70
     1
102
RTVSPost2010Prop54
  1
strokes_ogs.tif
102
RTVSPost2010PropOp54
 70
     1
102
RTVSPost2010Prop55
280
     0
102
RTVSPost2010PropOp55
 70
     1
102
RTVSPost2010Prop56
140
1.0
102
RTVSPost2010PropOp56
 70
     1
102
RTVSPost2010Prop57
140
1.0
102
RTVSPost2010PropOp57
 70
     1
  0
XRECORD
  5
302
102
{ACAD_REACTORS
330
301
102
}
330
301
100
AcDbXrecord
280
     1
102
RTVSPropertyOp0
 70
     1
102
RTVSPropertyOp1
 70
     1
102
RTVSPropertyOp2
 70
     1
102
RTVSPropertyOp3
 70
     1
102
RTVSPropertyOp4
 70
     1
102
RTVSPropertyOp5
 70
     1
102
RTVSPropertyOp6
 70
     1
102
RTVSPropertyOp7
 70
     1
102
RTVSPropertyOp8
 70
     1
102
RTVSPropertyOp9
 70
     1
102
RTVSPropertyOp10
 70
     1
102
RTVSPropertyOp11
 70
     1
102
RTVSPropertyOp12
 70
     1
102
RTVSPropertyOp13
 70
     1
102
RTVSPropertyOp14
 70
     1
102
RTVSPropertyOp15
 70
     1
102
RTVSPropertyOp16
 70
     1
102
RTVSPropertyOp17
 70
     1
102
RTVSPropertyOp18
 70
     1
102
RTVSPropertyOp19
 70
     1
102
RTVSPropertyOp20
 70
     1
102
RTVSPropertyOp21
 70
     1
102
RTVSPropertyOp22
 70
     1
102
RTVSPropertyOp23
 70
     1
102
RTVSPropertyOp24
 70
     1
102
RTVSPropertyOp25
 70
     1
102
RTVSPropertyOp26
 70
     1
102
RTVSPropertyOp27
 70
     1
102
RTVSPropertyOp28
 70
     1
102
RTVSPropertyOp29
 70
     1
102
RTVSPropertyOp30
 70
     1
102
RTVSPropertyOp31
 70
     1
102
RTVSPropertyOp32
 70
     1
102
RTVSPropertyOp33
 70
     1
102
RTVSPropertyOp34
 70
     1
102
RTVSPropertyOp35
 70
     1
102
RTVSPropertyOp36
 70
     1
102
RTVSPropertyOp37
 70
     1
102
RTVSPropertyOp38
 70
     1
102
RTVSPropertyOp39
 70
     1
102
RTVSPropertyOp40
 70
     1
102
RTVSPropertyOp41
 70
     1
102
RTVSPropertyOp42
 70
     1
102
RTVSPropertyOp43
 70
     1
102
RTVSPropertyOp44
 70
     1
102
RTVSPropertyOp45
 70
     1
102
RTVSPropertyOp46
 70
     1
102
RTVSPropertyOp47
 70
     1
102
RTVSPropertyOp48
 70
     1
102
RTVSPropertyOp49
 70
     1
102
RTVSPropertyOp50
 70
     1
102
RTVSPropertyOp51
 70
     0
102
RTVSPropertyOp52
 70
     0
102
RTVSPropertyOp53
 70
     1
102
RTVSPropertyOp54
 70
     1
102
RTVSPropertyOp55
 70
     1
102
RTVSPropertyOp56
 70
     1
102
RTVSPropertyOp57
 70
     1
102
RTVSPost2010Prop28
280
     0
102
RTVSPost2010PropOp28
 70
     1
102
RTVSPost2010Prop29
280
     1
102
RTVSPost2010PropOp29
 70
     1
102
RTVSPost2010Prop30
280
     1
102
RTVSPost2010PropOp30
 70
     1
102
RTVSPost2010Prop31
280
     0
102
RTVSPost2010PropOp31
 70
     1
102
RTVSPost2010Prop32
280
     0
102
RTVSPost2010PropOp32
 70
     1
102
RTVSPost2010Prop33
280
     0
102
RTVSPost2010PropOp33
 70
     1
102
RTVSPost2010Prop34
280
     0
102
RTVSPost2010PropOp34
 70
     1
102
RTVSPost2010Prop35
280
     0
102
RTVSPost2010PropOp35
 70
     1
102
RTVSPost2010Prop36
280
     0
102
RTVSPost2010PropOp36
 70
     1
102
RTVSPost2010Prop37
 90
       50
102
RTVSPost2010PropOp37
 70
     1
102
RTVSPost2010Prop38
140
0.0
102
RTVSPost2010PropOp38
 70
     1
102
RTVSPost2010Prop39
140
1.0
102
RTVSPost2010PropOp39
 70
     1
102
RTVSPost2010Prop40
 90
        0
102
RTVSPost2010PropOp40
 70
     1
102
RTVSPost2010Prop41ColorIndex
 90
       18
102
RTVSPost2010Prop41ColorRGB
 90
        0
102
RTVSPost2010PropOp41
 70
     1
102
RTVSPost2010Prop42
 90
       50
102
RTVSPost2010PropOp42
 70
     1
102
RTVSPost2010Prop43
 90
        3
102
RTVSPost2010PropOp43
 70
     1
102
RTVSPost2010Prop44ColorIndex
 90
        5
102
RTVSPost2010Prop44ColorRGB
 90
      255
102
RTVSPost2010PropOp44
 70
     1
102
RTVSPost2010Prop45
280
     0
102
RTVSPost2010PropOp45
 70
     1
102
RTVSPost2010Prop46
 90
       50
102
RTVSPost2010PropOp46
 70
     1
102
RTVSPost2010Prop47
 90
       50
102
RTVSPost2010PropOp47
 70
     1
102
RTVSPost2010Prop48
 90
       50
102
RTVSPost2010PropOp48
 70
     1
102
RTVSPost2010Prop49
280
     0
102
RTVSPost2010PropOp49
 70
     1
102
RTVSPost2010Prop50
 90
       50
102
RTVSPost2010PropOp50
 70
     1
102
RTVSPost2010Prop51ColorIndex
 90
      256
102
RTVSPost2010Prop51ColorRGB
 90
-16777216
102
RTVSPost2010PropOp51
 70
     0
102
RTVSPost2010Prop52
140
1.0
102
RTVSPost2010PropOp52
 70
     0
102
RTVSPost2010Prop53
 90
        2
102
RTVSPost2010PropOp53
 70
     1
102
RTVSPost2010Prop54
  1
strokes_ogs.tif
102
RTVSPost2010PropOp54
 70
     1
102
RTVSPost2010Prop55
280
     0
102
RTVSPost2010PropOp55
 70
     1
102
RTVSPost2010Prop56
140
1.0
102
RTVSPost2010PropOp56
 70
     1
102
RTVSPost2010Prop57
140
1.0
102
RTVSPost2010PropOp57
 70
     1
  0
XRECORD
  5
30A
102
{ACAD_REACTORS
330
309
102
}
330
309
100
AcDbXrecord
280
     1
102
RTVSPropertyOp0
 70
     1
102
RTVSPropertyOp1
 70
     1
102
RTVSPropertyOp2
 70
     1
102
RTVSPropertyOp3
 70
     1
102
RTVSPropertyOp4
 70
     1
102
RTVSPropertyOp5
 70
     1
102
RTVSPropertyOp6
 70
     1
102
RTVSPropertyOp7
 70
     1
102
RTVSPropertyOp8
 70
     1
102
RTVSPropertyOp9
 70
     1
102
RTVSPropertyOp10
 70
     1
102
RTVSPropertyOp11
 70
     1
102
RTVSPropertyOp12
 70
     1
102
RTVSPropertyOp13
 70
     1
102
RTVSPropertyOp14
 70
     1
102
RTVSPropertyOp15
 70
     1
102
RTVSPropertyOp16
 70
     1
102
RTVSPropertyOp17
 70
     1
102
RTVSPropertyOp18
 70
     1
102
RTVSPropertyOp19
 70
     1
102
RTVSPropertyOp20
 70
     1
102
RTVSPropertyOp21
 70
     1
102
RTVSPropertyOp22
 70
     1
102
RTVSPropertyOp23
 70
     1
102
RTVSPropertyOp24
 70
     1
102
RTVSPropertyOp25
 70
     1
102
RTVSPropertyOp26
 70
     1
102
RTVSPropertyOp27
 70
     1
102
RTVSPropertyOp28
 70
     1
102
RTVSPropertyOp29
 70
     1
102
RTVSPropertyOp30
 70
     1
102
RTVSPropertyOp31
 70
     1
102
RTVSPropertyOp32
 70
     1
102
RTVSPropertyOp33
 70
     1
102
RTVSPropertyOp34
 70
     1
102
RTVSPropertyOp35
 70
     1
102
RTVSPropertyOp36
 70
     1
102
RTVSPropertyOp37
 70
     1
102
RTVSPropertyOp38
 70
     1
102
RTVSPropertyOp39
 70
     1
102
RTVSPropertyOp40
 70
     1
102
RTVSPropertyOp41
 70
     1
102
RTVSPropertyOp42
 70
     1
102
RTVSPropertyOp43
 70
     1
102
RTVSPropertyOp44
 70
     1
102
RTVSPropertyOp45
 70
     1
102
RTVSPropertyOp46
 70
     1
102
RTVSPropertyOp47
 70
     1
102
RTVSPropertyOp48
 70
     1
102
RTVSPropertyOp49
 70
     1
102
RTVSPropertyOp50
 70
     1
102
RTVSPropertyOp51
 70
     0
102
RTVSPropertyOp52
 70
     0
102
RTVSPropertyOp53
 70
     1
102
RTVSPropertyOp54
 70
     1
102
RTVSPropertyOp55
 70
     1
102
RTVSPropertyOp56
 70
     1
102
RTVSPropertyOp57
 70
     1
102
RTVSPost2010Prop28
280
     0
102
RTVSPost2010PropOp28
 70
     1
102
RTVSPost2010Prop29
280
     1
102
RTVSPost2010PropOp29
 70
     1
102
RTVSPost2010Prop30
280
     1
102
RTVSPost2010PropOp30
 70
     1
102
RTVSPost2010Prop31
280
     0
102
RTVSPost2010PropOp31
 70
     1
102
RTVSPost2010Prop32
280
     0
102
RTVSPost2010PropOp32
 70
     1
102
RTVSPost2010Prop33
280
     0
102
RTVSPost2010PropOp33
 70
     1
102
RTVSPost2010Prop34
280
     0
102
RTVSPost2010PropOp34
 70
     1
102
RTVSPost2010Prop35
280
     0
102
RTVSPost2010PropOp35
 70
     1
102
RTVSPost2010Prop36
280
     0
102
RTVSPost2010PropOp36
 70
     1
102
RTVSPost2010Prop37
 90
       50
102
RTVSPost2010PropOp37
 70
     1
102
RTVSPost2010Prop38
140
0.0
102
RTVSPost2010PropOp38
 70
     1
102
RTVSPost2010Prop39
140
1.0
102
RTVSPost2010PropOp39
 70
     1
102
RTVSPost2010Prop40
 90
        0
102
RTVSPost2010PropOp40
 70
     1
102
RTVSPost2010Prop41ColorIndex
 90
       18
102
RTVSPost2010Prop41ColorRGB
 90
        0
102
RTVSPost2010PropOp41
 70
     1
102
RTVSPost2010Prop42
 90
       50
102
RTVSPost2010PropOp42
 70
     1
102
RTVSPost2010Prop43
 90
        3
102
RTVSPost2010PropOp43
 70
     1
102
RTVSPost2010Prop44ColorIndex
 90
        5
102
RTVSPost2010Prop44ColorRGB
 90
      255
102
RTVSPost2010PropOp44
 70
     1
102
RTVSPost2010Prop45
280
     0
102
RTVSPost2010PropOp45
 70
     1
102
RTVSPost2010Prop46
 90
       50
102
RTVSPost2010PropOp46
 70
     1
102
RTVSPost2010Prop47
 90
       50
102
RTVSPost2010PropOp47
 70
     1
102
RTVSPost2010Prop48
 90
       50
102
RTVSPost2010PropOp48
 70
     1
102
RTVSPost2010Prop49
280
     0
102
RTVSPost2010PropOp49
 70
     1
102
RTVSPost2010Prop50
 90
       50
102
RTVSPost2010PropOp50
 70
     1
102
RTVSPost2010Prop51ColorIndex
 90
      256
102
RTVSPost2010Prop51ColorRGB
 90
-16777216
102
RTVSPost2010PropOp51
 70
     0
102
RTVSPost2010Prop52
140
1.0
102
RTVSPost2010PropOp52
 70
     0
102
RTVSPost2010Prop53
 90
        2
102
RTVSPost2010PropOp53
 70
     1
102
RTVSPost2010Prop54
  1
strokes_ogs.tif
102
RTVSPost2010PropOp54
 70
     1
102
RTVSPost2010Prop55
280
     0
102
RTVSPost2010PropOp55
 70
     1
102
RTVSPost2010Prop56
140
1.0
102
RTVSPost2010PropOp56
 70
     1
102
RTVSPost2010Prop57
140
1.0
102
RTVSPost2010PropOp57
 70
     1
  0
XRECORD
  5
2FE
102
{ACAD_REACTORS
330
2FD
102
}
330
2FD
100
AcDbXrecord
280
     1
102
RTVSPropertyOp0
 70
     1
102
RTVSPropertyOp1
 70
     1
102
RTVSPropertyOp2
 70
     1
102
RTVSPropertyOp3
 70
     1
102
RTVSPropertyOp4
 70
     1
102
RTVSPropertyOp5
 70
     1
102
RTVSPropertyOp6
 70
     1
102
RTVSPropertyOp7
 70
     1
102
RTVSPropertyOp8
 70
     1
102
RTVSPropertyOp9
 70
     1
102
RTVSPropertyOp10
 70
     1
102
RTVSPropertyOp11
 70
     1
102
RTVSPropertyOp12
 70
     1
102
RTVSPropertyOp13
 70
     1
102
RTVSPropertyOp14
 70
     1
102
RTVSPropertyOp15
 70
     1
102
RTVSPropertyOp16
 70
     1
102
RTVSPropertyOp17
 70
     1
102
RTVSPropertyOp18
 70
     1
102
RTVSPropertyOp19
 70
     1
102
RTVSPropertyOp20
 70
     1
102
RTVSPropertyOp21
 70
     1
102
RTVSPropertyOp22
 70
     1
102
RTVSPropertyOp23
 70
     1
102
RTVSPropertyOp24
 70
     1
102
RTVSPropertyOp25
 70
     1
102
RTVSPropertyOp26
 70
     1
102
RTVSPropertyOp27
 70
     1
102
RTVSPropertyOp28
 70
     1
102
RTVSPropertyOp29
 70
     1
102
RTVSPropertyOp30
 70
     1
102
RTVSPropertyOp31
 70
     1
102
RTVSPropertyOp32
 70
     1
102
RTVSPropertyOp33
 70
     1
102
RTVSPropertyOp34
 70
     1
102
RTVSPropertyOp35
 70
     1
102
RTVSPropertyOp36
 70
     1
102
RTVSPropertyOp37
 70
     1
102
RTVSPropertyOp38
 70
     1
102
RTVSPropertyOp39
 70
     1
102
RTVSPropertyOp40
 70
     1
102
RTVSPropertyOp41
 70
     1
102
RTVSPropertyOp42
 70
     1
102
RTVSPropertyOp43
 70
     1
102
RTVSPropertyOp44
 70
     1
102
RTVSPropertyOp45
 70
     1
102
RTVSPropertyOp46
 70
     1
102
RTVSPropertyOp47
 70
     1
102
RTVSPropertyOp48
 70
     1
102
RTVSPropertyOp49
 70
     1
102
RTVSPropertyOp50
 70
     1
102
RTVSPropertyOp51
 70
     0
102
RTVSPropertyOp52
 70
     0
102
RTVSPropertyOp53
 70
     1
102
RTVSPropertyOp54
 70
     1
102
RTVSPropertyOp55
 70
     1
102
RTVSPropertyOp56
 70
     1
102
RTVSPropertyOp57
 70
     1
102
RTVSPost2010Prop28
280
     0
102
RTVSPost2010PropOp28
 70
     1
102
RTVSPost2010Prop29
280
     1
102
RTVSPost2010PropOp29
 70
     1
102
RTVSPost2010Prop30
280
     1
102
RTVSPost2010PropOp30
 70
     1
102
RTVSPost2010Prop31
280
     0
102
RTVSPost2010PropOp31
 70
     1
102
RTVSPost2010Prop32
280
     0
102
RTVSPost2010PropOp32
 70
     1
102
RTVSPost2010Prop33
280
     0
102
RTVSPost2010PropOp33
 70
     1
102
RTVSPost2010Prop34
280
     0
102
RTVSPost2010PropOp34
 70
     1
102
RTVSPost2010Prop35
280
     0
102
RTVSPost2010PropOp35
 70
     1
102
RTVSPost2010Prop36
280
     0
102
RTVSPost2010PropOp36
 70
     1
102
RTVSPost2010Prop37
 90
       50
102
RTVSPost2010PropOp37
 70
     1
102
RTVSPost2010Prop38
140
0.0
102
RTVSPost2010PropOp38
 70
     1
102
RTVSPost2010Prop39
140
1.0
102
RTVSPost2010PropOp39
 70
     1
102
RTVSPost2010Prop40
 90
        0
102
RTVSPost2010PropOp40
 70
     1
102
RTVSPost2010Prop41ColorIndex
 90
       18
102
RTVSPost2010Prop41ColorRGB
 90
        0
102
RTVSPost2010PropOp41
 70
     1
102
RTVSPost2010Prop42
 90
       50
102
RTVSPost2010PropOp42
 70
     1
102
RTVSPost2010Prop43
 90
        3
102
RTVSPost2010PropOp43
 70
     1
102
RTVSPost2010Prop44ColorIndex
 90
        5
102
RTVSPost2010Prop44ColorRGB
 90
      255
102
RTVSPost2010PropOp44
 70
     1
102
RTVSPost2010Prop45
280
     0
102
RTVSPost2010PropOp45
 70
     1
102
RTVSPost2010Prop46
 90
       50
102
RTVSPost2010PropOp46
 70
     1
102
RTVSPost2010Prop47
 90
       50
102
RTVSPost2010PropOp47
 70
     1
102
RTVSPost2010Prop48
 90
       50
102
RTVSPost2010PropOp48
 70
     1
102
RTVSPost2010Prop49
280
     0
102
RTVSPost2010PropOp49
 70
     1
102
RTVSPost2010Prop50
 90
       50
102
RTVSPost2010PropOp50
 70
     1
102
RTVSPost2010Prop51ColorIndex
 90
      256
102
RTVSPost2010Prop51ColorRGB
 90
-16777216
102
RTVSPost2010PropOp51
 70
     0
102
RTVSPost2010Prop52
140
1.0
102
RTVSPost2010PropOp52
 70
     0
102
RTVSPost2010Prop53
 90
        2
102
RTVSPost2010PropOp53
 70
     1
102
RTVSPost2010Prop54
  1
strokes_ogs.tif
102
RTVSPost2010PropOp54
 70
     1
102
RTVSPost2010Prop55
280
     0
102
RTVSPost2010PropOp55
 70
     1
102
RTVSPost2010Prop56
140
1.0
102
RTVSPost2010PropOp56
 70
     1
102
RTVSPost2010Prop57
140
1.0
102
RTVSPost2010PropOp57
 70
     1
  0
XRECORD
  5
300
102
{ACAD_REACTORS
330
2FF
102
}
330
2FF
100
AcDbXrecord
280
     1
102
RTVSPropertyOp0
 70
     1
102
RTVSPropertyOp1
 70
     1
102
RTVSPropertyOp2
 70
     1
102
RTVSPropertyOp3
 70
     1
102
RTVSPropertyOp4
 70
     1
102
RTVSPropertyOp5
 70
     1
102
RTVSPropertyOp6
 70
     1
102
RTVSPropertyOp7
 70
     1
102
RTVSPropertyOp8
 70
     1
102
RTVSPropertyOp9
 70
     1
102
RTVSPropertyOp10
 70
     1
102
RTVSPropertyOp11
 70
     1
102
RTVSPropertyOp12
 70
     1
102
RTVSPropertyOp13
 70
     1
102
RTVSPropertyOp14
 70
     1
102
RTVSPropertyOp15
 70
     1
102
RTVSPropertyOp16
 70
     1
102
RTVSPropertyOp17
 70
     1
102
RTVSPropertyOp18
 70
     1
102
RTVSPropertyOp19
 70
     1
102
RTVSPropertyOp20
 70
     1
102
RTVSPropertyOp21
 70
     1
102
RTVSPropertyOp22
 70
     1
102
RTVSPropertyOp23
 70
     1
102
RTVSPropertyOp24
 70
     1
102
RTVSPropertyOp25
 70
     1
102
RTVSPropertyOp26
 70
     1
102
RTVSPropertyOp27
 70
     1
102
RTVSPropertyOp28
 70
     1
102
RTVSPropertyOp29
 70
     1
102
RTVSPropertyOp30
 70
     1
102
RTVSPropertyOp31
 70
     1
102
RTVSPropertyOp32
 70
     1
102
RTVSPropertyOp33
 70
     1
102
RTVSPropertyOp34
 70
     1
102
RTVSPropertyOp35
 70
     1
102
RTVSPropertyOp36
 70
     1
102
RTVSPropertyOp37
 70
     1
102
RTVSPropertyOp38
 70
     1
102
RTVSPropertyOp39
 70
     1
102
RTVSPropertyOp40
 70
     1
102
RTVSPropertyOp41
 70
     1
102
RTVSPropertyOp42
 70
     1
102
RTVSPropertyOp43
 70
     1
102
RTVSPropertyOp44
 70
     1
102
RTVSPropertyOp45
 70
     1
102
RTVSPropertyOp46
 70
     1
102
RTVSPropertyOp47
 70
     1
102
RTVSPropertyOp48
 70
     1
102
RTVSPropertyOp49
 70
     1
102
RTVSPropertyOp50
 70
     1
102
RTVSPropertyOp51
 70
     0
102
RTVSPropertyOp52
 70
     0
102
RTVSPropertyOp53
 70
     1
102
RTVSPropertyOp54
 70
     1
102
RTVSPropertyOp55
 70
     1
102
RTVSPropertyOp56
 70
     1
102
RTVSPropertyOp57
 70
     1
102
RTVSPost2010Prop28
280
     0
102
RTVSPost2010PropOp28
 70
     1
102
RTVSPost2010Prop29
280
     1
102
RTVSPost2010PropOp29
 70
     1
102
RTVSPost2010Prop30
280
     1
102
RTVSPost2010PropOp30
 70
     1
102
RTVSPost2010Prop31
280
     0
102
RTVSPost2010PropOp31
 70
     1
102
RTVSPost2010Prop32
280
     0
102
RTVSPost2010PropOp32
 70
     1
102
RTVSPost2010Prop33
280
     0
102
RTVSPost2010PropOp33
 70
     1
102
RTVSPost2010Prop34
280
     0
102
RTVSPost2010PropOp34
 70
     1
102
RTVSPost2010Prop35
280
     0
102
RTVSPost2010PropOp35
 70
     1
102
RTVSPost2010Prop36
280
     0
102
RTVSPost2010PropOp36
 70
     1
102
RTVSPost2010Prop37
 90
       50
102
RTVSPost2010PropOp37
 70
     1
102
RTVSPost2010Prop38
140
0.0
102
RTVSPost2010PropOp38
 70
     1
102
RTVSPost2010Prop39
140
1.0
102
RTVSPost2010PropOp39
 70
     1
102
RTVSPost2010Prop40
 90
        0
102
RTVSPost2010PropOp40
 70
     1
102
RTVSPost2010Prop41ColorIndex
 90
       18
102
RTVSPost2010Prop41ColorRGB
 90
        0
102
RTVSPost2010PropOp41
 70
     1
102
RTVSPost2010Prop42
 90
       50
102
RTVSPost2010PropOp42
 70
     1
102
RTVSPost2010Prop43
 90
        3
102
RTVSPost2010PropOp43
 70
     1
102
RTVSPost2010Prop44ColorIndex
 90
        5
102
RTVSPost2010Prop44ColorRGB
 90
      255
102
RTVSPost2010PropOp44
 70
     1
102
RTVSPost2010Prop45
280
     0
102
RTVSPost2010PropOp45
 70
     1
102
RTVSPost2010Prop46
 90
       50
102
RTVSPost2010PropOp46
 70
     1
102
RTVSPost2010Prop47
 90
       50
102
RTVSPost2010PropOp47
 70
     1
102
RTVSPost2010Prop48
 90
       50
102
RTVSPost2010PropOp48
 70
     1
102
RTVSPost2010Prop49
280
     0
102
RTVSPost2010PropOp49
 70
     1
102
RTVSPost2010Prop50
 90
       50
102
RTVSPost2010PropOp50
 70
     1
102
RTVSPost2010Prop51ColorIndex
 90
      256
102
RTVSPost2010Prop51ColorRGB
 90
-16777216
102
RTVSPost2010PropOp51
 70
     0
102
RTVSPost2010Prop52
140
1.0
102
RTVSPost2010PropOp52
 70
     0
102
RTVSPost2010Prop53
 90
        2
102
RTVSPost2010PropOp53
 70
     1
102
RTVSPost2010Prop54
  1
strokes_ogs.tif
102
RTVSPost2010PropOp54
 70
     1
102
RTVSPost2010Prop55
280
     0
102
RTVSPost2010PropOp55
 70
     1
102
RTVSPost2010Prop56
140
1.0
102
RTVSPost2010PropOp56
 70
     1
102
RTVSPost2010Prop57
140
1.0
102
RTVSPost2010PropOp57
 70
     1
  0
XRECORD
  5
310
102
{ACAD_REACTORS
330
30F
102
}
330
30F
100
AcDbXrecord
280
     1
102
RTVSPropertyOp0
 70
     0
102
RTVSPropertyOp1
 70
     0
102
RTVSPropertyOp2
 70
     0
102
RTVSPropertyOp3
 70
     0
102
RTVSPropertyOp4
 70
     0
102
RTVSPropertyOp5
 70
     0
102
RTVSPropertyOp6
 70
     0
102
RTVSPropertyOp7
 70
     0
102
RTVSPropertyOp8
 70
     0
102
RTVSPropertyOp9
 70
     0
102
RTVSPropertyOp10
 70
     0
102
RTVSPropertyOp11
 70
     0
102
RTVSPropertyOp12
 70
     0
102
RTVSPropertyOp13
 70
     0
102
RTVSPropertyOp14
 70
     2
102
RTVSPropertyOp15
 70
     0
102
RTVSPropertyOp16
 70
     0
102
RTVSPropertyOp17
 70
     0
102
RTVSPropertyOp18
 70
     0
102
RTVSPropertyOp19
 70
     0
102
RTVSPropertyOp20
 70
     0
102
RTVSPropertyOp21
 70
     0
102
RTVSPropertyOp22
 70
     0
102
RTVSPropertyOp23
 70
     0
102
RTVSPropertyOp24
 70
     0
102
RTVSPropertyOp25
 70
     0
102
RTVSPropertyOp26
 70
     0
102
RTVSPropertyOp27
 70
     0
102
RTVSPropertyOp28
 70
     0
102
RTVSPropertyOp29
 70
     0
102
RTVSPropertyOp30
 70
     0
102
RTVSPropertyOp31
 70
     0
102
RTVSPropertyOp32
 70
     0
102
RTVSPropertyOp33
 70
     0
102
RTVSPropertyOp34
 70
     0
102
RTVSPropertyOp35
 70
     0
102
RTVSPropertyOp36
 70
     0
102
RTVSPropertyOp37
 70
     0
102
RTVSPropertyOp38
 70
     0
102
RTVSPropertyOp39
 70
     0
102
RTVSPropertyOp40
 70
     0
102
RTVSPropertyOp41
 70
     0
102
RTVSPropertyOp42
 70
     0
102
RTVSPropertyOp43
 70
     0
102
RTVSPropertyOp44
 70
     0
102
RTVSPropertyOp45
 70
     0
102
RTVSPropertyOp46
 70
     0
102
RTVSPropertyOp47
 70
     0
102
RTVSPropertyOp48
 70
     0
102
RTVSPropertyOp49
 70
     0
102
RTVSPropertyOp50
 70
     0
102
RTVSPropertyOp51
 70
     0
102
RTVSPropertyOp52
 70
     0
102
RTVSPropertyOp53
 70
     0
102
RTVSPropertyOp54
 70
     0
102
RTVSPropertyOp55
 70
     0
102
RTVSPropertyOp56
 70
     0
102
RTVSPropertyOp57
 70
     0
102
RTVSPost2010Prop28
280
     0
102
RTVSPost2010PropOp28
 70
     0
102
RTVSPost2010Prop29
280
     1
102
RTVSPost2010PropOp29
 70
     0
102
RTVSPost2010Prop30
280
     1
102
RTVSPost2010PropOp30
 70
     0
102
RTVSPost2010Prop31
280
     0
102
RTVSPost2010PropOp31
 70
     0
102
RTVSPost2010Prop32
280
     0
102
RTVSPost2010PropOp32
 70
     0
102
RTVSPost2010Prop33
280
     0
102
RTVSPost2010PropOp33
 70
     0
102
RTVSPost2010Prop34
280
     0
102
RTVSPost2010PropOp34
 70
     0
102
RTVSPost2010Prop35
280
     0
102
RTVSPost2010PropOp35
 70
     0
102
RTVSPost2010Prop36
280
     0
102
RTVSPost2010PropOp36
 70
     0
102
RTVSPost2010Prop37
 90
       50
102
RTVSPost2010PropOp37
 70
     0
102
RTVSPost2010Prop38
140
0.0
102
RTVSPost2010PropOp38
 70
     0
102
RTVSPost2010Prop39
140
1.0
102
RTVSPost2010PropOp39
 70
     0
102
RTVSPost2010Prop40
 90
        0
102
RTVSPost2010PropOp40
 70
     0
102
RTVSPost2010Prop41ColorIndex
 90
       18
102
RTVSPost2010Prop41ColorRGB
 90
        0
102
RTVSPost2010PropOp41
 70
     0
102
RTVSPost2010Prop42
 90
       50
102
RTVSPost2010PropOp42
 70
     0
102
RTVSPost2010Prop43
 90
        3
102
RTVSPost2010PropOp43
 70
     0
102
RTVSPost2010Prop44ColorIndex
 90
        5
102
RTVSPost2010Prop44ColorRGB
 90
      255
102
RTVSPost2010PropOp44
 70
     0
102
RTVSPost2010Prop45
280
     0
102
RTVSPost2010PropOp45
 70
     0
102
RTVSPost2010Prop46
 90
       50
102
RTVSPost2010PropOp46
 70
     0
102
RTVSPost2010Prop47
 90
       50
102
RTVSPost2010PropOp47
 70
     0
102
RTVSPost2010Prop48
 90
       50
102
RTVSPost2010PropOp48
 70
     0
102
RTVSPost2010Prop49
280
     0
102
RTVSPost2010PropOp49
 70
     0
102
RTVSPost2010Prop50
 90
       50
102
RTVSPost2010PropOp50
 70
     0
102
RTVSPost2010Prop51ColorIndex
 90
      256
102
RTVSPost2010Prop51ColorRGB
 90
-16777216
102
RTVSPost2010PropOp51
 70
     0
102
RTVSPost2010Prop52
140
1.0
102
RTVSPost2010PropOp52
 70
     0
102
RTVSPost2010Prop53
 90
        2
102
RTVSPost2010PropOp53
 70
     0
102
RTVSPost2010Prop54
  1
strokes_ogs.tif
102
RTVSPost2010PropOp54
 70
     0
102
RTVSPost2010Prop55
280
     0
102
RTVSPost2010PropOp55
 70
     0
102
RTVSPost2010Prop56
140
1.0
102
RTVSPost2010PropOp56
 70
     0
102
RTVSPost2010Prop57
140
1.0
102
RTVSPost2010PropOp57
 70
     0
  0
XRECORD
  5
308
102
{ACAD_REACTORS
330
307
102
}
330
307
100
AcDbXrecord
280
     1
102
RTVSPropertyOp0
 70
     1
102
RTVSPropertyOp1
 70
     1
102
RTVSPropertyOp2
 70
     1
102
RTVSPropertyOp3
 70
     1
102
RTVSPropertyOp4
 70
     1
102
RTVSPropertyOp5
 70
     1
102
RTVSPropertyOp6
 70
     1
102
RTVSPropertyOp7
 70
     1
102
RTVSPropertyOp8
 70
     1
102
RTVSPropertyOp9
 70
     1
102
RTVSPropertyOp10
 70
     1
102
RTVSPropertyOp11
 70
     1
102
RTVSPropertyOp12
 70
     1
102
RTVSPropertyOp13
 70
     1
102
RTVSPropertyOp14
 70
     1
102
RTVSPropertyOp15
 70
     1
102
RTVSPropertyOp16
 70
     1
102
RTVSPropertyOp17
 70
     1
102
RTVSPropertyOp18
 70
     1
102
RTVSPropertyOp19
 70
     1
102
RTVSPropertyOp20
 70
     1
102
RTVSPropertyOp21
 70
     1
102
RTVSPropertyOp22
 70
     1
102
RTVSPropertyOp23
 70
     1
102
RTVSPropertyOp24
 70
     1
102
RTVSPropertyOp25
 70
     1
102
RTVSPropertyOp26
 70
     1
102
RTVSPropertyOp27
 70
     1
102
RTVSPropertyOp28
 70
     1
102
RTVSPropertyOp29
 70
     1
102
RTVSPropertyOp30
 70
     1
102
RTVSPropertyOp31
 70
     1
102
RTVSPropertyOp32
 70
     1
102
RTVSPropertyOp33
 70
     1
102
RTVSPropertyOp34
 70
     1
102
RTVSPropertyOp35
 70
     1
102
RTVSPropertyOp36
 70
     1
102
RTVSPropertyOp37
 70
     1
102
RTVSPropertyOp38
 70
     1
102
RTVSPropertyOp39
 70
     1
102
RTVSPropertyOp40
 70
     1
102
RTVSPropertyOp41
 70
     1
102
RTVSPropertyOp42
 70
     1
102
RTVSPropertyOp43
 70
     1
102
RTVSPropertyOp44
 70
     1
102
RTVSPropertyOp45
 70
     1
102
RTVSPropertyOp46
 70
     1
102
RTVSPropertyOp47
 70
     1
102
RTVSPropertyOp48
 70
     1
102
RTVSPropertyOp49
 70
     1
102
RTVSPropertyOp50
 70
     1
102
RTVSPropertyOp51
 70
     0
102
RTVSPropertyOp52
 70
     0
102
RTVSPropertyOp53
 70
     1
102
RTVSPropertyOp54
 70
     1
102
RTVSPropertyOp55
 70
     1
102
RTVSPropertyOp56
 70
     1
102
RTVSPropertyOp57
 70
     1
102
RTVSPost2010Prop28
280
     0
102
RTVSPost2010PropOp28
 70
     1
102
RTVSPost2010Prop29
280
     1
102
RTVSPost2010PropOp29
 70
     1
102
RTVSPost2010Prop30
280
     1
102
RTVSPost2010PropOp30
 70
     1
102
RTVSPost2010Prop31
280
     0
102
RTVSPost2010PropOp31
 70
     1
102
RTVSPost2010Prop32
280
     0
102
RTVSPost2010PropOp32
 70
     1
102
RTVSPost2010Prop33
280
     0
102
RTVSPost2010PropOp33
 70
     1
102
RTVSPost2010Prop34
280
     0
102
RTVSPost2010PropOp34
 70
     1
102
RTVSPost2010Prop35
280
     0
102
RTVSPost2010PropOp35
 70
     1
102
RTVSPost2010Prop36
280
     0
102
RTVSPost2010PropOp36
 70
     1
102
RTVSPost2010Prop37
 90
       50
102
RTVSPost2010PropOp37
 70
     1
102
RTVSPost2010Prop38
140
0.0
102
RTVSPost2010PropOp38
 70
     1
102
RTVSPost2010Prop39
140
1.0
102
RTVSPost2010PropOp39
 70
     1
102
RTVSPost2010Prop40
 90
        0
102
RTVSPost2010PropOp40
 70
     1
102
RTVSPost2010Prop41ColorIndex
 90
       18
102
RTVSPost2010Prop41ColorRGB
 90
        0
102
RTVSPost2010PropOp41
 70
     1
102
RTVSPost2010Prop42
 90
       50
102
RTVSPost2010PropOp42
 70
     1
102
RTVSPost2010Prop43
 90
        3
102
RTVSPost2010PropOp43
 70
     1
102
RTVSPost2010Prop44ColorIndex
 90
        5
102
RTVSPost2010Prop44ColorRGB
 90
      255
102
RTVSPost2010PropOp44
 70
     1
102
RTVSPost2010Prop45
280
     0
102
RTVSPost2010PropOp45
 70
     1
102
RTVSPost2010Prop46
 90
       50
102
RTVSPost2010PropOp46
 70
     1
102
RTVSPost2010Prop47
 90
       50
102
RTVSPost2010PropOp47
 70
     1
102
RTVSPost2010Prop48
 90
       50
102
RTVSPost2010PropOp48
 70
     1
102
RTVSPost2010Prop49
280
     0
102
RTVSPost2010PropOp49
 70
     1
102
RTVSPost2010Prop50
 90
       50
102
RTVSPost2010PropOp50
 70
     1
102
RTVSPost2010Prop51ColorIndex
 90
      256
102
RTVSPost2010Prop51ColorRGB
 90
-16777216
102
RTVSPost2010PropOp51
 70
     0
102
RTVSPost2010Prop52
140
1.0
102
RTVSPost2010PropOp52
 70
     0
102
RTVSPost2010Prop53
 90
        2
102
RTVSPost2010PropOp53
 70
     1
102
RTVSPost2010Prop54
  1
strokes_ogs.tif
102
RTVSPost2010PropOp54
 70
     1
102
RTVSPost2010Prop55
280
     0
102
RTVSPost2010PropOp55
 70
     1
102
RTVSPost2010Prop56
140
1.0
102
RTVSPost2010PropOp56
 70
     1
102
RTVSPost2010Prop57
140
1.0
102
RTVSPost2010PropOp57
 70
     1
  0
XRECORD
  5
2EC
102
{ACAD_REACTORS
330
2EB
102
}
330
2EB
100
AcDbXrecord
280
     1
102
RTVSPropertyOp0
 70
     1
102
RTVSPropertyOp1
 70
     1
102
RTVSPropertyOp2
 70
     1
102
RTVSPropertyOp3
 70
     1
102
RTVSPropertyOp4
 70
     1
102
RTVSPropertyOp5
 70
     1
102
RTVSPropertyOp6
 70
     1
102
RTVSPropertyOp7
 70
     1
102
RTVSPropertyOp8
 70
     1
102
RTVSPropertyOp9
 70
     1
102
RTVSPropertyOp10
 70
     1
102
RTVSPropertyOp11
 70
     1
102
RTVSPropertyOp12
 70
     1
102
RTVSPropertyOp13
 70
     1
102
RTVSPropertyOp14
 70
     1
102
RTVSPropertyOp15
 70
     1
102
RTVSPropertyOp16
 70
     1
102
RTVSPropertyOp17
 70
     1
102
RTVSPropertyOp18
 70
     1
102
RTVSPropertyOp19
 70
     1
102
RTVSPropertyOp20
 70
     1
102
RTVSPropertyOp21
 70
     1
102
RTVSPropertyOp22
 70
     1
102
RTVSPropertyOp23
 70
     1
102
RTVSPropertyOp24
 70
     1
102
RTVSPropertyOp25
 70
     1
102
RTVSPropertyOp26
 70
     1
102
RTVSPropertyOp27
 70
     1
102
RTVSPropertyOp28
 70
     1
102
RTVSPropertyOp29
 70
     1
102
RTVSPropertyOp30
 70
     1
102
RTVSPropertyOp31
 70
     1
102
RTVSPropertyOp32
 70
     1
102
RTVSPropertyOp33
 70
     1
102
RTVSPropertyOp34
 70
     1
102
RTVSPropertyOp35
 70
     1
102
RTVSPropertyOp36
 70
     1
102
RTVSPropertyOp37
 70
     1
102
RTVSPropertyOp38
 70
     1
102
RTVSPropertyOp39
 70
     1
102
RTVSPropertyOp40
 70
     1
102
RTVSPropertyOp41
 70
     1
102
RTVSPropertyOp42
 70
     1
102
RTVSPropertyOp43
 70
     1
102
RTVSPropertyOp44
 70
     1
102
RTVSPropertyOp45
 70
     1
102
RTVSPropertyOp46
 70
     1
102
RTVSPropertyOp47
 70
     1
102
RTVSPropertyOp48
 70
     1
102
RTVSPropertyOp49
 70
     1
102
RTVSPropertyOp50
 70
     1
102
RTVSPropertyOp51
 70
     0
102
RTVSPropertyOp52
 70
     0
102
RTVSPropertyOp53
 70
     1
102
RTVSPropertyOp54
 70
     1
102
RTVSPropertyOp55
 70
     1
102
RTVSPropertyOp56
 70
     1
102
RTVSPropertyOp57
 70
     1
102
RTVSPost2010Prop28
280
     0
102
RTVSPost2010PropOp28
 70
     1
102
RTVSPost2010Prop29
280
     1
102
RTVSPost2010PropOp29
 70
     1
102
RTVSPost2010Prop30
280
     1
102
RTVSPost2010PropOp30
 70
     1
102
RTVSPost2010Prop31
280
     0
102
RTVSPost2010PropOp31
 70
     1
102
RTVSPost2010Prop32
280
     0
102
RTVSPost2010PropOp32
 70
     1
102
RTVSPost2010Prop33
280
     0
102
RTVSPost2010PropOp33
 70
     1
102
RTVSPost2010Prop34
280
     0
102
RTVSPost2010PropOp34
 70
     1
102
RTVSPost2010Prop35
280
     0
102
RTVSPost2010PropOp35
 70
     1
102
RTVSPost2010Prop36
280
     0
102
RTVSPost2010PropOp36
 70
     1
102
RTVSPost2010Prop37
 90
       50
102
RTVSPost2010PropOp37
 70
     1
102
RTVSPost2010Prop38
140
0.0
102
RTVSPost2010PropOp38
 70
     1
102
RTVSPost2010Prop39
140
1.0
102
RTVSPost2010PropOp39
 70
     1
102
RTVSPost2010Prop40
 90
        0
102
RTVSPost2010PropOp40
 70
     1
102
RTVSPost2010Prop41ColorIndex
 90
       18
102
RTVSPost2010Prop41ColorRGB
 90
        0
102
RTVSPost2010PropOp41
 70
     1
102
RTVSPost2010Prop42
 90
       50
102
RTVSPost2010PropOp42
 70
     1
102
RTVSPost2010Prop43
 90
        3
102
RTVSPost2010PropOp43
 70
     1
102
RTVSPost2010Prop44ColorIndex
 90
        5
102
RTVSPost2010Prop44ColorRGB
 90
      255
102
RTVSPost2010PropOp44
 70
     1
102
RTVSPost2010Prop45
280
     0
102
RTVSPost2010PropOp45
 70
     1
102
RTVSPost2010Prop46
 90
       50
102
RTVSPost2010PropOp46
 70
     1
102
RTVSPost2010Prop47
 90
       50
102
RTVSPost2010PropOp47
 70
     1
102
RTVSPost2010Prop48
 90
       50
102
RTVSPost2010PropOp48
 70
     1
102
RTVSPost2010Prop49
280
     0
102
RTVSPost2010PropOp49
 70
     1
102
RTVSPost2010Prop50
 90
       50
102
RTVSPost2010PropOp50
 70
     1
102
RTVSPost2010Prop51ColorIndex
 90
      256
102
RTVSPost2010Prop51ColorRGB
 90
-16777216
102
RTVSPost2010PropOp51
 70
     0
102
RTVSPost2010Prop52
140
1.0
102
RTVSPost2010PropOp52
 70
     0
102
RTVSPost2010Prop53
 90
        2
102
RTVSPost2010PropOp53
 70
     1
102
RTVSPost2010Prop54
  1
strokes_ogs.tif
102
RTVSPost2010PropOp54
 70
     1
102
RTVSPost2010Prop55
280
     0
102
RTVSPost2010PropOp55
 70
     1
102
RTVSPost2010Prop56
140
1.0
102
RTVSPost2010PropOp56
 70
     1
102
RTVSPost2010Prop57
140
1.0
102
RTVSPost2010PropOp57
 70
     1
  0
XRECORD
  5
2EE
102
{ACAD_REACTORS
330
2ED
102
}
330
2ED
100
AcDbXrecord
280
     1
102
RTVSPropertyOp0
 70
     1
102
RTVSPropertyOp1
 70
     1
102
RTVSPropertyOp2
 70
     1
102
RTVSPropertyOp3
 70
     1
102
RTVSPropertyOp4
 70
     1
102
RTVSPropertyOp5
 70
     1
102
RTVSPropertyOp6
 70
     1
102
RTVSPropertyOp7
 70
     1
102
RTVSPropertyOp8
 70
     1
102
RTVSPropertyOp9
 70
     1
102
RTVSPropertyOp10
 70
     1
102
RTVSPropertyOp11
 70
     1
102
RTVSPropertyOp12
 70
     1
102
RTVSPropertyOp13
 70
     1
102
RTVSPropertyOp14
 70
     1
102
RTVSPropertyOp15
 70
     1
102
RTVSPropertyOp16
 70
     1
102
RTVSPropertyOp17
 70
     1
102
RTVSPropertyOp18
 70
     1
102
RTVSPropertyOp19
 70
     1
102
RTVSPropertyOp20
 70
     1
102
RTVSPropertyOp21
 70
     1
102
RTVSPropertyOp22
 70
     1
102
RTVSPropertyOp23
 70
     1
102
RTVSPropertyOp24
 70
     1
102
RTVSPropertyOp25
 70
     1
102
RTVSPropertyOp26
 70
     1
102
RTVSPropertyOp27
 70
     1
102
RTVSPropertyOp28
 70
     1
102
RTVSPropertyOp29
 70
     1
102
RTVSPropertyOp30
 70
     1
102
RTVSPropertyOp31
 70
     1
102
RTVSPropertyOp32
 70
     1
102
RTVSPropertyOp33
 70
     1
102
RTVSPropertyOp34
 70
     1
102
RTVSPropertyOp35
 70
     1
102
RTVSPropertyOp36
 70
     1
102
RTVSPropertyOp37
 70
     1
102
RTVSPropertyOp38
 70
     1
102
RTVSPropertyOp39
 70
     1
102
RTVSPropertyOp40
 70
     1
102
RTVSPropertyOp41
 70
     1
102
RTVSPropertyOp42
 70
     1
102
RTVSPropertyOp43
 70
     1
102
RTVSPropertyOp44
 70
     1
102
RTVSPropertyOp45
 70
     1
102
RTVSPropertyOp46
 70
     1
102
RTVSPropertyOp47
 70
     1
102
RTVSPropertyOp48
 70
     1
102
RTVSPropertyOp49
 70
     1
102
RTVSPropertyOp50
 70
     1
102
RTVSPropertyOp51
 70
     0
102
RTVSPropertyOp52
 70
     0
102
RTVSPropertyOp53
 70
     1
102
RTVSPropertyOp54
 70
     1
102
RTVSPropertyOp55
 70
     1
102
RTVSPropertyOp56
 70
     1
102
RTVSPropertyOp57
 70
     1
102
RTVSPost2010Prop28
280
     0
102
RTVSPost2010PropOp28
 70
     1
102
RTVSPost2010Prop29
280
     1
102
RTVSPost2010PropOp29
 70
     1
102
RTVSPost2010Prop30
280
     1
102
RTVSPost2010PropOp30
 70
     1
102
RTVSPost2010Prop31
280
     0
102
RTVSPost2010PropOp31
 70
     1
102
RTVSPost2010Prop32
280
     0
102
RTVSPost2010PropOp32
 70
     1
102
RTVSPost2010Prop33
280
     0
102
RTVSPost2010PropOp33
 70
     1
102
RTVSPost2010Prop34
280
     0
102
RTVSPost2010PropOp34
 70
     1
102
RTVSPost2010Prop35
280
     0
102
RTVSPost2010PropOp35
 70
     1
102
RTVSPost2010Prop36
280
     0
102
RTVSPost2010PropOp36
 70
     1
102
RTVSPost2010Prop37
 90
       50
102
RTVSPost2010PropOp37
 70
     1
102
RTVSPost2010Prop38
140
0.0
102
RTVSPost2010PropOp38
 70
     1
102
RTVSPost2010Prop39
140
1.0
102
RTVSPost2010PropOp39
 70
     1
102
RTVSPost2010Prop40
 90
        0
102
RTVSPost2010PropOp40
 70
     1
102
RTVSPost2010Prop41ColorIndex
 90
       18
102
RTVSPost2010Prop41ColorRGB
 90
        0
102
RTVSPost2010PropOp41
 70
     1
102
RTVSPost2010Prop42
 90
       50
102
RTVSPost2010PropOp42
 70
     1
102
RTVSPost2010Prop43
 90
        3
102
RTVSPost2010PropOp43
 70
     1
102
RTVSPost2010Prop44ColorIndex
 90
        5
102
RTVSPost2010Prop44ColorRGB
 90
      255
102
RTVSPost2010PropOp44
 70
     1
102
RTVSPost2010Prop45
280
     0
102
RTVSPost2010PropOp45
 70
     1
102
RTVSPost2010Prop46
 90
       50
102
RTVSPost2010PropOp46
 70
     1
102
RTVSPost2010Prop47
 90
       50
102
RTVSPost2010PropOp47
 70
     1
102
RTVSPost2010Prop48
 90
       50
102
RTVSPost2010PropOp48
 70
     1
102
RTVSPost2010Prop49
280
     0
102
RTVSPost2010PropOp49
 70
     1
102
RTVSPost2010Prop50
 90
       50
102
RTVSPost2010PropOp50
 70
     1
102
RTVSPost2010Prop51ColorIndex
 90
      256
102
RTVSPost2010Prop51ColorRGB
 90
-16777216
102
RTVSPost2010PropOp51
 70
     0
102
RTVSPost2010Prop52
140
1.0
102
RTVSPost2010PropOp52
 70
     0
102
RTVSPost2010Prop53
 90
        2
102
RTVSPost2010PropOp53
 70
     1
102
RTVSPost2010Prop54
  1
strokes_ogs.tif
102
RTVSPost2010PropOp54
 70
     1
102
RTVSPost2010Prop55
280
     0
102
RTVSPost2010PropOp55
 70
     1
102
RTVSPost2010Prop56
140
1.0
102
RTVSPost2010PropOp56
 70
     1
102
RTVSPost2010Prop57
140
1.0
102
RTVSPost2010PropOp57
 70
     1
  0
XRECORD
  5
2F0
102
{ACAD_REACTORS
330
2EF
102
}
330
2EF
100
AcDbXrecord
280
     1
102
RTVSPropertyOp0
 70
     1
102
RTVSPropertyOp1
 70
     1
102
RTVSPropertyOp2
 70
     1
102
RTVSPropertyOp3
 70
     1
102
RTVSPropertyOp4
 70
     1
102
RTVSPropertyOp5
 70
     1
102
RTVSPropertyOp6
 70
     1
102
RTVSPropertyOp7
 70
     1
102
RTVSPropertyOp8
 70
     1
102
RTVSPropertyOp9
 70
     1
102
RTVSPropertyOp10
 70
     1
102
RTVSPropertyOp11
 70
     1
102
RTVSPropertyOp12
 70
     1
102
RTVSPropertyOp13
 70
     1
102
RTVSPropertyOp14
 70
     1
102
RTVSPropertyOp15
 70
     1
102
RTVSPropertyOp16
 70
     1
102
RTVSPropertyOp17
 70
     1
102
RTVSPropertyOp18
 70
     1
102
RTVSPropertyOp19
 70
     1
102
RTVSPropertyOp20
 70
     1
102
RTVSPropertyOp21
 70
     1
102
RTVSPropertyOp22
 70
     1
102
RTVSPropertyOp23
 70
     1
102
RTVSPropertyOp24
 70
     1
102
RTVSPropertyOp25
 70
     1
102
RTVSPropertyOp26
 70
     1
102
RTVSPropertyOp27
 70
     1
102
RTVSPropertyOp28
 70
     1
102
RTVSPropertyOp29
 70
     1
102
RTVSPropertyOp30
 70
     1
102
RTVSPropertyOp31
 70
     1
102
RTVSPropertyOp32
 70
     1
102
RTVSPropertyOp33
 70
     1
102
RTVSPropertyOp34
 70
     1
102
RTVSPropertyOp35
 70
     1
102
RTVSPropertyOp36
 70
     1
102
RTVSPropertyOp37
 70
     1
102
RTVSPropertyOp38
 70
     1
102
RTVSPropertyOp39
 70
     1
102
RTVSPropertyOp40
 70
     1
102
RTVSPropertyOp41
 70
     1
102
RTVSPropertyOp42
 70
     1
102
RTVSPropertyOp43
 70
     1
102
RTVSPropertyOp44
 70
     1
102
RTVSPropertyOp45
 70
     1
102
RTVSPropertyOp46
 70
     1
102
RTVSPropertyOp47
 70
     1
102
RTVSPropertyOp48
 70
     1
102
RTVSPropertyOp49
 70
     1
102
RTVSPropertyOp50
 70
     1
102
RTVSPropertyOp51
 70
     0
102
RTVSPropertyOp52
 70
     0
102
RTVSPropertyOp53
 70
     1
102
RTVSPropertyOp54
 70
     1
102
RTVSPropertyOp55
 70
     1
102
RTVSPropertyOp56
 70
     1
102
RTVSPropertyOp57
 70
     1
102
RTVSPost2010Prop28
280
     0
102
RTVSPost2010PropOp28
 70
     1
102
RTVSPost2010Prop29
280
     1
102
RTVSPost2010PropOp29
 70
     1
102
RTVSPost2010Prop30
280
     1
102
RTVSPost2010PropOp30
 70
     1
102
RTVSPost2010Prop31
280
     0
102
RTVSPost2010PropOp31
 70
     1
102
RTVSPost2010Prop32
280
     0
102
RTVSPost2010PropOp32
 70
     1
102
RTVSPost2010Prop33
280
     0
102
RTVSPost2010PropOp33
 70
     1
102
RTVSPost2010Prop34
280
     0
102
RTVSPost2010PropOp34
 70
     1
102
RTVSPost2010Prop35
280
     0
102
RTVSPost2010PropOp35
 70
     1
102
RTVSPost2010Prop36
280
     0
102
RTVSPost2010PropOp36
 70
     1
102
RTVSPost2010Prop37
 90
       50
102
RTVSPost2010PropOp37
 70
     1
102
RTVSPost2010Prop38
140
0.0
102
RTVSPost2010PropOp38
 70
     1
102
RTVSPost2010Prop39
140
1.0
102
RTVSPost2010PropOp39
 70
     1
102
RTVSPost2010Prop40
 90
        0
102
RTVSPost2010PropOp40
 70
     1
102
RTVSPost2010Prop41ColorIndex
 90
       18
102
RTVSPost2010Prop41ColorRGB
 90
        0
102
RTVSPost2010PropOp41
 70
     1
102
RTVSPost2010Prop42
 90
       50
102
RTVSPost2010PropOp42
 70
     1
102
RTVSPost2010Prop43
 90
        3
102
RTVSPost2010PropOp43
 70
     1
102
RTVSPost2010Prop44ColorIndex
 90
        5
102
RTVSPost2010Prop44ColorRGB
 90
      255
102
RTVSPost2010PropOp44
 70
     1
102
RTVSPost2010Prop45
280
     0
102
RTVSPost2010PropOp45
 70
     1
102
RTVSPost2010Prop46
 90
       50
102
RTVSPost2010PropOp46
 70
     1
102
RTVSPost2010Prop47
 90
       50
102
RTVSPost2010PropOp47
 70
     1
102
RTVSPost2010Prop48
 90
       50
102
RTVSPost2010PropOp48
 70
     1
102
RTVSPost2010Prop49
280
     0
102
RTVSPost2010PropOp49
 70
     1
102
RTVSPost2010Prop50
 90
       50
102
RTVSPost2010PropOp50
 70
     1
102
RTVSPost2010Prop51ColorIndex
 90
      256
102
RTVSPost2010Prop51ColorRGB
 90
-16777216
102
RTVSPost2010PropOp51
 70
     0
102
RTVSPost2010Prop52
140
1.0
102
RTVSPost2010PropOp52
 70
     0
102
RTVSPost2010Prop53
 90
        2
102
RTVSPost2010PropOp53
 70
     1
102
RTVSPost2010Prop54
  1
strokes_ogs.tif
102
RTVSPost2010PropOp54
 70
     1
102
RTVSPost2010Prop55
280
     0
102
RTVSPost2010PropOp55
 70
     1
102
RTVSPost2010Prop56
140
1.0
102
RTVSPost2010PropOp56
 70
     1
102
RTVSPost2010Prop57
140
1.0
102
RTVSPost2010PropOp57
 70
     1
  0
XRECORD
  5
2F2
102
{ACAD_REACTORS
330
2F1
102
}
330
2F1
100
AcDbXrecord
280
     1
102
RTVSPropertyOp0
 70
     1
102
RTVSPropertyOp1
 70
     1
102
RTVSPropertyOp2
 70
     1
102
RTVSPropertyOp3
 70
     1
102
RTVSPropertyOp4
 70
     1
102
RTVSPropertyOp5
 70
     1
102
RTVSPropertyOp6
 70
     1
102
RTVSPropertyOp7
 70
     1
102
RTVSPropertyOp8
 70
     1
102
RTVSPropertyOp9
 70
     1
102
RTVSPropertyOp10
 70
     1
102
RTVSPropertyOp11
 70
     1
102
RTVSPropertyOp12
 70
     1
102
RTVSPropertyOp13
 70
     1
102
RTVSPropertyOp14
 70
     1
102
RTVSPropertyOp15
 70
     1
102
RTVSPropertyOp16
 70
     1
102
RTVSPropertyOp17
 70
     1
102
RTVSPropertyOp18
 70
     1
102
RTVSPropertyOp19
 70
     1
102
RTVSPropertyOp20
 70
     1
102
RTVSPropertyOp21
 70
     1
102
RTVSPropertyOp22
 70
     1
102
RTVSPropertyOp23
 70
     1
102
RTVSPropertyOp24
 70
     1
102
RTVSPropertyOp25
 70
     1
102
RTVSPropertyOp26
 70
     1
102
RTVSPropertyOp27
 70
     1
102
RTVSPropertyOp28
 70
     1
102
RTVSPropertyOp29
 70
     1
102
RTVSPropertyOp30
 70
     1
102
RTVSPropertyOp31
 70
     1
102
RTVSPropertyOp32
 70
     1
102
RTVSPropertyOp33
 70
     1
102
RTVSPropertyOp34
 70
     1
102
RTVSPropertyOp35
 70
     1
102
RTVSPropertyOp36
 70
     1
102
RTVSPropertyOp37
 70
     1
102
RTVSPropertyOp38
 70
     1
102
RTVSPropertyOp39
 70
     1
102
RTVSPropertyOp40
 70
     1
102
RTVSPropertyOp41
 70
     1
102
RTVSPropertyOp42
 70
     1
102
RTVSPropertyOp43
 70
     1
102
RTVSPropertyOp44
 70
     1
102
RTVSPropertyOp45
 70
     1
102
RTVSPropertyOp46
 70
     1
102
RTVSPropertyOp47
 70
     1
102
RTVSPropertyOp48
 70
     1
102
RTVSPropertyOp49
 70
     1
102
RTVSPropertyOp50
 70
     1
102
RTVSPropertyOp51
 70
     0
102
RTVSPropertyOp52
 70
     0
102
RTVSPropertyOp53
 70
     1
102
RTVSPropertyOp54
 70
     1
102
RTVSPropertyOp55
 70
     1
102
RTVSPropertyOp56
 70
     1
102
RTVSPropertyOp57
 70
     1
102
RTVSPost2010Prop28
280
     0
102
RTVSPost2010PropOp28
 70
     1
102
RTVSPost2010Prop29
280
     1
102
RTVSPost2010PropOp29
 70
     1
102
RTVSPost2010Prop30
280
     1
102
RTVSPost2010PropOp30
 70
     1
102
RTVSPost2010Prop31
280
     0
102
RTVSPost2010PropOp31
 70
     1
102
RTVSPost2010Prop32
280
     0
102
RTVSPost2010PropOp32
 70
     1
102
RTVSPost2010Prop33
280
     0
102
RTVSPost2010PropOp33
 70
     1
102
RTVSPost2010Prop34
280
     0
102
RTVSPost2010PropOp34
 70
     1
102
RTVSPost2010Prop35
280
     0
102
RTVSPost2010PropOp35
 70
     1
102
RTVSPost2010Prop36
280
     0
102
RTVSPost2010PropOp36
 70
     1
102
RTVSPost2010Prop37
 90
       50
102
RTVSPost2010PropOp37
 70
     1
102
RTVSPost2010Prop38
140
0.0
102
RTVSPost2010PropOp38
 70
     1
102
RTVSPost2010Prop39
140
1.0
102
RTVSPost2010PropOp39
 70
     1
102
RTVSPost2010Prop40
 90
        0
102
RTVSPost2010PropOp40
 70
     1
102
RTVSPost2010Prop41ColorIndex
 90
       18
102
RTVSPost2010Prop41ColorRGB
 90
        0
102
RTVSPost2010PropOp41
 70
     1
102
RTVSPost2010Prop42
 90
       50
102
RTVSPost2010PropOp42
 70
     1
102
RTVSPost2010Prop43
 90
        3
102
RTVSPost2010PropOp43
 70
     1
102
RTVSPost2010Prop44ColorIndex
 90
        5
102
RTVSPost2010Prop44ColorRGB
 90
      255
102
RTVSPost2010PropOp44
 70
     1
102
RTVSPost2010Prop45
280
     0
102
RTVSPost2010PropOp45
 70
     1
102
RTVSPost2010Prop46
 90
       50
102
RTVSPost2010PropOp46
 70
     1
102
RTVSPost2010Prop47
 90
       50
102
RTVSPost2010PropOp47
 70
     1
102
RTVSPost2010Prop48
 90
       50
102
RTVSPost2010PropOp48
 70
     1
102
RTVSPost2010Prop49
280
     0
102
RTVSPost2010PropOp49
 70
     1
102
RTVSPost2010Prop50
 90
       50
102
RTVSPost2010PropOp50
 70
     1
102
RTVSPost2010Prop51ColorIndex
 90
      256
102
RTVSPost2010Prop51ColorRGB
 90
-16777216
102
RTVSPost2010PropOp51
 70
     0
102
RTVSPost2010Prop52
140
1.0
102
RTVSPost2010PropOp52
 70
     0
102
RTVSPost2010Prop53
 90
        2
102
RTVSPost2010PropOp53
 70
     1
102
RTVSPost2010Prop54
  1
strokes_ogs.tif
102
RTVSPost2010PropOp54
 70
     1
102
RTVSPost2010Prop55
280
     0
102
RTVSPost2010PropOp55
 70
     1
102
RTVSPost2010Prop56
140
1.0
102
RTVSPost2010PropOp56
 70
     1
102
RTVSPost2010Prop57
140
1.0
102
RTVSPost2010PropOp57
 70
     1
  0
XRECORD
  5
2F8
102
{ACAD_REACTORS
330
2F7
102
}
330
2F7
100
AcDbXrecord
280
     1
102
RTVSPropertyOp0
 70
     1
102
RTVSPropertyOp1
 70
     1
102
RTVSPropertyOp2
 70
     1
102
RTVSPropertyOp3
 70
     1
102
RTVSPropertyOp4
 70
     1
102
RTVSPropertyOp5
 70
     1
102
RTVSPropertyOp6
 70
     1
102
RTVSPropertyOp7
 70
     1
102
RTVSPropertyOp8
 70
     1
102
RTVSPropertyOp9
 70
     1
102
RTVSPropertyOp10
 70
     1
102
RTVSPropertyOp11
 70
     1
102
RTVSPropertyOp12
 70
     1
102
RTVSPropertyOp13
 70
     1
102
RTVSPropertyOp14
 70
     1
102
RTVSPropertyOp15
 70
     1
102
RTVSPropertyOp16
 70
     1
102
RTVSPropertyOp17
 70
     1
102
RTVSPropertyOp18
 70
     1
102
RTVSPropertyOp19
 70
     1
102
RTVSPropertyOp20
 70
     1
102
RTVSPropertyOp21
 70
     1
102
RTVSPropertyOp22
 70
     1
102
RTVSPropertyOp23
 70
     1
102
RTVSPropertyOp24
 70
     1
102
RTVSPropertyOp25
 70
     1
102
RTVSPropertyOp26
 70
     1
102
RTVSPropertyOp27
 70
     1
102
RTVSPropertyOp28
 70
     1
102
RTVSPropertyOp29
 70
     1
102
RTVSPropertyOp30
 70
     1
102
RTVSPropertyOp31
 70
     1
102
RTVSPropertyOp32
 70
     1
102
RTVSPropertyOp33
 70
     1
102
RTVSPropertyOp34
 70
     1
102
RTVSPropertyOp35
 70
     1
102
RTVSPropertyOp36
 70
     1
102
RTVSPropertyOp37
 70
     1
102
RTVSPropertyOp38
 70
     1
102
RTVSPropertyOp39
 70
     1
102
RTVSPropertyOp40
 70
     1
102
RTVSPropertyOp41
 70
     1
102
RTVSPropertyOp42
 70
     1
102
RTVSPropertyOp43
 70
     1
102
RTVSPropertyOp44
 70
     1
102
RTVSPropertyOp45
 70
     1
102
RTVSPropertyOp46
 70
     1
102
RTVSPropertyOp47
 70
     1
102
RTVSPropertyOp48
 70
     1
102
RTVSPropertyOp49
 70
     1
102
RTVSPropertyOp50
 70
     1
102
RTVSPropertyOp51
 70
     0
102
RTVSPropertyOp52
 70
     0
102
RTVSPropertyOp53
 70
     1
102
RTVSPropertyOp54
 70
     1
102
RTVSPropertyOp55
 70
     1
102
RTVSPropertyOp56
 70
     1
102
RTVSPropertyOp57
 70
     1
102
RTVSPost2010Prop28
280
     0
102
RTVSPost2010PropOp28
 70
     1
102
RTVSPost2010Prop29
280
     1
102
RTVSPost2010PropOp29
 70
     1
102
RTVSPost2010Prop30
280
     1
102
RTVSPost2010PropOp30
 70
     1
102
RTVSPost2010Prop31
280
     0
102
RTVSPost2010PropOp31
 70
     1
102
RTVSPost2010Prop32
280
     0
102
RTVSPost2010PropOp32
 70
     1
102
RTVSPost2010Prop33
280
     0
102
RTVSPost2010PropOp33
 70
     1
102
RTVSPost2010Prop34
280
     0
102
RTVSPost2010PropOp34
 70
     1
102
RTVSPost2010Prop35
280
     0
102
RTVSPost2010PropOp35
 70
     1
102
RTVSPost2010Prop36
280
     0
102
RTVSPost2010PropOp36
 70
     1
102
RTVSPost2010Prop37
 90
       50
102
RTVSPost2010PropOp37
 70
     1
102
RTVSPost2010Prop38
140
0.0
102
RTVSPost2010PropOp38
 70
     1
102
RTVSPost2010Prop39
140
1.0
102
RTVSPost2010PropOp39
 70
     1
102
RTVSPost2010Prop40
 90
        0
102
RTVSPost2010PropOp40
 70
     1
102
RTVSPost2010Prop41ColorIndex
 90
       18
102
RTVSPost2010Prop41ColorRGB
 90
        0
102
RTVSPost2010PropOp41
 70
     1
102
RTVSPost2010Prop42
 90
       50
102
RTVSPost2010PropOp42
 70
     1
102
RTVSPost2010Prop43
 90
        3
102
RTVSPost2010PropOp43
 70
     1
102
RTVSPost2010Prop44ColorIndex
 90
        5
102
RTVSPost2010Prop44ColorRGB
 90
      255
102
RTVSPost2010PropOp44
 70
     1
102
RTVSPost2010Prop45
280
     0
102
RTVSPost2010PropOp45
 70
     1
102
RTVSPost2010Prop46
 90
       50
102
RTVSPost2010PropOp46
 70
     1
102
RTVSPost2010Prop47
 90
       50
102
RTVSPost2010PropOp47
 70
     1
102
RTVSPost2010Prop48
 90
       50
102
RTVSPost2010PropOp48
 70
     1
102
RTVSPost2010Prop49
280
     0
102
RTVSPost2010PropOp49
 70
     1
102
RTVSPost2010Prop50
 90
       50
102
RTVSPost2010PropOp50
 70
     1
102
RTVSPost2010Prop51ColorIndex
 90
      256
102
RTVSPost2010Prop51ColorRGB
 90
-16777216
102
RTVSPost2010PropOp51
 70
     0
102
RTVSPost2010Prop52
140
1.0
102
RTVSPost2010PropOp52
 70
     0
102
RTVSPost2010Prop53
 90
        2
102
RTVSPost2010PropOp53
 70
     1
102
RTVSPost2010Prop54
  1
strokes_ogs.tif
102
RTVSPost2010PropOp54
 70
     1
102
RTVSPost2010Prop55
280
     0
102
RTVSPost2010PropOp55
 70
     1
102
RTVSPost2010Prop56
140
1.0
102
RTVSPost2010PropOp56
 70
     1
102
RTVSPost2010Prop57
140
1.0
102
RTVSPost2010PropOp57
 70
     1
  0
XRECORD
  5
30C
102
{ACAD_REACTORS
330
30B
102
}
330
30B
100
AcDbXrecord
280
     1
102
RTVSPropertyOp0
 70
     0
102
RTVSPropertyOp1
 70
     0
102
RTVSPropertyOp2
 70
     0
102
RTVSPropertyOp3
 70
     0
102
RTVSPropertyOp4
 70
     0
102
RTVSPropertyOp5
 70
     0
102
RTVSPropertyOp6
 70
     0
102
RTVSPropertyOp7
 70
     0
102
RTVSPropertyOp8
 70
     0
102
RTVSPropertyOp9
 70
     0
102
RTVSPropertyOp10
 70
     0
102
RTVSPropertyOp11
 70
     0
102
RTVSPropertyOp12
 70
     0
102
RTVSPropertyOp13
 70
     0
102
RTVSPropertyOp14
 70
     2
102
RTVSPropertyOp15
 70
     0
102
RTVSPropertyOp16
 70
     0
102
RTVSPropertyOp17
 70
     0
102
RTVSPropertyOp18
 70
     0
102
RTVSPropertyOp19
 70
     0
102
RTVSPropertyOp20
 70
     0
102
RTVSPropertyOp21
 70
     0
102
RTVSPropertyOp22
 70
     0
102
RTVSPropertyOp23
 70
     0
102
RTVSPropertyOp24
 70
     0
102
RTVSPropertyOp25
 70
     0
102
RTVSPropertyOp26
 70
     0
102
RTVSPropertyOp27
 70
     0
102
RTVSPropertyOp28
 70
     0
102
RTVSPropertyOp29
 70
     0
102
RTVSPropertyOp30
 70
     0
102
RTVSPropertyOp31
 70
     0
102
RTVSPropertyOp32
 70
     0
102
RTVSPropertyOp33
 70
     0
102
RTVSPropertyOp34
 70
     0
102
RTVSPropertyOp35
 70
     0
102
RTVSPropertyOp36
 70
     0
102
RTVSPropertyOp37
 70
     0
102
RTVSPropertyOp38
 70
     0
102
RTVSPropertyOp39
 70
     0
102
RTVSPropertyOp40
 70
     0
102
RTVSPropertyOp41
 70
     0
102
RTVSPropertyOp42
 70
     0
102
RTVSPropertyOp43
 70
     0
102
RTVSPropertyOp44
 70
     0
102
RTVSPropertyOp45
 70
     0
102
RTVSPropertyOp46
 70
     0
102
RTVSPropertyOp47
 70
     0
102
RTVSPropertyOp48
 70
     0
102
RTVSPropertyOp49
 70
     0
102
RTVSPropertyOp50
 70
     0
102
RTVSPropertyOp51
 70
     0
102
RTVSPropertyOp52
 70
     0
102
RTVSPropertyOp53
 70
     0
102
RTVSPropertyOp54
 70
     0
102
RTVSPropertyOp55
 70
     0
102
RTVSPropertyOp56
 70
     0
102
RTVSPropertyOp57
 70
     0
102
RTVSPost2010Prop28
280
     0
102
RTVSPost2010PropOp28
 70
     0
102
RTVSPost2010Prop29
280
     1
102
RTVSPost2010PropOp29
 70
     0
102
RTVSPost2010Prop30
280
     1
102
RTVSPost2010PropOp30
 70
     0
102
RTVSPost2010Prop31
280
     0
102
RTVSPost2010PropOp31
 70
     0
102
RTVSPost2010Prop32
280
     0
102
RTVSPost2010PropOp32
 70
     0
102
RTVSPost2010Prop33
280
     0
102
RTVSPost2010PropOp33
 70
     0
102
RTVSPost2010Prop34
280
     0
102
RTVSPost2010PropOp34
 70
     0
102
RTVSPost2010Prop35
280
     0
102
RTVSPost2010PropOp35
 70
     0
102
RTVSPost2010Prop36
280
     0
102
RTVSPost2010PropOp36
 70
     0
102
RTVSPost2010Prop37
 90
       50
102
RTVSPost2010PropOp37
 70
     0
102
RTVSPost2010Prop38
140
0.0
102
RTVSPost2010PropOp38
 70
     0
102
RTVSPost2010Prop39
140
1.0
102
RTVSPost2010PropOp39
 70
     0
102
RTVSPost2010Prop40
 90
        0
102
RTVSPost2010PropOp40
 70
     0
102
RTVSPost2010Prop41ColorIndex
 90
       18
102
RTVSPost2010Prop41ColorRGB
 90
        0
102
RTVSPost2010PropOp41
 70
     0
102
RTVSPost2010Prop42
 90
       50
102
RTVSPost2010PropOp42
 70
     0
102
RTVSPost2010Prop43
 90
        3
102
RTVSPost2010PropOp43
 70
     0
102
RTVSPost2010Prop44ColorIndex
 90
        5
102
RTVSPost2010Prop44ColorRGB
 90
      255
102
RTVSPost2010PropOp44
 70
     0
102
RTVSPost2010Prop45
280
     0
102
RTVSPost2010PropOp45
 70
     0
102
RTVSPost2010Prop46
 90
       50
102
RTVSPost2010PropOp46
 70
     0
102
RTVSPost2010Prop47
 90
       50
102
RTVSPost2010PropOp47
 70
     0
102
RTVSPost2010Prop48
 90
       50
102
RTVSPost2010PropOp48
 70
     0
102
RTVSPost2010Prop49
280
     0
102
RTVSPost2010PropOp49
 70
     0
102
RTVSPost2010Prop50
 90
       50
102
RTVSPost2010PropOp50
 70
     0
102
RTVSPost2010Prop51ColorIndex
 90
      256
102
RTVSPost2010Prop51ColorRGB
 90
-16777216
102
RTVSPost2010PropOp51
 70
     0
102
RTVSPost2010Prop52
140
1.0
102
RTVSPost2010PropOp52
 70
     0
102
RTVSPost2010Prop53
 90
        2
102
RTVSPost2010PropOp53
 70
     0
102
RTVSPost2010Prop54
  1
strokes_ogs.tif
102
RTVSPost2010PropOp54
 70
     0
102
RTVSPost2010Prop55
280
     0
102
RTVSPost2010PropOp55
 70
     0
102
RTVSPost2010Prop56
140
1.0
102
RTVSPost2010PropOp56
 70
     0
102
RTVSPost2010Prop57
140
1.0
102
RTVSPost2010PropOp57
 70
     0
  0
XRECORD
  5
306
102
{ACAD_REACTORS
330
305
102
}
330
305
100
AcDbXrecord
280
     1
102
RTVSPropertyOp0
 70
     1
102
RTVSPropertyOp1
 70
     1
102
RTVSPropertyOp2
 70
     1
102
RTVSPropertyOp3
 70
     1
102
RTVSPropertyOp4
 70
     1
102
RTVSPropertyOp5
 70
     1
102
RTVSPropertyOp6
 70
     1
102
RTVSPropertyOp7
 70
     1
102
RTVSPropertyOp8
 70
     1
102
RTVSPropertyOp9
 70
     1
102
RTVSPropertyOp10
 70
     1
102
RTVSPropertyOp11
 70
     1
102
RTVSPropertyOp12
 70
     1
102
RTVSPropertyOp13
 70
     1
102
RTVSPropertyOp14
 70
     1
102
RTVSPropertyOp15
 70
     1
102
RTVSPropertyOp16
 70
     1
102
RTVSPropertyOp17
 70
     1
102
RTVSPropertyOp18
 70
     1
102
RTVSPropertyOp19
 70
     1
102
RTVSPropertyOp20
 70
     1
102
RTVSPropertyOp21
 70
     1
102
RTVSPropertyOp22
 70
     1
102
RTVSPropertyOp23
 70
     1
102
RTVSPropertyOp24
 70
     1
102
RTVSPropertyOp25
 70
     1
102
RTVSPropertyOp26
 70
     1
102
RTVSPropertyOp27
 70
     1
102
RTVSPropertyOp28
 70
     1
102
RTVSPropertyOp29
 70
     1
102
RTVSPropertyOp30
 70
     1
102
RTVSPropertyOp31
 70
     1
102
RTVSPropertyOp32
 70
     1
102
RTVSPropertyOp33
 70
     1
102
RTVSPropertyOp34
 70
     1
102
RTVSPropertyOp35
 70
     1
102
RTVSPropertyOp36
 70
     1
102
RTVSPropertyOp37
 70
     1
102
RTVSPropertyOp38
 70
     1
102
RTVSPropertyOp39
 70
     1
102
RTVSPropertyOp40
 70
     1
102
RTVSPropertyOp41
 70
     1
102
RTVSPropertyOp42
 70
     1
102
RTVSPropertyOp43
 70
     1
102
RTVSPropertyOp44
 70
     1
102
RTVSPropertyOp45
 70
     1
102
RTVSPropertyOp46
 70
     1
102
RTVSPropertyOp47
 70
     1
102
RTVSPropertyOp48
 70
     1
102
RTVSPropertyOp49
 70
     1
102
RTVSPropertyOp50
 70
     1
102
RTVSPropertyOp51
 70
     0
102
RTVSPropertyOp52
 70
     0
102
RTVSPropertyOp53
 70
     1
102
RTVSPropertyOp54
 70
     1
102
RTVSPropertyOp55
 70
     1
102
RTVSPropertyOp56
 70
     1
102
RTVSPropertyOp57
 70
     1
102
RTVSPost2010Prop28
280
     0
102
RTVSPost2010PropOp28
 70
     1
102
RTVSPost2010Prop29
280
     1
102
RTVSPost2010PropOp29
 70
     1
102
RTVSPost2010Prop30
280
     1
102
RTVSPost2010PropOp30
 70
     1
102
RTVSPost2010Prop31
280
     0
102
RTVSPost2010PropOp31
 70
     1
102
RTVSPost2010Prop32
280
     0
102
RTVSPost2010PropOp32
 70
     1
102
RTVSPost2010Prop33
280
     0
102
RTVSPost2010PropOp33
 70
     1
102
RTVSPost2010Prop34
280
     0
102
RTVSPost2010PropOp34
 70
     1
102
RTVSPost2010Prop35
280
     0
102
RTVSPost2010PropOp35
 70
     1
102
RTVSPost2010Prop36
280
     0
102
RTVSPost2010PropOp36
 70
     1
102
RTVSPost2010Prop37
 90
       50
102
RTVSPost2010PropOp37
 70
     1
102
RTVSPost2010Prop38
140
0.0
102
RTVSPost2010PropOp38
 70
     1
102
RTVSPost2010Prop39
140
1.0
102
RTVSPost2010PropOp39
 70
     1
102
RTVSPost2010Prop40
 90
        0
102
RTVSPost2010PropOp40
 70
     1
102
RTVSPost2010Prop41ColorIndex
 90
       18
102
RTVSPost2010Prop41ColorRGB
 90
        0
102
RTVSPost2010PropOp41
 70
     1
102
RTVSPost2010Prop42
 90
       50
102
RTVSPost2010PropOp42
 70
     1
102
RTVSPost2010Prop43
 90
        3
102
RTVSPost2010PropOp43
 70
     1
102
RTVSPost2010Prop44ColorIndex
 90
        5
102
RTVSPost2010Prop44ColorRGB
 90
      255
102
RTVSPost2010PropOp44
 70
     1
102
RTVSPost2010Prop45
280
     0
102
RTVSPost2010PropOp45
 70
     1
102
RTVSPost2010Prop46
 90
       50
102
RTVSPost2010PropOp46
 70
     1
102
RTVSPost2010Prop47
 90
       50
102
RTVSPost2010PropOp47
 70
     1
102
RTVSPost2010Prop48
 90
       50
102
RTVSPost2010PropOp48
 70
     1
102
RTVSPost2010Prop49
280
     0
102
RTVSPost2010PropOp49
 70
     1
102
RTVSPost2010Prop50
 90
       50
102
RTVSPost2010PropOp50
 70
     1
102
RTVSPost2010Prop51ColorIndex
 90
      256
102
RTVSPost2010Prop51ColorRGB
 90
-16777216
102
RTVSPost2010PropOp51
 70
     0
102
RTVSPost2010Prop52
140
1.0
102
RTVSPost2010PropOp52
 70
     0
102
RTVSPost2010Prop53
 90
        2
102
RTVSPost2010PropOp53
 70
     1
102
RTVSPost2010Prop54
  1
strokes_ogs.tif
102
RTVSPost2010PropOp54
 70
     1
102
RTVSPost2010Prop55
280
     0
102
RTVSPost2010PropOp55
 70
     1
102
RTVSPost2010Prop56
140
1.0
102
RTVSPost2010PropOp56
 70
     1
102
RTVSPost2010Prop57
140
1.0
102
RTVSPost2010PropOp57
 70
     1
  0
XRECORD
  5
30E
102
{ACAD_REACTORS
330
30D
102
}
330
30D
100
AcDbXrecord
280
     1
102
RTVSPropertyOp0
 70
     0
102
RTVSPropertyOp1
 70
     0
102
RTVSPropertyOp2
 70
     0
102
RTVSPropertyOp3
 70
     0
102
RTVSPropertyOp4
 70
     0
102
RTVSPropertyOp5
 70
     0
102
RTVSPropertyOp6
 70
     0
102
RTVSPropertyOp7
 70
     0
102
RTVSPropertyOp8
 70
     0
102
RTVSPropertyOp9
 70
     0
102
RTVSPropertyOp10
 70
     0
102
RTVSPropertyOp11
 70
     0
102
RTVSPropertyOp12
 70
     0
102
RTVSPropertyOp13
 70
     0
102
RTVSPropertyOp14
 70
     2
102
RTVSPropertyOp15
 70
     0
102
RTVSPropertyOp16
 70
     0
102
RTVSPropertyOp17
 70
     0
102
RTVSPropertyOp18
 70
     0
102
RTVSPropertyOp19
 70
     0
102
RTVSPropertyOp20
 70
     0
102
RTVSPropertyOp21
 70
     0
102
RTVSPropertyOp22
 70
     0
102
RTVSPropertyOp23
 70
     0
102
RTVSPropertyOp24
 70
     0
102
RTVSPropertyOp25
 70
     0
102
RTVSPropertyOp26
 70
     0
102
RTVSPropertyOp27
 70
     0
102
RTVSPropertyOp28
 70
     0
102
RTVSPropertyOp29
 70
     0
102
RTVSPropertyOp30
 70
     0
102
RTVSPropertyOp31
 70
     0
102
RTVSPropertyOp32
 70
     0
102
RTVSPropertyOp33
 70
     0
102
RTVSPropertyOp34
 70
     0
102
RTVSPropertyOp35
 70
     0
102
RTVSPropertyOp36
 70
     0
102
RTVSPropertyOp37
 70
     0
102
RTVSPropertyOp38
 70
     0
102
RTVSPropertyOp39
 70
     0
102
RTVSPropertyOp40
 70
     0
102
RTVSPropertyOp41
 70
     0
102
RTVSPropertyOp42
 70
     0
102
RTVSPropertyOp43
 70
     0
102
RTVSPropertyOp44
 70
     0
102
RTVSPropertyOp45
 70
     0
102
RTVSPropertyOp46
 70
     0
102
RTVSPropertyOp47
 70
     0
102
RTVSPropertyOp48
 70
     0
102
RTVSPropertyOp49
 70
     0
102
RTVSPropertyOp50
 70
     0
102
RTVSPropertyOp51
 70
     0
102
RTVSPropertyOp52
 70
     0
102
RTVSPropertyOp53
 70
     0
102
RTVSPropertyOp54
 70
     0
102
RTVSPropertyOp55
 70
     0
102
RTVSPropertyOp56
 70
     0
102
RTVSPropertyOp57
 70
     0
102
RTVSPost2010Prop28
280
     0
102
RTVSPost2010PropOp28
 70
     0
102
RTVSPost2010Prop29
280
     1
102
RTVSPost2010PropOp29
 70
     0
102
RTVSPost2010Prop30
280
     1
102
RTVSPost2010PropOp30
 70
     0
102
RTVSPost2010Prop31
280
     0
102
RTVSPost2010PropOp31
 70
     0
102
RTVSPost2010Prop32
280
     0
102
RTVSPost2010PropOp32
 70
     0
102
RTVSPost2010Prop33
280
     0
102
RTVSPost2010PropOp33
 70
     0
102
RTVSPost2010Prop34
280
     0
102
RTVSPost2010PropOp34
 70
     0
102
RTVSPost2010Prop35
280
     0
102
RTVSPost2010PropOp35
 70
     0
102
RTVSPost2010Prop36
280
     0
102
RTVSPost2010PropOp36
 70
     0
102
RTVSPost2010Prop37
 90
       50
102
RTVSPost2010PropOp37
 70
     0
102
RTVSPost2010Prop38
140
0.0
102
RTVSPost2010PropOp38
 70
     0
102
RTVSPost2010Prop39
140
1.0
102
RTVSPost2010PropOp39
 70
     0
102
RTVSPost2010Prop40
 90
        0
102
RTVSPost2010PropOp40
 70
     0
102
RTVSPost2010Prop41ColorIndex
 90
       18
102
RTVSPost2010Prop41ColorRGB
 90
        0
102
RTVSPost2010PropOp41
 70
     0
102
RTVSPost2010Prop42
 90
       50
102
RTVSPost2010PropOp42
 70
     0
102
RTVSPost2010Prop43
 90
        3
102
RTVSPost2010PropOp43
 70
     0
102
RTVSPost2010Prop44ColorIndex
 90
        5
102
RTVSPost2010Prop44ColorRGB
 90
      255
102
RTVSPost2010PropOp44
 70
     0
102
RTVSPost2010Prop45
280
     0
102
RTVSPost2010PropOp45
 70
     0
102
RTVSPost2010Prop46
 90
       50
102
RTVSPost2010PropOp46
 70
     0
102
RTVSPost2010Prop47
 90
       50
102
RTVSPost2010PropOp47
 70
     0
102
RTVSPost2010Prop48
 90
       50
102
RTVSPost2010PropOp48
 70
     0
102
RTVSPost2010Prop49
280
     0
102
RTVSPost2010PropOp49
 70
     0
102
RTVSPost2010Prop50
 90
       50
102
RTVSPost2010PropOp50
 70
     0
102
RTVSPost2010Prop51ColorIndex
 90
      256
102
RTVSPost2010Prop51ColorRGB
 90
-16777216
102
RTVSPost2010PropOp51
 70
     0
102
RTVSPost2010Prop52
140
1.0
102
RTVSPost2010PropOp52
 70
     0
102
RTVSPost2010Prop53
 90
        2
102
RTVSPost2010PropOp53
 70
     0
102
RTVSPost2010Prop54
  1
strokes_ogs.tif
102
RTVSPost2010PropOp54
 70
     0
102
RTVSPost2010Prop55
280
     0
102
RTVSPost2010PropOp55
 70
     0
102
RTVSPost2010Prop56
140
1.0
102
RTVSPost2010PropOp56
 70
     0
102
RTVSPost2010Prop57
140
1.0
102
RTVSPost2010PropOp57
 70
     0
  0
XRECORD
  5
2FC
102
{ACAD_REACTORS
330
2FB
102
}
330
2FB
100
AcDbXrecord
280
     1
102
RTVSPropertyOp0
 70
     1
102
RTVSPropertyOp1
 70
     1
102
RTVSPropertyOp2
 70
     1
102
RTVSPropertyOp3
 70
     1
102
RTVSPropertyOp4
 70
     1
102
RTVSPropertyOp5
 70
     1
102
RTVSPropertyOp6
 70
     1
102
RTVSPropertyOp7
 70
     1
102
RTVSPropertyOp8
 70
     1
102
RTVSPropertyOp9
 70
     1
102
RTVSPropertyOp10
 70
     1
102
RTVSPropertyOp11
 70
     1
102
RTVSPropertyOp12
 70
     1
102
RTVSPropertyOp13
 70
     1
102
RTVSPropertyOp14
 70
     1
102
RTVSPropertyOp15
 70
     1
102
RTVSPropertyOp16
 70
     1
102
RTVSPropertyOp17
 70
     1
102
RTVSPropertyOp18
 70
     1
102
RTVSPropertyOp19
 70
     1
102
RTVSPropertyOp20
 70
     1
102
RTVSPropertyOp21
 70
     1
102
RTVSPropertyOp22
 70
     1
102
RTVSPropertyOp23
 70
     1
102
RTVSPropertyOp24
 70
     1
102
RTVSPropertyOp25
 70
     1
102
RTVSPropertyOp26
 70
     1
102
RTVSPropertyOp27
 70
     1
102
RTVSPropertyOp28
 70
     1
102
RTVSPropertyOp29
 70
     1
102
RTVSPropertyOp30
 70
     1
102
RTVSPropertyOp31
 70
     1
102
RTVSPropertyOp32
 70
     1
102
RTVSPropertyOp33
 70
     1
102
RTVSPropertyOp34
 70
     1
102
RTVSPropertyOp35
 70
     1
102
RTVSPropertyOp36
 70
     1
102
RTVSPropertyOp37
 70
     1
102
RTVSPropertyOp38
 70
     1
102
RTVSPropertyOp39
 70
     1
102
RTVSPropertyOp40
 70
     1
102
RTVSPropertyOp41
 70
     1
102
RTVSPropertyOp42
 70
     1
102
RTVSPropertyOp43
 70
     1
102
RTVSPropertyOp44
 70
     1
102
RTVSPropertyOp45
 70
     1
102
RTVSPropertyOp46
 70
     1
102
RTVSPropertyOp47
 70
     1
102
RTVSPropertyOp48
 70
     1
102
RTVSPropertyOp49
 70
     1
102
RTVSPropertyOp50
 70
     1
102
RTVSPropertyOp51
 70
     0
102
RTVSPropertyOp52
 70
     0
102
RTVSPropertyOp53
 70
     1
102
RTVSPropertyOp54
 70
     1
102
RTVSPropertyOp55
 70
     1
102
RTVSPropertyOp56
 70
     1
102
RTVSPropertyOp57
 70
     1
102
RTVSPost2010Prop28
280
     0
102
RTVSPost2010PropOp28
 70
     1
102
RTVSPost2010Prop29
280
     1
102
RTVSPost2010PropOp29
 70
     1
102
RTVSPost2010Prop30
280
     1
102
RTVSPost2010PropOp30
 70
     1
102
RTVSPost2010Prop31
280
     0
102
RTVSPost2010PropOp31
 70
     1
102
RTVSPost2010Prop32
280
     0
102
RTVSPost2010PropOp32
 70
     1
102
RTVSPost2010Prop33
280
     0
102
RTVSPost2010PropOp33
 70
     1
102
RTVSPost2010Prop34
280
     0
102
RTVSPost2010PropOp34
 70
     1
102
RTVSPost2010Prop35
280
     0
102
RTVSPost2010PropOp35
 70
     1
102
RTVSPost2010Prop36
280
     0
102
RTVSPost2010PropOp36
 70
     1
102
RTVSPost2010Prop37
 90
       50
102
RTVSPost2010PropOp37
 70
     1
102
RTVSPost2010Prop38
140
0.0
102
RTVSPost2010PropOp38
 70
     1
102
RTVSPost2010Prop39
140
1.0
102
RTVSPost2010PropOp39
 70
     1
102
RTVSPost2010Prop40
 90
        0
102
RTVSPost2010PropOp40
 70
     1
102
RTVSPost2010Prop41ColorIndex
 90
       18
102
RTVSPost2010Prop41ColorRGB
 90
        0
102
RTVSPost2010PropOp41
 70
     1
102
RTVSPost2010Prop42
 90
       50
102
RTVSPost2010PropOp42
 70
     1
102
RTVSPost2010Prop43
 90
        3
102
RTVSPost2010PropOp43
 70
     1
102
RTVSPost2010Prop44ColorIndex
 90
        5
102
RTVSPost2010Prop44ColorRGB
 90
      255
102
RTVSPost2010PropOp44
 70
     1
102
RTVSPost2010Prop45
280
     0
102
RTVSPost2010PropOp45
 70
     1
102
RTVSPost2010Prop46
 90
       50
102
RTVSPost2010PropOp46
 70
     1
102
RTVSPost2010Prop47
 90
       50
102
RTVSPost2010PropOp47
 70
     1
102
RTVSPost2010Prop48
 90
       50
102
RTVSPost2010PropOp48
 70
     1
102
RTVSPost2010Prop49
280
     0
102
RTVSPost2010PropOp49
 70
     1
102
RTVSPost2010Prop50
 90
       50
102
RTVSPost2010PropOp50
 70
     1
102
RTVSPost2010Prop51ColorIndex
 90
      256
102
RTVSPost2010Prop51ColorRGB
 90
-16777216
102
RTVSPost2010PropOp51
 70
     0
102
RTVSPost2010Prop52
140
1.0
102
RTVSPost2010PropOp52
 70
     0
102
RTVSPost2010Prop53
 90
        2
102
RTVSPost2010PropOp53
 70
     1
102
RTVSPost2010Prop54
  1
strokes_ogs.tif
102
RTVSPost2010PropOp54
 70
     1
102
RTVSPost2010Prop55
280
     0
102
RTVSPost2010PropOp55
 70
     1
102
RTVSPost2010Prop56
140
1.0
102
RTVSPost2010PropOp56
 70
     1
102
RTVSPost2010Prop57
140
1.0
102
RTVSPost2010PropOp57
 70
     1
  0
XRECORD
  5
31A
102
{ACAD_REACTORS
330
319
102
}
330
319
100
AcDbXrecord
280
     1
102
RTVSPropertyOp0
 70
     1
102
RTVSPropertyOp1
 70
     1
102
RTVSPropertyOp2
 70
     1
102
RTVSPropertyOp3
 70
     1
102
RTVSPropertyOp4
 70
     1
102
RTVSPropertyOp5
 70
     1
102
RTVSPropertyOp6
 70
     1
102
RTVSPropertyOp7
 70
     1
102
RTVSPropertyOp8
 70
     1
102
RTVSPropertyOp9
 70
     1
102
RTVSPropertyOp10
 70
     1
102
RTVSPropertyOp11
 70
     1
102
RTVSPropertyOp12
 70
     1
102
RTVSPropertyOp13
 70
     1
102
RTVSPropertyOp14
 70
     1
102
RTVSPropertyOp15
 70
     1
102
RTVSPropertyOp16
 70
     1
102
RTVSPropertyOp17
 70
     1
102
RTVSPropertyOp18
 70
     1
102
RTVSPropertyOp19
 70
     1
102
RTVSPropertyOp20
 70
     1
102
RTVSPropertyOp21
 70
     1
102
RTVSPropertyOp22
 70
     1
102
RTVSPropertyOp23
 70
     1
102
RTVSPropertyOp24
 70
     1
102
RTVSPropertyOp25
 70
     1
102
RTVSPropertyOp26
 70
     1
102
RTVSPropertyOp27
 70
     1
102
RTVSPropertyOp28
 70
     1
102
RTVSPropertyOp29
 70
     1
102
RTVSPropertyOp30
 70
     1
102
RTVSPropertyOp31
 70
     1
102
RTVSPropertyOp32
 70
     1
102
RTVSPropertyOp33
 70
     1
102
RTVSPropertyOp34
 70
     1
102
RTVSPropertyOp35
 70
     1
102
RTVSPropertyOp36
 70
     1
102
RTVSPropertyOp37
 70
     1
102
RTVSPropertyOp38
 70
     1
102
RTVSPropertyOp39
 70
     1
102
RTVSPropertyOp40
 70
     1
102
RTVSPropertyOp41
 70
     1
102
RTVSPropertyOp42
 70
     1
102
RTVSPropertyOp43
 70
     1
102
RTVSPropertyOp44
 70
     1
102
RTVSPropertyOp45
 70
     1
102
RTVSPropertyOp46
 70
     1
102
RTVSPropertyOp47
 70
     1
102
RTVSPropertyOp48
 70
     1
102
RTVSPropertyOp49
 70
     1
102
RTVSPropertyOp50
 70
     1
102
RTVSPropertyOp51
 70
     0
102
RTVSPropertyOp52
 70
     0
102
RTVSPropertyOp53
 70
     1
102
RTVSPropertyOp54
 70
     1
102
RTVSPropertyOp55
 70
     1
102
RTVSPropertyOp56
 70
     1
102
RTVSPropertyOp57
 70
     1
102
RTVSPost2010Prop28
280
     0
102
RTVSPost2010PropOp28
 70
     1
102
RTVSPost2010Prop29
280
     1
102
RTVSPost2010PropOp29
 70
     1
102
RTVSPost2010Prop30
280
     1
102
RTVSPost2010PropOp30
 70
     1
102
RTVSPost2010Prop31
280
     0
102
RTVSPost2010PropOp31
 70
     1
102
RTVSPost2010Prop32
280
     0
102
RTVSPost2010PropOp32
 70
     1
102
RTVSPost2010Prop33
280
     0
102
RTVSPost2010PropOp33
 70
     1
102
RTVSPost2010Prop34
280
     0
102
RTVSPost2010PropOp34
 70
     1
102
RTVSPost2010Prop35
280
     0
102
RTVSPost2010PropOp35
 70
     1
102
RTVSPost2010Prop36
280
     0
102
RTVSPost2010PropOp36
 70
     1
102
RTVSPost2010Prop37
 90
       50
102
RTVSPost2010PropOp37
 70
     1
102
RTVSPost2010Prop38
140
0.0
102
RTVSPost2010PropOp38
 70
     1
102
RTVSPost2010Prop39
140
1.0
102
RTVSPost2010PropOp39
 70
     1
102
RTVSPost2010Prop40
 90
        0
102
RTVSPost2010PropOp40
 70
     1
102
RTVSPost2010Prop41ColorIndex
 90
       18
102
RTVSPost2010Prop41ColorRGB
 90
        0
102
RTVSPost2010PropOp41
 70
     1
102
RTVSPost2010Prop42
 90
       50
102
RTVSPost2010PropOp42
 70
     1
102
RTVSPost2010Prop43
 90
        3
102
RTVSPost2010PropOp43
 70
     1
102
RTVSPost2010Prop44ColorIndex
 90
        5
102
RTVSPost2010Prop44ColorRGB
 90
      255
102
RTVSPost2010PropOp44
 70
     1
102
RTVSPost2010Prop45
280
     0
102
RTVSPost2010PropOp45
 70
     1
102
RTVSPost2010Prop46
 90
       50
102
RTVSPost2010PropOp46
 70
     1
102
RTVSPost2010Prop47
 90
       50
102
RTVSPost2010PropOp47
 70
     1
102
RTVSPost2010Prop48
 90
       50
102
RTVSPost2010PropOp48
 70
     1
102
RTVSPost2010Prop49
280
     0
102
RTVSPost2010PropOp49
 70
     1
102
RTVSPost2010Prop50
 90
       50
102
RTVSPost2010PropOp50
 70
     1
102
RTVSPost2010Prop51ColorIndex
 90
      256
102
RTVSPost2010Prop51ColorRGB
 90
-16777216
102
RTVSPost2010PropOp51
 70
     0
102
RTVSPost2010Prop52
140
1.0
102
RTVSPost2010PropOp52
 70
     0
102
RTVSPost2010Prop53
 90
        2
102
RTVSPost2010PropOp53
 70
     1
102
RTVSPost2010Prop54
  1
strokes_ogs.tif
102
RTVSPost2010PropOp54
 70
     1
102
RTVSPost2010Prop55
280
     0
102
RTVSPost2010PropOp55
 70
     1
102
RTVSPost2010Prop56
140
1.0
102
RTVSPost2010PropOp56
 70
     1
102
RTVSPost2010Prop57
140
1.0
102
RTVSPost2010PropOp57
 70
     1
  0
XRECORD
  5
318
102
{ACAD_REACTORS
330
317
102
}
330
317
100
AcDbXrecord
280
     1
102
RTVSPropertyOp0
 70
     1
102
RTVSPropertyOp1
 70
     1
102
RTVSPropertyOp2
 70
     1
102
RTVSPropertyOp3
 70
     1
102
RTVSPropertyOp4
 70
     1
102
RTVSPropertyOp5
 70
     1
102
RTVSPropertyOp6
 70
     1
102
RTVSPropertyOp7
 70
     1
102
RTVSPropertyOp8
 70
     1
102
RTVSPropertyOp9
 70
     1
102
RTVSPropertyOp10
 70
     1
102
RTVSPropertyOp11
 70
     1
102
RTVSPropertyOp12
 70
     1
102
RTVSPropertyOp13
 70
     1
102
RTVSPropertyOp14
 70
     1
102
RTVSPropertyOp15
 70
     1
102
RTVSPropertyOp16
 70
     1
102
RTVSPropertyOp17
 70
     1
102
RTVSPropertyOp18
 70
     1
102
RTVSPropertyOp19
 70
     1
102
RTVSPropertyOp20
 70
     1
102
RTVSPropertyOp21
 70
     1
102
RTVSPropertyOp22
 70
     1
102
RTVSPropertyOp23
 70
     1
102
RTVSPropertyOp24
 70
     1
102
RTVSPropertyOp25
 70
     1
102
RTVSPropertyOp26
 70
     1
102
RTVSPropertyOp27
 70
     1
102
RTVSPropertyOp28
 70
     1
102
RTVSPropertyOp29
 70
     1
102
RTVSPropertyOp30
 70
     1
102
RTVSPropertyOp31
 70
     1
102
RTVSPropertyOp32
 70
     1
102
RTVSPropertyOp33
 70
     1
102
RTVSPropertyOp34
 70
     1
102
RTVSPropertyOp35
 70
     1
102
RTVSPropertyOp36
 70
     1
102
RTVSPropertyOp37
 70
     1
102
RTVSPropertyOp38
 70
     1
102
RTVSPropertyOp39
 70
     1
102
RTVSPropertyOp40
 70
     1
102
RTVSPropertyOp41
 70
     1
102
RTVSPropertyOp42
 70
     1
102
RTVSPropertyOp43
 70
     1
102
RTVSPropertyOp44
 70
     1
102
RTVSPropertyOp45
 70
     1
102
RTVSPropertyOp46
 70
     1
102
RTVSPropertyOp47
 70
     1
102
RTVSPropertyOp48
 70
     1
102
RTVSPropertyOp49
 70
     1
102
RTVSPropertyOp50
 70
     1
102
RTVSPropertyOp51
 70
     0
102
RTVSPropertyOp52
 70
     0
102
RTVSPropertyOp53
 70
     1
102
RTVSPropertyOp54
 70
     1
102
RTVSPropertyOp55
 70
     1
102
RTVSPropertyOp56
 70
     1
102
RTVSPropertyOp57
 70
     1
102
RTVSPost2010Prop28
280
     0
102
RTVSPost2010PropOp28
 70
     1
102
RTVSPost2010Prop29
280
     1
102
RTVSPost2010PropOp29
 70
     1
102
RTVSPost2010Prop30
280
     1
102
RTVSPost2010PropOp30
 70
     1
102
RTVSPost2010Prop31
280
     0
102
RTVSPost2010PropOp31
 70
     1
102
RTVSPost2010Prop32
280
     0
102
RTVSPost2010PropOp32
 70
     1
102
RTVSPost2010Prop33
280
     0
102
RTVSPost2010PropOp33
 70
     1
102
RTVSPost2010Prop34
280
     0
102
RTVSPost2010PropOp34
 70
     1
102
RTVSPost2010Prop35
280
     0
102
RTVSPost2010PropOp35
 70
     1
102
RTVSPost2010Prop36
280
     0
102
RTVSPost2010PropOp36
 70
     1
102
RTVSPost2010Prop37
 90
       50
102
RTVSPost2010PropOp37
 70
     1
102
RTVSPost2010Prop38
140
0.0
102
RTVSPost2010PropOp38
 70
     1
102
RTVSPost2010Prop39
140
1.0
102
RTVSPost2010PropOp39
 70
     1
102
RTVSPost2010Prop40
 90
        0
102
RTVSPost2010PropOp40
 70
     1
102
RTVSPost2010Prop41ColorIndex
 90
       18
102
RTVSPost2010Prop41ColorRGB
 90
        0
102
RTVSPost2010PropOp41
 70
     1
102
RTVSPost2010Prop42
 90
       50
102
RTVSPost2010PropOp42
 70
     1
102
RTVSPost2010Prop43
 90
        3
102
RTVSPost2010PropOp43
 70
     1
102
RTVSPost2010Prop44ColorIndex
 90
        5
102
RTVSPost2010Prop44ColorRGB
 90
      255
102
RTVSPost2010PropOp44
 70
     1
102
RTVSPost2010Prop45
280
     0
102
RTVSPost2010PropOp45
 70
     1
102
RTVSPost2010Prop46
 90
       50
102
RTVSPost2010PropOp46
 70
     1
102
RTVSPost2010Prop47
 90
       50
102
RTVSPost2010PropOp47
 70
     1
102
RTVSPost2010Prop48
 90
       50
102
RTVSPost2010PropOp48
 70
     1
102
RTVSPost2010Prop49
280
     0
102
RTVSPost2010PropOp49
 70
     1
102
RTVSPost2010Prop50
 90
       50
102
RTVSPost2010PropOp50
 70
     1
102
RTVSPost2010Prop51ColorIndex
 90
      256
102
RTVSPost2010Prop51ColorRGB
 90
-16777216
102
RTVSPost2010PropOp51
 70
     0
102
RTVSPost2010Prop52
140
1.0
102
RTVSPost2010PropOp52
 70
     0
102
RTVSPost2010Prop53
 90
        2
102
RTVSPost2010PropOp53
 70
     1
102
RTVSPost2010Prop54
  1
strokes_ogs.tif
102
RTVSPost2010PropOp54
 70
     1
102
RTVSPost2010Prop55
280
     0
102
RTVSPost2010PropOp55
 70
     1
102
RTVSPost2010Prop56
140
1.0
102
RTVSPost2010PropOp56
 70
     1
102
RTVSPost2010Prop57
140
1.0
102
RTVSPost2010PropOp57
 70
     1
  0
XRECORD
  5
312
102
{ACAD_REACTORS
330
311
102
}
330
311
100
AcDbXrecord
280
     1
102
RTVSPropertyOp0
 70
     1
102
RTVSPropertyOp1
 70
     1
102
RTVSPropertyOp2
 70
     1
102
RTVSPropertyOp3
 70
     1
102
RTVSPropertyOp4
 70
     1
102
RTVSPropertyOp5
 70
     1
102
RTVSPropertyOp6
 70
     1
102
RTVSPropertyOp7
 70
     1
102
RTVSPropertyOp8
 70
     1
102
RTVSPropertyOp9
 70
     1
102
RTVSPropertyOp10
 70
     1
102
RTVSPropertyOp11
 70
     1
102
RTVSPropertyOp12
 70
     1
102
RTVSPropertyOp13
 70
     1
102
RTVSPropertyOp14
 70
     1
102
RTVSPropertyOp15
 70
     1
102
RTVSPropertyOp16
 70
     1
102
RTVSPropertyOp17
 70
     1
102
RTVSPropertyOp18
 70
     1
102
RTVSPropertyOp19
 70
     1
102
RTVSPropertyOp20
 70
     1
102
RTVSPropertyOp21
 70
     1
102
RTVSPropertyOp22
 70
     1
102
RTVSPropertyOp23
 70
     1
102
RTVSPropertyOp24
 70
     1
102
RTVSPropertyOp25
 70
     1
102
RTVSPropertyOp26
 70
     1
102
RTVSPropertyOp27
 70
     1
102
RTVSPropertyOp28
 70
     1
102
RTVSPropertyOp29
 70
     1
102
RTVSPropertyOp30
 70
     1
102
RTVSPropertyOp31
 70
     1
102
RTVSPropertyOp32
 70
     1
102
RTVSPropertyOp33
 70
     1
102
RTVSPropertyOp34
 70
     1
102
RTVSPropertyOp35
 70
     1
102
RTVSPropertyOp36
 70
     1
102
RTVSPropertyOp37
 70
     1
102
RTVSPropertyOp38
 70
     1
102
RTVSPropertyOp39
 70
     1
102
RTVSPropertyOp40
 70
     1
102
RTVSPropertyOp41
 70
     1
102
RTVSPropertyOp42
 70
     1
102
RTVSPropertyOp43
 70
     1
102
RTVSPropertyOp44
 70
     1
102
RTVSPropertyOp45
 70
     1
102
RTVSPropertyOp46
 70
     1
102
RTVSPropertyOp47
 70
     1
102
RTVSPropertyOp48
 70
     1
102
RTVSPropertyOp49
 70
     1
102
RTVSPropertyOp50
 70
     1
102
RTVSPropertyOp51
 70
     0
102
RTVSPropertyOp52
 70
     0
102
RTVSPropertyOp53
 70
     1
102
RTVSPropertyOp54
 70
     1
102
RTVSPropertyOp55
 70
     1
102
RTVSPropertyOp56
 70
     1
102
RTVSPropertyOp57
 70
     1
102
RTVSPost2010Prop28
280
     0
102
RTVSPost2010PropOp28
 70
     1
102
RTVSPost2010Prop29
280
     1
102
RTVSPost2010PropOp29
 70
     1
102
RTVSPost2010Prop30
280
     1
102
RTVSPost2010PropOp30
 70
     1
102
RTVSPost2010Prop31
280
     0
102
RTVSPost2010PropOp31
 70
     1
102
RTVSPost2010Prop32
280
     0
102
RTVSPost2010PropOp32
 70
     1
102
RTVSPost2010Prop33
280
     0
102
RTVSPost2010PropOp33
 70
     1
102
RTVSPost2010Prop34
280
     0
102
RTVSPost2010PropOp34
 70
     1
102
RTVSPost2010Prop35
280
     0
102
RTVSPost2010PropOp35
 70
     1
102
RTVSPost2010Prop36
280
     0
102
RTVSPost2010PropOp36
 70
     1
102
RTVSPost2010Prop37
 90
       50
102
RTVSPost2010PropOp37
 70
     1
102
RTVSPost2010Prop38
140
0.0
102
RTVSPost2010PropOp38
 70
     1
102
RTVSPost2010Prop39
140
1.0
102
RTVSPost2010PropOp39
 70
     1
102
RTVSPost2010Prop40
 90
        0
102
RTVSPost2010PropOp40
 70
     1
102
RTVSPost2010Prop41ColorIndex
 90
       18
102
RTVSPost2010Prop41ColorRGB
 90
        0
102
RTVSPost2010PropOp41
 70
     1
102
RTVSPost2010Prop42
 90
       50
102
RTVSPost2010PropOp42
 70
     1
102
RTVSPost2010Prop43
 90
        3
102
RTVSPost2010PropOp43
 70
     1
102
RTVSPost2010Prop44ColorIndex
 90
        5
102
RTVSPost2010Prop44ColorRGB
 90
      255
102
RTVSPost2010PropOp44
 70
     1
102
RTVSPost2010Prop45
280
     0
102
RTVSPost2010PropOp45
 70
     1
102
RTVSPost2010Prop46
 90
       50
102
RTVSPost2010PropOp46
 70
     1
102
RTVSPost2010Prop47
 90
       50
102
RTVSPost2010PropOp47
 70
     1
102
RTVSPost2010Prop48
 90
       50
102
RTVSPost2010PropOp48
 70
     1
102
RTVSPost2010Prop49
280
     0
102
RTVSPost2010PropOp49
 70
     1
102
RTVSPost2010Prop50
 90
       50
102
RTVSPost2010PropOp50
 70
     1
102
RTVSPost2010Prop51ColorIndex
 90
      256
102
RTVSPost2010Prop51ColorRGB
 90
-16777216
102
RTVSPost2010PropOp51
 70
     0
102
RTVSPost2010Prop52
140
1.0
102
RTVSPost2010PropOp52
 70
     0
102
RTVSPost2010Prop53
 90
        2
102
RTVSPost2010PropOp53
 70
     1
102
RTVSPost2010Prop54
  1
strokes_ogs.tif
102
RTVSPost2010PropOp54
 70
     1
102
RTVSPost2010Prop55
280
     0
102
RTVSPost2010PropOp55
 70
     1
102
RTVSPost2010Prop56
140
1.0
102
RTVSPost2010PropOp56
 70
     1
102
RTVSPost2010Prop57
140
1.0
102
RTVSPost2010PropOp57
 70
     1
  0
XRECORD
  5
314
102
{ACAD_REACTORS
330
313
102
}
330
313
100
AcDbXrecord
280
     1
102
RTVSPropertyOp0
 70
     1
102
RTVSPropertyOp1
 70
     1
102
RTVSPropertyOp2
 70
     1
102
RTVSPropertyOp3
 70
     1
102
RTVSPropertyOp4
 70
     1
102
RTVSPropertyOp5
 70
     1
102
RTVSPropertyOp6
 70
     1
102
RTVSPropertyOp7
 70
     1
102
RTVSPropertyOp8
 70
     1
102
RTVSPropertyOp9
 70
     1
102
RTVSPropertyOp10
 70
     1
102
RTVSPropertyOp11
 70
     1
102
RTVSPropertyOp12
 70
     1
102
RTVSPropertyOp13
 70
     1
102
RTVSPropertyOp14
 70
     1
102
RTVSPropertyOp15
 70
     1
102
RTVSPropertyOp16
 70
     1
102
RTVSPropertyOp17
 70
     1
102
RTVSPropertyOp18
 70
     1
102
RTVSPropertyOp19
 70
     1
102
RTVSPropertyOp20
 70
     1
102
RTVSPropertyOp21
 70
     1
102
RTVSPropertyOp22
 70
     1
102
RTVSPropertyOp23
 70
     1
102
RTVSPropertyOp24
 70
     1
102
RTVSPropertyOp25
 70
     1
102
RTVSPropertyOp26
 70
     1
102
RTVSPropertyOp27
 70
     1
102
RTVSPropertyOp28
 70
     1
102
RTVSPropertyOp29
 70
     1
102
RTVSPropertyOp30
 70
     1
102
RTVSPropertyOp31
 70
     1
102
RTVSPropertyOp32
 70
     1
102
RTVSPropertyOp33
 70
     1
102
RTVSPropertyOp34
 70
     1
102
RTVSPropertyOp35
 70
     1
102
RTVSPropertyOp36
 70
     1
102
RTVSPropertyOp37
 70
     1
102
RTVSPropertyOp38
 70
     1
102
RTVSPropertyOp39
 70
     1
102
RTVSPropertyOp40
 70
     1
102
RTVSPropertyOp41
 70
     1
102
RTVSPropertyOp42
 70
     1
102
RTVSPropertyOp43
 70
     1
102
RTVSPropertyOp44
 70
     1
102
RTVSPropertyOp45
 70
     1
102
RTVSPropertyOp46
 70
     1
102
RTVSPropertyOp47
 70
     1
102
RTVSPropertyOp48
 70
     1
102
RTVSPropertyOp49
 70
     1
102
RTVSPropertyOp50
 70
     1
102
RTVSPropertyOp51
 70
     0
102
RTVSPropertyOp52
 70
     0
102
RTVSPropertyOp53
 70
     1
102
RTVSPropertyOp54
 70
     1
102
RTVSPropertyOp55
 70
     1
102
RTVSPropertyOp56
 70
     1
102
RTVSPropertyOp57
 70
     1
102
RTVSPost2010Prop28
280
     0
102
RTVSPost2010PropOp28
 70
     1
102
RTVSPost2010Prop29
280
     1
102
RTVSPost2010PropOp29
 70
     1
102
RTVSPost2010Prop30
280
     1
102
RTVSPost2010PropOp30
 70
     1
102
RTVSPost2010Prop31
280
     0
102
RTVSPost2010PropOp31
 70
     1
102
RTVSPost2010Prop32
280
     0
102
RTVSPost2010PropOp32
 70
     1
102
RTVSPost2010Prop33
280
     0
102
RTVSPost2010PropOp33
 70
     1
102
RTVSPost2010Prop34
280
     0
102
RTVSPost2010PropOp34
 70
     1
102
RTVSPost2010Prop35
280
     0
102
RTVSPost2010PropOp35
 70
     1
102
RTVSPost2010Prop36
280
     0
102
RTVSPost2010PropOp36
 70
     1
102
RTVSPost2010Prop37
 90
       50
102
RTVSPost2010PropOp37
 70
     1
102
RTVSPost2010Prop38
140
0.0
102
RTVSPost2010PropOp38
 70
     1
102
RTVSPost2010Prop39
140
1.0
102
RTVSPost2010PropOp39
 70
     1
102
RTVSPost2010Prop40
 90
        0
102
RTVSPost2010PropOp40
 70
     1
102
RTVSPost2010Prop41ColorIndex
 90
       18
102
RTVSPost2010Prop41ColorRGB
 90
        0
102
RTVSPost2010PropOp41
 70
     1
102
RTVSPost2010Prop42
 90
       50
102
RTVSPost2010PropOp42
 70
     1
102
RTVSPost2010Prop43
 90
        3
102
RTVSPost2010PropOp43
 70
     1
102
RTVSPost2010Prop44ColorIndex
 90
        5
102
RTVSPost2010Prop44ColorRGB
 90
      255
102
RTVSPost2010PropOp44
 70
     1
102
RTVSPost2010Prop45
280
     0
102
RTVSPost2010PropOp45
 70
     1
102
RTVSPost2010Prop46
 90
       50
102
RTVSPost2010PropOp46
 70
     1
102
RTVSPost2010Prop47
 90
       50
102
RTVSPost2010PropOp47
 70
     1
102
RTVSPost2010Prop48
 90
       50
102
RTVSPost2010PropOp48
 70
     1
102
RTVSPost2010Prop49
280
     0
102
RTVSPost2010PropOp49
 70
     1
102
RTVSPost2010Prop50
 90
       50
102
RTVSPost2010PropOp50
 70
     1
102
RTVSPost2010Prop51ColorIndex
 90
      256
102
RTVSPost2010Prop51ColorRGB
 90
-16777216
102
RTVSPost2010PropOp51
 70
     0
102
RTVSPost2010Prop52
140
1.0
102
RTVSPost2010PropOp52
 70
     0
102
RTVSPost2010Prop53
 90
        2
102
RTVSPost2010PropOp53
 70
     1
102
RTVSPost2010Prop54
  1
strokes_ogs.tif
102
RTVSPost2010PropOp54
 70
     1
102
RTVSPost2010Prop55
280
     0
102
RTVSPost2010PropOp55
 70
     1
102
RTVSPost2010Prop56
140
1.0
102
RTVSPost2010PropOp56
 70
     1
102
RTVSPost2010Prop57
140
1.0
102
RTVSPost2010PropOp57
 70
     1
  0
XRECORD
  5
304
102
{ACAD_REACTORS
330
303
102
}
330
303
100
AcDbXrecord
280
     1
102
RTVSPropertyOp0
 70
     1
102
RTVSPropertyOp1
 70
     1
102
RTVSPropertyOp2
 70
     1
102
RTVSPropertyOp3
 70
     1
102
RTVSPropertyOp4
 70
     1
102
RTVSPropertyOp5
 70
     1
102
RTVSPropertyOp6
 70
     1
102
RTVSPropertyOp7
 70
     1
102
RTVSPropertyOp8
 70
     1
102
RTVSPropertyOp9
 70
     1
102
RTVSPropertyOp10
 70
     1
102
RTVSPropertyOp11
 70
     1
102
RTVSPropertyOp12
 70
     1
102
RTVSPropertyOp13
 70
     1
102
RTVSPropertyOp14
 70
     1
102
RTVSPropertyOp15
 70
     1
102
RTVSPropertyOp16
 70
     1
102
RTVSPropertyOp17
 70
     1
102
RTVSPropertyOp18
 70
     1
102
RTVSPropertyOp19
 70
     1
102
RTVSPropertyOp20
 70
     1
102
RTVSPropertyOp21
 70
     1
102
RTVSPropertyOp22
 70
     1
102
RTVSPropertyOp23
 70
     1
102
RTVSPropertyOp24
 70
     1
102
RTVSPropertyOp25
 70
     1
102
RTVSPropertyOp26
 70
     1
102
RTVSPropertyOp27
 70
     1
102
RTVSPropertyOp28
 70
     1
102
RTVSPropertyOp29
 70
     1
102
RTVSPropertyOp30
 70
     1
102
RTVSPropertyOp31
 70
     1
102
RTVSPropertyOp32
 70
     1
102
RTVSPropertyOp33
 70
     1
102
RTVSPropertyOp34
 70
     1
102
RTVSPropertyOp35
 70
     1
102
RTVSPropertyOp36
 70
     1
102
RTVSPropertyOp37
 70
     1
102
RTVSPropertyOp38
 70
     1
102
RTVSPropertyOp39
 70
     1
102
RTVSPropertyOp40
 70
     1
102
RTVSPropertyOp41
 70
     1
102
RTVSPropertyOp42
 70
     1
102
RTVSPropertyOp43
 70
     1
102
RTVSPropertyOp44
 70
     1
102
RTVSPropertyOp45
 70
     1
102
RTVSPropertyOp46
 70
     1
102
RTVSPropertyOp47
 70
     1
102
RTVSPropertyOp48
 70
     1
102
RTVSPropertyOp49
 70
     1
102
RTVSPropertyOp50
 70
     1
102
RTVSPropertyOp51
 70
     0
102
RTVSPropertyOp52
 70
     0
102
RTVSPropertyOp53
 70
     1
102
RTVSPropertyOp54
 70
     1
102
RTVSPropertyOp55
 70
     1
102
RTVSPropertyOp56
 70
     1
102
RTVSPropertyOp57
 70
     1
102
RTVSPost2010Prop28
280
     0
102
RTVSPost2010PropOp28
 70
     1
102
RTVSPost2010Prop29
280
     1
102
RTVSPost2010PropOp29
 70
     1
102
RTVSPost2010Prop30
280
     1
102
RTVSPost2010PropOp30
 70
     1
102
RTVSPost2010Prop31
280
     0
102
RTVSPost2010PropOp31
 70
     1
102
RTVSPost2010Prop32
280
     0
102
RTVSPost2010PropOp32
 70
     1
102
RTVSPost2010Prop33
280
     0
102
RTVSPost2010PropOp33
 70
     1
102
RTVSPost2010Prop34
280
     0
102
RTVSPost2010PropOp34
 70
     1
102
RTVSPost2010Prop35
280
     0
102
RTVSPost2010PropOp35
 70
     1
102
RTVSPost2010Prop36
280
     0
102
RTVSPost2010PropOp36
 70
     1
102
RTVSPost2010Prop37
 90
       50
102
RTVSPost2010PropOp37
 70
     1
102
RTVSPost2010Prop38
140
0.0
102
RTVSPost2010PropOp38
 70
     1
102
RTVSPost2010Prop39
140
1.0
102
RTVSPost2010PropOp39
 70
     1
102
RTVSPost2010Prop40
 90
        0
102
RTVSPost2010PropOp40
 70
     1
102
RTVSPost2010Prop41ColorIndex
 90
       18
102
RTVSPost2010Prop41ColorRGB
 90
        0
102
RTVSPost2010PropOp41
 70
     1
102
RTVSPost2010Prop42
 90
       50
102
RTVSPost2010PropOp42
 70
     1
102
RTVSPost2010Prop43
 90
        3
102
RTVSPost2010PropOp43
 70
     1
102
RTVSPost2010Prop44ColorIndex
 90
        5
102
RTVSPost2010Prop44ColorRGB
 90
      255
102
RTVSPost2010PropOp44
 70
     1
102
RTVSPost2010Prop45
280
     0
102
RTVSPost2010PropOp45
 70
     1
102
RTVSPost2010Prop46
 90
       50
102
RTVSPost2010PropOp46
 70
     1
102
RTVSPost2010Prop47
 90
       50
102
RTVSPost2010PropOp47
 70
     1
102
RTVSPost2010Prop48
 90
       50
102
RTVSPost2010PropOp48
 70
     1
102
RTVSPost2010Prop49
280
     0
102
RTVSPost2010PropOp49
 70
     1
102
RTVSPost2010Prop50
 90
       50
102
RTVSPost2010PropOp50
 70
     1
102
RTVSPost2010Prop51ColorIndex
 90
      256
102
RTVSPost2010Prop51ColorRGB
 90
-16777216
102
RTVSPost2010PropOp51
 70
     0
102
RTVSPost2010Prop52
140
1.0
102
RTVSPost2010PropOp52
 70
     0
102
RTVSPost2010Prop53
 90
        2
102
RTVSPost2010PropOp53
 70
     1
102
RTVSPost2010Prop54
  1
strokes_ogs.tif
102
RTVSPost2010PropOp54
 70
     1
102
RTVSPost2010Prop55
280
     0
102
RTVSPost2010PropOp55
 70
     1
102
RTVSPost2010Prop56
140
1.0
102
RTVSPost2010PropOp56
 70
     1
102
RTVSPost2010Prop57
140
1.0
102
RTVSPost2010PropOp57
 70
     1
  0
XRECORD
  5
2F6
102
{ACAD_REACTORS
330
2F5
102
}
330
2F5
100
AcDbXrecord
280
     1
102
RTVSPropertyOp0
 70
     1
102
RTVSPropertyOp1
 70
     1
102
RTVSPropertyOp2
 70
     1
102
RTVSPropertyOp3
 70
     1
102
RTVSPropertyOp4
 70
     1
102
RTVSPropertyOp5
 70
     1
102
RTVSPropertyOp6
 70
     1
102
RTVSPropertyOp7
 70
     1
102
RTVSPropertyOp8
 70
     1
102
RTVSPropertyOp9
 70
     1
102
RTVSPropertyOp10
 70
     1
102
RTVSPropertyOp11
 70
     1
102
RTVSPropertyOp12
 70
     1
102
RTVSPropertyOp13
 70
     1
102
RTVSPropertyOp14
 70
     1
102
RTVSPropertyOp15
 70
     1
102
RTVSPropertyOp16
 70
     1
102
RTVSPropertyOp17
 70
     1
102
RTVSPropertyOp18
 70
     1
102
RTVSPropertyOp19
 70
     1
102
RTVSPropertyOp20
 70
     1
102
RTVSPropertyOp21
 70
     1
102
RTVSPropertyOp22
 70
     1
102
RTVSPropertyOp23
 70
     1
102
RTVSPropertyOp24
 70
     1
102
RTVSPropertyOp25
 70
     1
102
RTVSPropertyOp26
 70
     1
102
RTVSPropertyOp27
 70
     1
102
RTVSPropertyOp28
 70
     1
102
RTVSPropertyOp29
 70
     1
102
RTVSPropertyOp30
 70
     1
102
RTVSPropertyOp31
 70
     1
102
RTVSPropertyOp32
 70
     1
102
RTVSPropertyOp33
 70
     1
102
RTVSPropertyOp34
 70
     1
102
RTVSPropertyOp35
 70
     1
102
RTVSPropertyOp36
 70
     1
102
RTVSPropertyOp37
 70
     1
102
RTVSPropertyOp38
 70
     1
102
RTVSPropertyOp39
 70
     1
102
RTVSPropertyOp40
 70
     1
102
RTVSPropertyOp41
 70
     1
102
RTVSPropertyOp42
 70
     1
102
RTVSPropertyOp43
 70
     1
102
RTVSPropertyOp44
 70
     1
102
RTVSPropertyOp45
 70
     1
102
RTVSPropertyOp46
 70
     1
102
RTVSPropertyOp47
 70
     1
102
RTVSPropertyOp48
 70
     1
102
RTVSPropertyOp49
 70
     1
102
RTVSPropertyOp50
 70
     1
102
RTVSPropertyOp51
 70
     0
102
RTVSPropertyOp52
 70
     0
102
RTVSPropertyOp53
 70
     1
102
RTVSPropertyOp54
 70
     1
102
RTVSPropertyOp55
 70
     1
102
RTVSPropertyOp56
 70
     1
102
RTVSPropertyOp57
 70
     1
102
RTVSPost2010Prop28
280
     0
102
RTVSPost2010PropOp28
 70
     1
102
RTVSPost2010Prop29
280
     1
102
RTVSPost2010PropOp29
 70
     1
102
RTVSPost2010Prop30
280
     1
102
RTVSPost2010PropOp30
 70
     1
102
RTVSPost2010Prop31
280
     0
102
RTVSPost2010PropOp31
 70
     1
102
RTVSPost2010Prop32
280
     0
102
RTVSPost2010PropOp32
 70
     1
102
RTVSPost2010Prop33
280
     0
102
RTVSPost2010PropOp33
 70
     1
102
RTVSPost2010Prop34
280
     0
102
RTVSPost2010PropOp34
 70
     1
102
RTVSPost2010Prop35
280
     0
102
RTVSPost2010PropOp35
 70
     1
102
RTVSPost2010Prop36
280
     0
102
RTVSPost2010PropOp36
 70
     1
102
RTVSPost2010Prop37
 90
       50
102
RTVSPost2010PropOp37
 70
     1
102
RTVSPost2010Prop38
140
0.0
102
RTVSPost2010PropOp38
 70
     1
102
RTVSPost2010Prop39
140
1.0
102
RTVSPost2010PropOp39
 70
     1
102
RTVSPost2010Prop40
 90
        0
102
RTVSPost2010PropOp40
 70
     1
102
RTVSPost2010Prop41ColorIndex
 90
       18
102
RTVSPost2010Prop41ColorRGB
 90
        0
102
RTVSPost2010PropOp41
 70
     1
102
RTVSPost2010Prop42
 90
       50
102
RTVSPost2010PropOp42
 70
     1
102
RTVSPost2010Prop43
 90
        3
102
RTVSPost2010PropOp43
 70
     1
102
RTVSPost2010Prop44ColorIndex
 90
        5
102
RTVSPost2010Prop44ColorRGB
 90
      255
102
RTVSPost2010PropOp44
 70
     1
102
RTVSPost2010Prop45
280
     0
102
RTVSPost2010PropOp45
 70
     1
102
RTVSPost2010Prop46
 90
       50
102
RTVSPost2010PropOp46
 70
     1
102
RTVSPost2010Prop47
 90
       50
102
RTVSPost2010PropOp47
 70
     1
102
RTVSPost2010Prop48
 90
       50
102
RTVSPost2010PropOp48
 70
     1
102
RTVSPost2010Prop49
280
     0
102
RTVSPost2010PropOp49
 70
     1
102
RTVSPost2010Prop50
 90
       50
102
RTVSPost2010PropOp50
 70
     1
102
RTVSPost2010Prop51ColorIndex
 90
      256
102
RTVSPost2010Prop51ColorRGB
 90
-16777216
102
RTVSPost2010PropOp51
 70
     0
102
RTVSPost2010Prop52
140
1.0
102
RTVSPost2010PropOp52
 70
     0
102
RTVSPost2010Prop53
 90
        2
102
RTVSPost2010PropOp53
 70
     1
102
RTVSPost2010Prop54
  1
strokes_ogs.tif
102
RTVSPost2010PropOp54
 70
     1
102
RTVSPost2010Prop55
280
     0
102
RTVSPost2010PropOp55
 70
     1
102
RTVSPost2010Prop56
140
1.0
102
RTVSPost2010PropOp56
 70
     1
102
RTVSPost2010Prop57
140
1.0
102
RTVSPost2010PropOp57
 70
     1
  0
XRECORD
  5
316
102
{ACAD_REACTORS
330
315
102
}
330
315
100
AcDbXrecord
280
     1
102
RTVSPropertyOp0
 70
     1
102
RTVSPropertyOp1
 70
     1
102
RTVSPropertyOp2
 70
     1
102
RTVSPropertyOp3
 70
     1
102
RTVSPropertyOp4
 70
     1
102
RTVSPropertyOp5
 70
     1
102
RTVSPropertyOp6
 70
     1
102
RTVSPropertyOp7
 70
     1
102
RTVSPropertyOp8
 70
     1
102
RTVSPropertyOp9
 70
     1
102
RTVSPropertyOp10
 70
     1
102
RTVSPropertyOp11
 70
     1
102
RTVSPropertyOp12
 70
     1
102
RTVSPropertyOp13
 70
     1
102
RTVSPropertyOp14
 70
     1
102
RTVSPropertyOp15
 70
     1
102
RTVSPropertyOp16
 70
     1
102
RTVSPropertyOp17
 70
     1
102
RTVSPropertyOp18
 70
     1
102
RTVSPropertyOp19
 70
     1
102
RTVSPropertyOp20
 70
     1
102
RTVSPropertyOp21
 70
     1
102
RTVSPropertyOp22
 70
     1
102
RTVSPropertyOp23
 70
     1
102
RTVSPropertyOp24
 70
     1
102
RTVSPropertyOp25
 70
     1
102
RTVSPropertyOp26
 70
     1
102
RTVSPropertyOp27
 70
     1
102
RTVSPropertyOp28
 70
     1
102
RTVSPropertyOp29
 70
     1
102
RTVSPropertyOp30
 70
     1
102
RTVSPropertyOp31
 70
     1
102
RTVSPropertyOp32
 70
     1
102
RTVSPropertyOp33
 70
     1
102
RTVSPropertyOp34
 70
     1
102
RTVSPropertyOp35
 70
     1
102
RTVSPropertyOp36
 70
     1
102
RTVSPropertyOp37
 70
     1
102
RTVSPropertyOp38
 70
     1
102
RTVSPropertyOp39
 70
     1
102
RTVSPropertyOp40
 70
     1
102
RTVSPropertyOp41
 70
     1
102
RTVSPropertyOp42
 70
     1
102
RTVSPropertyOp43
 70
     1
102
RTVSPropertyOp44
 70
     1
102
RTVSPropertyOp45
 70
     1
102
RTVSPropertyOp46
 70
     1
102
RTVSPropertyOp47
 70
     1
102
RTVSPropertyOp48
 70
     1
102
RTVSPropertyOp49
 70
     1
102
RTVSPropertyOp50
 70
     1
102
RTVSPropertyOp51
 70
     0
102
RTVSPropertyOp52
 70
     0
102
RTVSPropertyOp53
 70
     1
102
RTVSPropertyOp54
 70
     1
102
RTVSPropertyOp55
 70
     1
102
RTVSPropertyOp56
 70
     1
102
RTVSPropertyOp57
 70
     1
102
RTVSPost2010Prop28
280
     0
102
RTVSPost2010PropOp28
 70
     1
102
RTVSPost2010Prop29
280
     1
102
RTVSPost2010PropOp29
 70
     1
102
RTVSPost2010Prop30
280
     1
102
RTVSPost2010PropOp30
 70
     1
102
RTVSPost2010Prop31
280
     0
102
RTVSPost2010PropOp31
 70
     1
102
RTVSPost2010Prop32
280
     0
102
RTVSPost2010PropOp32
 70
     1
102
RTVSPost2010Prop33
280
     0
102
RTVSPost2010PropOp33
 70
     1
102
RTVSPost2010Prop34
280
     0
102
RTVSPost2010PropOp34
 70
     1
102
RTVSPost2010Prop35
280
     0
102
RTVSPost2010PropOp35
 70
     1
102
RTVSPost2010Prop36
280
     0
102
RTVSPost2010PropOp36
 70
     1
102
RTVSPost2010Prop37
 90
       50
102
RTVSPost2010PropOp37
 70
     1
102
RTVSPost2010Prop38
140
0.0
102
RTVSPost2010PropOp38
 70
     1
102
RTVSPost2010Prop39
140
1.0
102
RTVSPost2010PropOp39
 70
     1
102
RTVSPost2010Prop40
 90
        0
102
RTVSPost2010PropOp40
 70
     1
102
RTVSPost2010Prop41ColorIndex
 90
       18
102
RTVSPost2010Prop41ColorRGB
 90
        0
102
RTVSPost2010PropOp41
 70
     1
102
RTVSPost2010Prop42
 90
       50
102
RTVSPost2010PropOp42
 70
     1
102
RTVSPost2010Prop43
 90
        3
102
RTVSPost2010PropOp43
 70
     1
102
RTVSPost2010Prop44ColorIndex
 90
        5
102
RTVSPost2010Prop44ColorRGB
 90
      255
102
RTVSPost2010PropOp44
 70
     1
102
RTVSPost2010Prop45
280
     0
102
RTVSPost2010PropOp45
 70
     1
102
RTVSPost2010Prop46
 90
       50
102
RTVSPost2010PropOp46
 70
     1
102
RTVSPost2010Prop47
 90
       50
102
RTVSPost2010PropOp47
 70
     1
102
RTVSPost2010Prop48
 90
       50
102
RTVSPost2010PropOp48
 70
     1
102
RTVSPost2010Prop49
280
     0
102
RTVSPost2010PropOp49
 70
     1
102
RTVSPost2010Prop50
 90
       50
102
RTVSPost2010PropOp50
 70
     1
102
RTVSPost2010Prop51ColorIndex
 90
      256
102
RTVSPost2010Prop51ColorRGB
 90
-16777216
102
RTVSPost2010PropOp51
 70
     0
102
RTVSPost2010Prop52
140
1.0
102
RTVSPost2010PropOp52
 70
     0
102
RTVSPost2010Prop53
 90
        2
102
RTVSPost2010PropOp53
 70
     1
102
RTVSPost2010Prop54
  1
strokes_ogs.tif
102
RTVSPost2010PropOp54
 70
     1
102
RTVSPost2010Prop55
280
     0
102
RTVSPost2010PropOp55
 70
     1
102
RTVSPost2010Prop56
140
1.0
102
RTVSPost2010PropOp56
 70
     1
102
RTVSPost2010Prop57
140
1.0
102
RTVSPost2010PropOp57
 70
     1
  0
ENDSEC
  0
EOF
