  0
SECTION
  2
HEADER
  9
$ACADVER
  1
AC1018
  9
$ACADMAINTVER
 70
     0
  9
$DWGCODEPAGE
  3
ANSI_1252
  9
$COMMENTS
  1
File was created by ARCHline.XP2015
  9
$INSBASE
 10
0.0
 20
0.0
 30
0.0
  9
$EXTMIN
 10
1.220070422536082
 20
0.2614436619714979
 30
0.0
  9
$EXTMAX
 10
2971.220070422536
 20
2100.261443661971
 30
0.0
  9
$LIMMIN
 10
0.0
 20
0.0
  9
$LIMMAX
 10
12.0
 20
9.0
  9
$ORTHOMODE
 70
     0
  9
$REGENMODE
 70
     1
  9
$FILLMODE
 70
     1
  9
$QTEXTMODE
 70
     0
  9
$MIRRTEXT
 70
     1
  9
$LTSCALE
 40
1.0
  9
$ATTMODE
 70
     1
  9
$TEXTSIZE
 40
0.2
  9
$TRACEWID
 40
0.05
  9
$TEXTSTYLE
  7
Standard
  9
$CLAYER
  8
0
  9
$CELTYPE
  6
ByLayer
  9
$CECOLOR
 62
   256
  9
$CELTSCALE
 40
1.0
  9
$DISPSILH
 70
     0
  9
$DIMSCALE
 40
1.0
  9
$DIMASZ
 40
0.18
  9
$DIMEXO
 40
0.0625
  9
$DIMDLI
 40
0.38
  9
$DIMRND
 40
0.0
  9
$DIMDLE
 40
0.0
  9
$DIMEXE
 40
0.18
  9
$DIMTP
 40
0.0
  9
$DIMTM
 40
0.0
  9
$DIMTXT
 40
0.18
  9
$DIMCEN
 40
0.09
  9
$DIMTSZ
 40
0.0
  9
$DIMTOL
 70
     0
  9
$DIMLIM
 70
     0
  9
$DIMTIH
 70
     1
  9
$DIMTOH
 70
     1
  9
$DIMSE1
 70
     0
  9
$DIMSE2
 70
     0
  9
$DIMTAD
 70
     0
  9
$DIMZIN
 70
     0
  9
$DIMBLK
  1

  9
$DIMASO
 70
     1
  9
$DIMSHO
 70
     1
  9
$DIMPOST
  1

  9
$DIMAPOST
  1

  9
$DIMALT
 70
     0
  9
$DIMALTD
 70
     2
  9
$DIMALTF
 40
25.4
  9
$DIMLFAC
 40
1.0
  9
$DIMTOFL
 70
     0
  9
$DIMTVP
 40
0.0
  9
$DIMTIX
 70
     0
  9
$DIMSOXD
 70
     0
  9
$DIMSAH
 70
     0
  9
$DIMBLK1
  1

  9
$DIMBLK2
  1

  9
$DIMSTYLE
  2
Standard
  9
$DIMCLRD
 70
     0
  9
$DIMCLRE
 70
     0
  9
$DIMCLRT
 70
     0
  9
$DIMTFAC
 40
1.0
  9
$DIMGAP
 40
0.09
  9
$DIMJUST
 70
     0
  9
$DIMSD1
 70
     0
  9
$DIMSD2
 70
     0
  9
$DIMTOLJ
 70
     1
  9
$DIMTZIN
 70
     0
  9
$DIMALTZ
 70
     0
  9
$DIMALTTZ
 70
     0
  9
$DIMUPT
 70
     0
  9
$DIMDEC
 70
     4
  9
$DIMTDEC
 70
     4
  9
$DIMALTU
 70
     2
  9
$DIMALTTD
 70
     2
  9
$DIMTXSTY
  7
Standard
  9
$DIMAUNIT
 70
     0
  9
$DIMADEC
 70
     0
  9
$DIMALTRND
 40
0.0
  9
$DIMAZIN
 70
     0
  9
$DIMDSEP
 70
    46
  9
$DIMATFIT
 70
     3
  9
$DIMFRAC
 70
     0
  9
$DIMLDRBLK
  1

  9
$DIMLUNIT
 70
     2
  9
$DIMLWD
 70
    -2
  9
$DIMLWE
 70
    -2
  9
$DIMTMOVE
 70
     0
  9
$LUNITS
 70
     2
  9
$LUPREC
 70
     4
  9
$SKETCHINC
 40
0.1
  9
$FILLETRAD
 40
0.5
  9
$AUNITS
 70
     0
  9
$AUPREC
 70
     0
  9
$MENU
  1
.
  9
$ELEVATION
 40
0.0
  9
$PELEVATION
 40
0.0
  9
$THICKNESS
 40
0.0
  9
$LIMCHECK
 70
     0
  9
$CHAMFERA
 40
0.0
  9
$CHAMFERB
 40
0.0
  9
$CHAMFERC
 40
0.0
  9
$CHAMFERD
 40
0.0
  9
$SKPOLY
 70
     0
  9
$TDCREATE
 40
2457527.567651667
  9
$TDUCREATE
 40
2457527.484318333
  9
$TDUPDATE
 40
2457527.56765257
  9
$TDUUPDATE
 40
2457527.484319236
  9
$TDINDWG
 40
0.0000000116
  9
$TDUSRTIMER
 40
0.0000000116
  9
$USRTIMER
 70
     1
  9
$ANGBASE
 50
0.0
  9
$ANGDIR
 70
     0
  9
$PDMODE
 70
     0
  9
$PDSIZE
 40
0.0
  9
$PLINEWID
 40
0.0
  9
$SPLFRAME
 70
     0
  9
$SPLINETYPE
 70
     6
  9
$SPLINESEGS
 70
     8
  9
$HANDSEED
  5
31C
  9
$SURFTAB1
 70
     6
  9
$SURFTAB2
 70
     6
  9
$SURFTYPE
 70
     6
  9
$SURFU
 70
     6
  9
$SURFV
 70
     6
  9
$UCSBASE
  2

  9
$UCSNAME
  2

  9
$UCSORG
 10
0.0
 20
0.0
 30
0.0
  9
$UCSXDIR
 10
1.0
 20
0.0
 30
0.0
  9
$UCSYDIR
 10
0.0
 20
1.0
 30
0.0
  9
$UCSORTHOREF
  2

  9
$UCSORTHOVIEW
 70
     0
  9
$UCSORGTOP
 10
0.0
 20
0.0
 30
0.0
  9
$UCSORGBOTTOM
 10
0.0
 20
0.0
 30
0.0
  9
$UCSORGLEFT
 10
0.0
 20
0.0
 30
0.0
  9
$UCSORGRIGHT
 10
0.0
 20
0.0
 30
0.0
  9
$UCSORGFRONT
 10
0.0
 20
0.0
 30
0.0
  9
$UCSORGBACK
 10
0.0
 20
0.0
 30
0.0
  9
$PUCSBASE
  2

  9
$PUCSNAME
  2

  9
$PUCSORG
 10
0.0
 20
0.0
 30
0.0
  9
$PUCSXDIR
 10
1.0
 20
0.0
 30
0.0
  9
$PUCSYDIR
 10
0.0
 20
1.0
 30
0.0
  9
$PUCSORTHOREF
  2

  9
$PUCSORTHOVIEW
 70
     0
  9
$PUCSORGTOP
 10
0.0
 20
0.0
 30
0.0
  9
$PUCSORGBOTTOM
 10
0.0
 20
0.0
 30
0.0
  9
$PUCSORGLEFT
 10
0.0
 20
0.0
 30
0.0
  9
$PUCSORGRIGHT
 10
0.0
 20
0.0
 30
0.0
  9
$PUCSORGFRONT
 10
0.0
 20
0.0
 30
0.0
  9
$PUCSORGBACK
 10
0.0
 20
0.0
 30
0.0
  9
$USERI1
 70
     0
  9
$USERI2
 70
     0
  9
$USERI3
 70
     0
  9
$USERI4
 70
     0
  9
$USERI5
 70
     0
  9
$USERR1
 40
0.0
  9
$USERR2
 40
0.0
  9
$USERR3
 40
0.0
  9
$USERR4
 40
0.0
  9
$USERR5
 40
0.0
  9
$WORLDVIEW
 70
     1
  9
$SHADEDGE
 70
     3
  9
$SHADEDIF
 70
    70
  9
$TILEMODE
 70
     1
  9
$MAXACTVP
 70
    64
  9
$PINSBASE
 10
0.0
 20
0.0
 30
0.0
  9
$PLIMCHECK
 70
     0
  9
$PEXTMIN
 10
1.000000000000000E+20
 20
1.000000000000000E+20
 30
1.000000000000000E+20
  9
$PEXTMAX
 10
-1.000000000000000E+20
 20
-1.000000000000000E+20
 30
-1.000000000000000E+20
  9
$PLIMMIN
 10
0.0
 20
0.0
  9
$PLIMMAX
 10
12.0
 20
9.0
  9
$UNITMODE
 70
     0
  9
$VISRETAIN
 70
     1
  9
$PLINEGEN
 70
     0
  9
$PSLTSCALE
 70
     1
  9
$TREEDEPTH
 70
  3020
  9
$CMLSTYLE
  2
Standard
  9
$CMLJUST
 70
     0
  9
$CMLSCALE
 40
1.0
  9
$PROXYGRAPHICS
 70
     1
  9
$MEASUREMENT
 70
     0
  9
$CELWEIGHT
370
    -1
  9
$ENDCAPS
280
     0
  9
$JOINSTYLE
280
     0
  9
$LWDISPLAY
290
     0
  9
$INSUNITS
 70
     1
  9
$HYPERLINKBASE
  1

  9
$STYLESHEET
  1

  9
$XEDIT
290
     1
  9
$CEPSNTYPE
380
     0
  9
$PSTYLEMODE
290
     1
  9
$FINGERPRINTGUID
  2
{09AF61FA-19C6-4039-93FC-9C50C1008679}
  9
$VERSIONGUID
  2
{FAEB1C32-E019-11D5-929B-00C0DF256EC4}
  9
$EXTNAMES
290
     1
  9
$PSVPSCALE
 40
0.0
  9
$OLESTARTUP
290
     0
  9
$SORTENTS
280
   127
  9
$INDEXCTL
280
     0
  9
$HIDETEXT
280
     1
  9
$XCLIPFRAME
290
     0
  9
$HALOGAP
280
     0
  9
$OBSCOLOR
 70
   257
  9
$OBSLTYPE
280
     0
  9
$INTERSECTIONDISPLAY
280
     0
  9
$INTERSECTIONCOLOR
 70
   257
  9
$DIMASSOC
280
     2
  9
$PROJECTNAME
  1

  0
ENDSEC
  0
SECTION
  2
CLASSES
  0
CLASS
  1
ACDBDICTIONARYWDFLT
  2
AcDbDictionaryWithDefault
  3
ObjectDBX Classes
 90
        0
 91
        4
280
     0
281
     0
  0
CLASS
  1
VISUALSTYLE
  2
AcDbVisualStyle
  3
ObjectDBX Classes
 90
     4095
 91
        4
280
     0
281
     0
  0
CLASS
  1
MATERIAL
  2
AcDbMaterial
  3
ObjectDBX Classes
 90
     1153
 91
        4
280
     0
281
     0
  0
CLASS
  1
SCALE
  2
AcDbScale
  3
ObjectDBX Classes
 90
     1153
 91
        4
280
     0
281
     0
  0
CLASS
  1
TABLESTYLE
  2
AcDbTableStyle
  3
ObjectDBX Classes
 90
     4095
 91
        4
280
     0
281
     0
  0
CLASS
  1
MLEADERSTYLE
  2
AcDbMLeaderStyle
  3
ACDB_MLEADERSTYLE_CLASS
 90
     4095
 91
        4
280
     0
281
     0
  0
CLASS
  1
SUN
  2
AcDbSun
  3
SCENEOE
 90
     1153
 91
        4
280
     0
281
     0
  0
CLASS
  1
IMAGEDEF
  2
AcDbRasterImageDef
  3
ISM
 90
        0
 91
        4
280
     0
281
     0
  0
CLASS
  1
IMAGE
  2
AcDbRasterImage
  3
ISM
 90
      127
 91
        5
280
     0
281
     1
  0
CLASS
  1
IMAGEDEF_REACTOR
  2
AcDbRasterImageDefReactor
  3
ISM
 90
        1
 91
        4
280
     0
281
     0
  0
CLASS
  1
DICTIONARYVAR
  2
AcDbDictionaryVar
  3
ObjectDBX Classes
 90
        0
 91
        4
280
     0
281
     0
  0
CLASS
  1
CELLSTYLEMAP
  2
AcDbCellStyleMap
  3
ObjectDBX Classes
 90
     1152
 91
        4
280
     0
281
     0
  0
ENDSEC
  0
SECTION
  2
TABLES
  0
TABLE
  2
VPORT
  5
8
102
{ACAD_XDICTIONARY
360
2D5
102
}
330
0
100
AcDbSymbolTable
 70
     1
  0
VPORT
  5
29
330
8
100
AcDbSymbolTableRecord
100
AcDbViewportTableRecord
  2
*Active
 70
     0
 10
0.0
 20
0.0
 11
1.0
 21
1.0
 12
10.42990654205607
 22
4.5
 13
0.0
 23
0.0
 14
0.5
 24
0.5
 15
0.5
 25
0.5
 16
0.0
 26
0.0
 36
1.0
 17
0.0
 27
0.0
 37
0.0
 40
9.0
 41
1.972972972850329
 42
50.0
 43
0.0
 44
0.0
 50
0.0
 51
0.0
 71
     0
 72
   100
 73
     1
 74
     3
 75
     0
 76
     0
 77
     0
 78
     0
281
     0
 65
     1
110
0.0
120
0.0
130
0.0
111
1.0
121
0.0
131
0.0
112
0.0
122
1.0
132
0.0
 79
     0
146
0.0
  0
ENDTAB
  0
TABLE
  2
LTYPE
  5
5
330
0
100
AcDbSymbolTable
 70
    45
  0
LTYPE
  5
14
330
5
100
AcDbSymbolTableRecord
100
AcDbLinetypeTableRecord
  2
ByBlock
 70
     0
  3

 72
    65
 73
     0
 40
0.0
  0
LTYPE
  5
15
330
5
100
AcDbSymbolTableRecord
100
AcDbLinetypeTableRecord
  2
ByLayer
 70
     0
  3

 72
    65
 73
     0
 40
0.0
  0
LTYPE
  5
16
330
5
100
AcDbSymbolTableRecord
100
AcDbLinetypeTableRecord
  2
Continuous
 70
     0
  3
Solid line
 72
    65
 73
     0
 40
0.0
  0
LTYPE
  5
6F
330
5
100
AcDbSymbolTableRecord
100
AcDbLinetypeTableRecord
  2
HIDDEN
 70
     0
  3
_ _ _ _ _ _ _ _ _ _ _ _ _ _ _ _ _ _ _ _ _ _ _
 72
    65
 73
     2
 40
0.375
 49
0.25
 74
     0
 49
-0.125
 74
     0
  0
LTYPE
  5
70
330
5
100
AcDbSymbolTableRecord
100
AcDbLinetypeTableRecord
  2
CENTER
 70
     0
  3
____ _ ____ _ ____ _ ____ _ ____ _ ____ _ ____
 72
    65
 73
     4
 40
2.0
 49
1.25
 74
     0
 49
-0.25
 74
     0
 49
0.25
 74
     0
 49
-0.25
 74
     0
  0
LTYPE
  5
71
330
5
100
AcDbSymbolTableRecord
100
AcDbLinetypeTableRecord
  2
DASHED
 70
     0
  3
__ __ __ __ __ __ __ __ __ __ __ __ __ __ __
 72
    65
 73
     2
 40
1.5
 49
1.25
 74
     0
 49
-0.25
 74
     0
  0
LTYPE
  5
72
330
5
100
AcDbSymbolTableRecord
100
AcDbLinetypeTableRecord
  2
Gepunktete
 70
     0
  3

 72
    65
 73
     2
 40
1.560000061988831
 49
0.3600000143051147
 74
     0
 49
-1.200000047683716
 74
     0
  0
LTYPE
  5
73
330
5
100
AcDbSymbolTableRecord
100
AcDbLinetypeTableRecord
  2
Strichpunktierte
 70
     0
  3

 72
    65
 73
     4
 40
4.920000046491623
 49
3.0
 74
     0
 49
-0.7200000286102295
 74
     0
 49
0.4799999892711639
 74
     0
 49
-0.7200000286102295
 74
     0
  0
LTYPE
  5
74
330
5
100
AcDbSymbolTableRecord
100
AcDbLinetypeTableRecord
  2
Strichellinie
 70
     0
  3

 72
    65
 73
     2
 40
2.399999976158142
 49
1.799999952316284
 74
     0
 49
-0.6000000238418579
 74
     0
  0
LTYPE
  5
75
330
5
100
AcDbSymbolTableRecord
100
AcDbLinetypeTableRecord
  2
2Punkt
 70
     0
  3

 72
    65
 73
     6
 40
6.120000123977661
 49
3.0
 74
     0
 49
-0.7200000286102295
 74
     0
 49
0.4800000190734863
 74
     0
 49
-0.7200000286102295
 74
     0
 49
0.4800000190734863
 74
     0
 49
-0.7200000286102295
 74
     0
  0
LTYPE
  5
76
330
5
100
AcDbSymbolTableRecord
100
AcDbLinetypeTableRecord
  2
2Punkt-2Abstand
 70
     0
  3

 72
    65
 73
     6
 40
8.28000020980835
 49
3.0
 74
     0
 49
-1.440000057220459
 74
     0
 49
0.4800000190734863
 74
     0
 49
-1.440000057220459
 74
     0
 49
0.4800000190734863
 74
     0
 49
-1.440000057220459
 74
     0
  0
LTYPE
  5
77
330
5
100
AcDbSymbolTableRecord
100
AcDbLinetypeTableRecord
  2
2Punkt-3Abstand
 70
     0
  3

 72
    65
 73
     6
 40
11.26800036430359
 49
3.0
 74
     0
 49
-2.436000108718872
 74
     0
 49
0.4800000190734863
 74
     0
 49
-2.436000108718872
 74
     0
 49
0.4800000190734863
 74
     0
 49
-2.436000108718872
 74
     0
  0
LTYPE
  5
78
330
5
100
AcDbSymbolTableRecord
100
AcDbLinetypeTableRecord
  2
Gepunktete Var.2
 70
     0
  3

 72
    65
 73
     2
 40
3.120000004768372
 49
0.3600000143051147
 74
     0
 49
-2.759999990463257
 74
     0
  0
LTYPE
  5
79
330
5
100
AcDbSymbolTableRecord
100
AcDbLinetypeTableRecord
  2
Gepunktete Var.3
 70
     0
  3

 72
    65
 73
     2
 40
4.679999709129333
 49
0.3600000143051147
 74
     0
 49
-4.319999694824219
 74
     0
  0
LTYPE
  5
7A
330
5
100
AcDbSymbolTableRecord
100
AcDbLinetypeTableRecord
  2
Gepunktete Var.4
 70
     0
  3

 72
    65
 73
     4
 40
4.319999814033508
 49
0.3600000143051147
 74
     0
 49
-1.199999928474426
 74
     0
 49
0.3600000143051147
 74
     0
 49
-2.399999856948853
 74
     0
  0
LTYPE
  5
7B
330
5
100
AcDbSymbolTableRecord
100
AcDbLinetypeTableRecord
  2
Gepunktete Var.5
 70
     0
  3

 72
    65
 73
     4
 40
4.319999814033508
 49
0.3600000143051147
 74
     0
 49
-1.199999928474426
 74
     0
 49
0.3600000143051147
 74
     0
 49
-2.399999856948853
 74
     0
  0
LTYPE
  5
7C
330
5
100
AcDbSymbolTableRecord
100
AcDbLinetypeTableRecord
  2
Gepunktete Var.6
 70
     0
  3

 72
    65
 73
     6
 40
7.079999685287476
 49
0.3600000143051147
 74
     0
 49
-1.199999928474426
 74
     0
 49
0.3600000143051147
 74
     0
 49
-2.399999856948853
 74
     0
 49
0.3600000143051147
 74
     0
 49
-2.399999856948853
 74
     0
  0
LTYPE
  5
7D
330
5
100
AcDbSymbolTableRecord
100
AcDbLinetypeTableRecord
  2
Strichlierte Var.2
 70
     0
  3

 72
    65
 73
     2
 40
3.599999904632568
 49
1.799999952316284
 74
     0
 49
-1.799999952316284
 74
     0
  0
LTYPE
  5
7E
330
5
100
AcDbSymbolTableRecord
100
AcDbLinetypeTableRecord
  2
Strichlierte Var.3
 70
     0
  3

 72
    65
 73
     2
 40
5.399999856948853
 49
1.799999952316284
 74
     0
 49
-3.599999904632568
 74
     0
  0
LTYPE
  5
7F
330
5
100
AcDbSymbolTableRecord
100
AcDbLinetypeTableRecord
  2
Strichlierte Var.4
 70
     0
  3

 72
    65
 73
     2
 40
4.199999868869781
 49
3.599999904632568
 74
     0
 49
-0.5999999642372131
 74
     0
  0
LTYPE
  5
80
330
5
100
AcDbSymbolTableRecord
100
AcDbLinetypeTableRecord
  2
Strichlierte Var.5
 70
     0
  3

 72
    65
 73
     2
 40
5.399999856948853
 49
3.599999904632568
 74
     0
 49
-1.799999952316284
 74
     0
  0
LTYPE
  5
81
330
5
100
AcDbSymbolTableRecord
100
AcDbLinetypeTableRecord
  2
Strichlierte Var.6
 70
     0
  3

 72
    65
 73
     2
 40
7.199999809265137
 49
3.599999904632568
 74
     0
 49
-3.599999904632568
 74
     0
  0
LTYPE
  5
82
330
5
100
AcDbSymbolTableRecord
100
AcDbLinetypeTableRecord
  2
Strich-2Abstand
 70
     0
  3

 72
    65
 73
     4
 40
8.999999761581421
 49
1.799999952316284
 74
     0
 49
-1.799999952316284
 74
     0
 49
3.599999904632568
 74
     0
 49
-1.799999952316284
 74
     0
  0
LTYPE
  5
83
330
5
100
AcDbSymbolTableRecord
100
AcDbLinetypeTableRecord
  2
Strich-3Abstand
 70
     0
  3

 72
    65
 73
     6
 40
7.919999837875366
 49
0.3600000143051147
 74
     0
 49
-1.799999952316284
 74
     0
 49
0.3600000143051147
 74
     0
 49
-1.799999952316284
 74
     0
 49
1.799999952316284
 74
     0
 49
-1.799999952316284
 74
     0
  0
LTYPE
  5
84
330
5
100
AcDbSymbolTableRecord
100
AcDbLinetypeTableRecord
  2
Strich-4Abstand
 70
     0
  3

 72
    65
 73
     6
 40
9.359999775886536
 49
1.799999952316284
 74
     0
 49
-1.799999952316284
 74
     0
 49
1.799999952316284
 74
     0
 49
-1.799999952316284
 74
     0
 49
0.3600000143051147
 74
     0
 49
-1.799999952316284
 74
     0
  0
LTYPE
  5
85
330
5
100
AcDbSymbolTableRecord
100
AcDbLinetypeTableRecord
  2
Punktlinie
 70
     0
  3

 72
    65
 73
     6
 40
20.10000000149012
 49
0.0500000007450581
 74
     0
 49
-0.0500000007450581
 74
     0
 49
5.0
 74
     0
 49
-5.0
 74
     0
 49
5.0
 74
     0
 49
-5.0
 74
     0
  0
LTYPE
  5
86
330
5
100
AcDbSymbolTableRecord
100
AcDbLinetypeTableRecord
  2
Punkt-Strichlinie
 70
     0
  3

 72
    65
 73
     6
 40
3.550000000745058
 49
1.0
 74
     0
 49
-0.5
 74
     0
 49
1.0
 74
     0
 49
-0.5
 74
     0
 49
0.0500000007450581
 74
     0
 49
-0.5
 74
     0
  0
LTYPE
  5
87
330
5
100
AcDbSymbolTableRecord
100
AcDbLinetypeTableRecord
  2
Doppelpunkt-Strichlinie
 70
     0
  3

 72
    65
 73
     6
 40
1.350000001490116
 49
0.5
 74
     0
 49
-0.25
 74
     0
 49
0.0500000007450581
 74
     0
 49
-0.25
 74
     0
 49
0.0500000007450581
 74
     0
 49
-0.25
 74
     0
  0
LTYPE
  5
88
330
5
100
AcDbSymbolTableRecord
100
AcDbLinetypeTableRecord
  2
Eigene Linie 27
 70
     0
  3

 72
    65
 73
     6
 40
2.600000001490116
 49
1.0
 74
     0
 49
-0.5
 74
     0
 49
0.0500000007450581
 74
     0
 49
-0.5
 74
     0
 49
0.0500000007450581
 74
     0
 49
-0.5
 74
     0
  0
LTYPE
  5
89
330
5
100
AcDbSymbolTableRecord
100
AcDbLinetypeTableRecord
  2
Eigene Linie 28
 70
     0
  3

 72
    65
 73
     6
 40
1.800000000745058
 49
0.5
 74
     0
 49
-0.25
 74
     0
 49
0.5
 74
     0
 49
-0.25
 74
     0
 49
0.0500000007450581
 74
     0
 49
-0.25
 74
     0
  0
LTYPE
  5
8A
330
5
100
AcDbSymbolTableRecord
100
AcDbLinetypeTableRecord
  2
Eigene Linie 29
 70
     0
  3

 72
    65
 73
     6
 40
0.9250000007450581
 49
0.25
 74
     0
 49
-0.125
 74
     0
 49
0.25
 74
     0
 49
-0.125
 74
     0
 49
0.0500000007450581
 74
     0
 49
-0.125
 74
     0
  0
LTYPE
  5
8B
330
5
100
AcDbSymbolTableRecord
100
AcDbLinetypeTableRecord
  2
Eigene Linie 30
 70
     0
  3

 72
    65
 73
     2
 40
0.3000000007450581
 49
0.0500000007450581
 74
     0
 49
-0.25
 74
     0
  0
LTYPE
  5
8C
330
5
100
AcDbSymbolTableRecord
100
AcDbLinetypeTableRecord
  2
Eigene Linie 31
 70
     0
  3

 72
    65
 73
     2
 40
0.1750000007450581
 49
0.0500000007450581
 74
     0
 49
-0.125
 74
     0
  0
LTYPE
  5
8D
330
5
100
AcDbSymbolTableRecord
100
AcDbLinetypeTableRecord
  2
Eigene Linie 32
 70
     0
  3

 72
    65
 73
     2
 40
0.5500000007450581
 49
0.0500000007450581
 74
     0
 49
-0.5
 74
     0
  0
LTYPE
  5
8E
330
5
100
AcDbSymbolTableRecord
100
AcDbLinetypeTableRecord
  2
Eigene Linie 33
 70
     0
  3

 72
    65
 73
     4
 40
1.050000000745058
 49
0.5
 74
     0
 49
-0.25
 74
     0
 49
0.0500000007450581
 74
     0
 49
-0.25
 74
     0
  0
LTYPE
  5
8F
330
5
100
AcDbSymbolTableRecord
100
AcDbLinetypeTableRecord
  2
Eigene Linie 34
 70
     0
  3

 72
    65
 73
     4
 40
0.5500000007450581
 49
0.25
 74
     0
 49
-0.125
 74
     0
 49
0.0500000007450581
 74
     0
 49
-0.125
 74
     0
  0
LTYPE
  5
90
330
5
100
AcDbSymbolTableRecord
100
AcDbLinetypeTableRecord
  2
Eigene Linie 35
 70
     0
  3

 72
    65
 73
     4
 40
2.050000000745058
 49
1.0
 74
     0
 49
-0.5
 74
     0
 49
0.0500000007450581
 74
     0
 49
-0.5
 74
     0
  0
LTYPE
  5
91
330
5
100
AcDbSymbolTableRecord
100
AcDbLinetypeTableRecord
  2
Eigene Linie 36
 70
     0
  3

 72
    65
 73
     2
 40
0.75
 49
0.5
 74
     0
 49
-0.25
 74
     0
  0
LTYPE
  5
92
330
5
100
AcDbSymbolTableRecord
100
AcDbLinetypeTableRecord
  2
Eigene Linie 37
 70
     0
  3

 72
    65
 73
     2
 40
0.375
 49
0.25
 74
     0
 49
-0.125
 74
     0
  0
LTYPE
  5
93
330
5
100
AcDbSymbolTableRecord
100
AcDbLinetypeTableRecord
  2
Eigene Linie 38
 70
     0
  3

 72
    65
 73
     2
 40
1.5
 49
1.0
 74
     0
 49
-0.5
 74
     0
  0
LTYPE
  5
94
330
5
100
AcDbSymbolTableRecord
100
AcDbLinetypeTableRecord
  2
Eigene Linie 39
 70
     0
  3

 72
    65
 73
     6
 40
2.5
 49
1.25
 74
     0
 49
-0.25
 74
     0
 49
0.25
 74
     0
 49
-0.25
 74
     0
 49
0.25
 74
     0
 49
-0.25
 74
     0
  0
LTYPE
  5
95
330
5
100
AcDbSymbolTableRecord
100
AcDbLinetypeTableRecord
  2
Eigene Linie 40
 70
     0
  3

 72
    65
 73
     6
 40
1.25
 49
0.625
 74
     0
 49
-0.125
 74
     0
 49
0.125
 74
     0
 49
-0.125
 74
     0
 49
0.125
 74
     0
 49
-0.125
 74
     0
  0
LTYPE
  5
96
330
5
100
AcDbSymbolTableRecord
100
AcDbLinetypeTableRecord
  2
Eigene Linie 41
 70
     0
  3

 72
    65
 73
     6
 40
5.0
 49
2.5
 74
     0
 49
-0.5
 74
     0
 49
0.5
 74
     0
 49
-0.5
 74
     0
 49
0.5
 74
     0
 49
-0.5
 74
     0
  0
LTYPE
  5
97
330
5
100
AcDbSymbolTableRecord
100
AcDbLinetypeTableRecord
  2
Eigene Linie 42
 70
     0
  3

 72
    65
 73
     2
 40
0.300000011920929
 49
0.1500000059604645
 74
     0
 49
-0.1500000059604645
 74
     0
  0
LTYPE
  5
98
330
5
100
AcDbSymbolTableRecord
100
AcDbLinetypeTableRecord
  2
Eigene Linie 43
 70
     0
  3

 72
    65
 73
     2
 40
0.1399999968707561
 49
0.0799999982118607
 74
     0
 49
-0.0599999986588955
 74
     0
  0
LTYPE
  5
99
330
5
100
AcDbSymbolTableRecord
100
AcDbLinetypeTableRecord
  2
Eigene Linie 44
 70
     0
  3

 72
    65
 73
     2
 40
0.3000000007450581
 49
0.0500000007450581
 74
     0
 49
-0.25
 74
     0
  0
LTYPE
  5
9A
330
5
100
AcDbSymbolTableRecord
100
AcDbLinetypeTableRecord
  2
Eigene Linie 45
 70
     0
  3

 72
    65
 73
     2
 40
0.5500000007450581
 49
0.0500000007450581
 74
     0
 49
-0.5
 74
     0
  0
ENDTAB
  0
TABLE
  2
LAYER
  5
2
330
0
100
AcDbSymbolTable
 70
     3
  0
LAYER
  5
10
330
2
100
AcDbSymbolTableRecord
100
AcDbLayerTableRecord
  2
0
 70
     0
 62
     7
  6
Continuous
370
    -3
390
F
  0
LAYER
  5
9B
330
2
100
AcDbSymbolTableRecord
100
AcDbLayerTableRecord
  2
0 - Systemaufbauten
 70
     0
 62
     7
  6
Continuous
370
     0
390
F
  0
LAYER
  5
9C
330
2
100
AcDbSymbolTableRecord
100
AcDbLayerTableRecord
  2
00_Allgemein - Systemaufbauten
 70
     0
 62
     7
  6
Continuous
370
     0
390
F
  0
ENDTAB
  0
TABLE
  2
STYLE
  5
3
330
0
100
AcDbSymbolTable
 70
     2
  0
STYLE
  5
11
330
3
100
AcDbSymbolTableRecord
100
AcDbTextStyleTableRecord
  2
Standard
 70
     0
 40
0.0
 41
1.0
 50
0.0
 71
     0
 42
0.2
  3
txt
  4

  0
STYLE
  5
A1
330
3
100
AcDbSymbolTableRecord
100
AcDbTextStyleTableRecord
  2
Style0
 70
     0
 40
0.0
 41
1.0
 50
0.0
 71
     0
 42
0.2
  3
cour.ttf
  4

1001
ACAD
1000
Courier New
1071
        0
  0
ENDTAB
  0
TABLE
  2
VIEW
  5
6
330
0
100
AcDbSymbolTable
 70
     0
  0
ENDTAB
  0
TABLE
  2
UCS
  5
7
330
0
100
AcDbSymbolTable
 70
     0
  0
ENDTAB
  0
TABLE
  2
APPID
  5
9
330
0
100
AcDbSymbolTable
 70
     3
  0
APPID
  5
12
330
9
100
AcDbSymbolTableRecord
100
AcDbRegAppTableRecord
  2
ACAD
 70
     0
  0
APPID
  5
6E
330
9
100
AcDbSymbolTableRecord
100
AcDbRegAppTableRecord
  2
ARCHLineXP
 70
     0
  0
APPID
  5
314
330
9
100
AcDbSymbolTableRecord
100
AcDbRegAppTableRecord
  2
ACAD_MLEADERVER
 70
     0
  0
ENDTAB
  0
TABLE
  2
DIMSTYLE
  5
A
330
0
100
AcDbSymbolTable
 70
     1
100
AcDbDimStyleTable
  0
DIMSTYLE
105
27
330
A
100
AcDbSymbolTableRecord
100
AcDbDimStyleTableRecord
  2
Standard
 70
     0
178
     0
340
11
  0
ENDTAB
  0
TABLE
  2
BLOCK_RECORD
  5
1
330
0
100
AcDbSymbolTable
 70
     2
  0
BLOCK_RECORD
  5
1F
330
1
100
AcDbSymbolTableRecord
100
AcDbBlockTableRecord
  2
*Model_Space
340
22
  0
BLOCK_RECORD
  5
1B
330
1
100
AcDbSymbolTableRecord
100
AcDbBlockTableRecord
  2
*Paper_Space
340
1E
  0
BLOCK_RECORD
  5
23
330
1
100
AcDbSymbolTableRecord
100
AcDbBlockTableRecord
  2
*Paper_Space0
340
26
  0
BLOCK_RECORD
  5
A3
330
1
100
AcDbSymbolTableRecord
100
AcDbBlockTableRecord
  2
dokument systemaufbauten.asc(id_1)
340
0
102
{BLKREFS
331
2D2
102
}
  0
ENDTAB
  0
ENDSEC
  0
SECTION
  2
BLOCKS
  0
BLOCK
  5
20
330
1F
100
AcDbEntity
  8
0
100
AcDbBlockBegin
  2
*Model_Space
 70
     0
 10
0.0
 20
0.0
 30
0.0
  3
*Model_Space
  1

  0
ENDBLK
  5
21
330
1F
100
AcDbEntity
  8
0
100
AcDbBlockEnd
  0
BLOCK
  5
1C
330
1B
100
AcDbEntity
 67
     1
  8
0
100
AcDbBlockBegin
  2
*Paper_Space
 70
     0
 10
0.0
 20
0.0
 30
0.0
  3
*Paper_Space
  1

  0
ENDBLK
  5
1D
330
1B
100
AcDbEntity
 67
     1
  8
0
100
AcDbBlockEnd
  0
BLOCK
  5
24
330
23
100
AcDbEntity
  8
0
100
AcDbBlockBegin
  2
*Paper_Space0
 70
     0
 10
0.0
 20
0.0
 30
0.0
  3
*Paper_Space0
  1

  0
ENDBLK
  5
25
330
23
100
AcDbEntity
  8
0
100
AcDbBlockEnd
  0
BLOCK
  5
2D3
330
A3
100
AcDbEntity
  8
0
100
AcDbBlockBegin
  2
dokument systemaufbauten.asc(id_1)
 70
     0
 10
0.0
 20
0.0
 30
0.0
  3
dokument systemaufbauten.asc(id_1)
  1

  0
HATCH
  5
A4
330
A3
100
AcDbEntity
  8
0 - Systemaufbauten
  6
Continuous
 62
     7
370
     0
100
AcDbHatch
 10
0.0
 20
0.0
 30
0.0
210
0.0
220
0.0
230
1.0
  2
SOLID
 70
     1
 71
     0
 91
        1
 92
        0
 93
        4
 72
     1
 10
533.736490381365
 20
755.9285351235922
 11
633.736490381365
 21
755.9285351235922
 72
     1
 10
633.736490381365
 20
755.9285351235922
 11
633.736490381365
 21
745.9285351235922
 72
     1
 10
633.736490381365
 20
745.9285351235922
 11
533.736490381365
 21
745.9285351235922
 72
     1
 10
533.736490381365
 20
745.9285351235922
 11
533.736490381365
 21
755.9285351235922
 97
        0
 75
     0
 76
     1
 98
        0
  0
HATCH
  5
A5
330
A3
100
AcDbEntity
  8
0 - Systemaufbauten
  6
Continuous
 62
     7
370
     0
100
AcDbHatch
 10
0.0
 20
0.0
 30
0.0
210
0.0
220
0.0
230
1.0
  2
SOLID
 70
     1
 71
     0
 91
        1
 92
        0
 93
        4
 72
     1
 10
733.736490381365
 20
755.9285351235922
 11
833.736490381365
 21
755.9285351235922
 72
     1
 10
833.736490381365
 20
755.9285351235922
 11
833.736490381365
 21
745.9285351235922
 72
     1
 10
833.736490381365
 20
745.9285351235922
 11
733.736490381365
 21
745.9285351235922
 72
     1
 10
733.736490381365
 20
745.9285351235922
 11
733.736490381365
 21
755.9285351235922
 97
        0
 75
     0
 76
     1
 98
        0
  0
HATCH
  5
A6
330
A3
100
AcDbEntity
  8
0 - Systemaufbauten
  6
Continuous
 62
     7
370
     0
100
AcDbHatch
 10
0.0
 20
0.0
 30
0.0
210
0.0
220
0.0
230
1.0
  2
SOLID
 70
     1
 71
     0
 91
        1
 92
        0
 93
        4
 72
     1
 10
933.736490381365
 20
755.9285351235922
 11
1033.736490381365
 21
755.9285351235922
 72
     1
 10
1033.736490381365
 20
755.9285351235922
 11
1033.736490381365
 21
745.9285351235922
 72
     1
 10
1033.736490381365
 20
745.9285351235922
 11
933.736490381365
 21
745.9285351235922
 72
     1
 10
933.736490381365
 20
745.9285351235922
 11
933.736490381365
 21
755.9285351235922
 97
        0
 75
     0
 76
     1
 98
        0
  0
HATCH
  5
A7
330
A3
100
AcDbEntity
  8
0 - Systemaufbauten
  6
Continuous
 62
     7
370
     0
100
AcDbHatch
 10
0.0
 20
0.0
 30
0.0
210
0.0
220
0.0
230
1.0
  2
SOLID
 70
     1
 71
     0
 91
        1
 92
        0
 93
        4
 72
     1
 10
1133.736490381365
 20
755.9285351235922
 11
1233.736490381365
 21
755.9285351235922
 72
     1
 10
1233.736490381365
 20
755.9285351235922
 11
1233.736490381365
 21
745.9285351235922
 72
     1
 10
1233.736490381365
 20
745.9285351235922
 11
1133.736490381365
 21
745.9285351235922
 72
     1
 10
1133.736490381365
 20
745.9285351235922
 11
1133.736490381365
 21
755.9285351235922
 97
        0
 75
     0
 76
     1
 98
        0
  0
HATCH
  5
A8
330
A3
100
AcDbEntity
  8
0 - Systemaufbauten
  6
Continuous
 62
     7
370
     0
100
AcDbHatch
 10
0.0
 20
0.0
 30
0.0
210
0.0
220
0.0
230
1.0
  2
SOLID
 70
     1
 71
     0
 91
        1
 92
        0
 93
        4
 72
     1
 10
1333.736490381365
 20
755.9285351235922
 11
1433.736490381365
 21
755.9285351235922
 72
     1
 10
1433.736490381365
 20
755.9285351235922
 11
1433.736490381365
 21
745.9285351235922
 72
     1
 10
1433.736490381365
 20
745.9285351235922
 11
1333.736490381365
 21
745.9285351235922
 72
     1
 10
1333.736490381365
 20
745.9285351235922
 11
1333.736490381365
 21
755.9285351235922
 97
        0
 75
     0
 76
     1
 98
        0
  0
HATCH
  5
A9
330
A3
100
AcDbEntity
  8
0 - Systemaufbauten
  6
Continuous
 62
     7
370
     0
100
AcDbHatch
 10
0.0
 20
0.0
 30
0.0
210
0.0
220
0.0
230
1.0
  2
SOLID
 70
     1
 71
     0
 91
        1
 92
        0
 93
        4
 72
     1
 10
1533.736490381365
 20
755.9285351235922
 11
1633.736490381365
 21
755.9285351235922
 72
     1
 10
1633.736490381365
 20
755.9285351235922
 11
1633.736490381365
 21
745.9285351235922
 72
     1
 10
1633.736490381365
 20
745.9285351235922
 11
1533.736490381365
 21
745.9285351235922
 72
     1
 10
1533.736490381365
 20
745.9285351235922
 11
1533.736490381365
 21
755.9285351235922
 97
        0
 75
     0
 76
     1
 98
        0
  0
HATCH
  5
AA
330
A3
100
AcDbEntity
  8
0 - Systemaufbauten
  6
Continuous
 62
     7
370
     0
100
AcDbHatch
 10
0.0
 20
0.0
 30
0.0
210
0.0
220
0.0
230
1.0
  2
SOLID
 70
     1
 71
     0
 91
        1
 92
        0
 93
        4
 72
     1
 10
1733.736490381365
 20
755.9285351235922
 11
1833.736490381365
 21
755.9285351235922
 72
     1
 10
1833.736490381365
 20
755.9285351235922
 11
1833.736490381365
 21
745.9285351235922
 72
     1
 10
1833.736490381365
 20
745.9285351235922
 11
1733.736490381365
 21
745.9285351235922
 72
     1
 10
1733.736490381365
 20
745.9285351235922
 11
1733.736490381365
 21
755.9285351235922
 97
        0
 75
     0
 76
     1
 98
        0
  0
HATCH
  5
AB
330
A3
100
AcDbEntity
  8
0 - Systemaufbauten
  6
Continuous
 62
    30
370
     0
100
AcDbHatch
 10
0.0
 20
0.0
 30
0.0
210
0.0
220
0.0
230
1.0
  2
SOLID
 70
     1
 71
     0
 91
        1
 92
        0
 93
       11
 72
     1
 10
1123.736490381365
 20
1055.928535123593
 11
1028.736494150637
 21
1055.928535123593
 72
     1
 10
1028.736494150637
 20
1055.928535123593
 11
1028.736494150637
 21
1065.928535123593
 72
     1
 10
1028.736494150637
 20
1065.928535123593
 11
1138.736486612095
 21
1065.928535123593
 72
     2
 10
1138.736490381365
 20
1060.928535123595
 40
4.999999999998773
 50
269.9999568073008
 51
360.0
 73
     0
 72
     2
 10
1148.736490381367
 20
1060.928535123593
 40
5.000000000000989
 50
180.0000000000082
 51
269.9999694582349
 73
     1
 72
     1
 10
1148.736487716094
 20
1055.928535123593
 11
1633.736490381365
 21
1055.928535123593
 72
     1
 10
1633.736490381365
 20
1055.928535123593
 11
1633.736490381365
 21
1045.928535123592
 72
     1
 10
1633.736490381365
 20
1045.928535123592
 11
1138.736493046636
 21
1045.928535123592
 72
     2
 10
1138.73649038136
 20
1050.928535123586
 40
4.999999999994361
 50
89.9999694581984
 51
180.0000000000896
 73
     0
 72
     2
 10
1128.736490381363
 20
1050.928535123593
 40
5.000000000001847
 50
0.0000000000081422
 51
90.00004319262874
 73
     1
 72
     1
 10
1128.736486612095
 20
1055.928535123593
 11
1123.736490381365
 21
1055.928535123593
 97
        0
 75
     0
 76
     1
 98
        0
  0
HATCH
  5
AC
330
A3
100
AcDbEntity
  8
0 - Systemaufbauten
  6
Continuous
 62
    30
370
     0
100
AcDbHatch
 10
0.0
 20
0.0
 30
0.0
210
0.0
220
0.0
230
1.0
  2
SOLID
 70
     1
 71
     0
 91
        1
 92
        0
 93
        4
 72
     1
 10
1633.736490381365
 20
1055.928535123593
 11
1833.736490381365
 21
1055.928535123593
 72
     1
 10
1833.736490381365
 20
1055.928535123593
 11
1833.736490381365
 21
1045.928535123592
 72
     1
 10
1833.736490381365
 20
1045.928535123592
 11
1633.736490381365
 21
1045.928535123592
 72
     1
 10
1633.736490381365
 20
1045.928535123592
 11
1633.736490381365
 21
1055.928535123593
 97
        0
 75
     0
 76
     1
 98
        0
  0
HATCH
  5
AD
330
A3
100
AcDbEntity
  8
0 - Systemaufbauten
  6
Continuous
 62
     7
370
     0
100
AcDbHatch
 10
0.0
 20
0.0
 30
0.0
210
0.0
220
0.0
230
1.0
  2
SOLID
 70
     1
 71
     0
 91
        1
 92
        0
 93
        4
 72
     1
 10
1103.736490381367
 20
1054.928535123593
 11
1063.736490381365
 21
1054.928535123593
 72
     1
 10
1063.736490381365
 20
1054.928535123593
 11
1063.736490381365
 21
1055.928535123593
 72
     1
 10
1063.736490381365
 20
1055.928535123593
 11
1103.736490381367
 21
1055.928535123593
 72
     1
 10
1103.736490381367
 20
1055.928535123593
 11
1103.736490381367
 21
1054.928535123593
 97
        0
 75
     0
 76
     1
 98
        0
  0
HATCH
  5
AE
330
A3
100
AcDbEntity
  8
0 - Systemaufbauten
  6
Continuous
 62
    30
370
     0
100
AcDbHatch
 10
0.0
 20
0.0
 30
0.0
210
0.0
220
0.0
230
1.0
  2
SOLID
 70
     1
 71
     0
 91
        1
 92
        0
 93
        6
 72
     1
 10
1103.736490381367
 20
1055.928535123593
 11
1123.736490381365
 21
1055.928535123593
 72
     1
 10
1123.736490381365
 20
1055.928535123593
 11
1123.736490381365
 21
1045.928535123592
 72
     1
 10
1123.736490381365
 20
1045.928535123592
 11
1086.236490381365
 21
1045.928535123592
 72
     1
 10
1086.236490381365
 20
1045.928535123592
 11
1086.236490381365
 21
1054.928535123593
 72
     1
 10
1086.236490381365
 20
1054.928535123593
 11
1103.736490381367
 21
1054.928535123593
 72
     1
 10
1103.736490381367
 20
1054.928535123593
 11
1103.736490381367
 21
1055.928535123593
 97
        0
 75
     0
 76
     1
 98
        0
  0
HATCH
  5
AF
330
A3
100
AcDbEntity
  8
0 - Systemaufbauten
  6
Continuous
 62
    30
370
     0
100
AcDbHatch
 10
0.0
 20
0.0
 30
0.0
210
0.0
220
0.0
230
1.0
  2
SOLID
 70
     1
 71
     0
 91
        1
 92
        0
 93
        6
 72
     1
 10
333.736490381365
 20
1055.928535123593
 11
1063.736490381365
 21
1055.928535123593
 72
     1
 10
1063.736490381365
 20
1055.928535123593
 11
1063.736490381365
 21
1054.928535123593
 72
     1
 10
1063.736490381365
 20
1054.928535123593
 11
1081.236490381365
 21
1054.928535123593
 72
     1
 10
1081.236490381365
 20
1054.928535123593
 11
1081.236490381365
 21
1045.928535123592
 72
     1
 10
1081.236490381365
 20
1045.928535123592
 11
333.736490381365
 21
1045.928535123592
 72
     1
 10
333.736490381365
 20
1045.928535123592
 11
333.736490381365
 21
1055.928535123593
 97
        0
 75
     0
 76
     1
 98
        0
  0
ARC
  5
B0
330
A3
100
AcDbEntity
  8
0 - Systemaufbauten
  6
Continuous
 62
     7
370
     0
100
AcDbCircle
 10
333.736490381365
 20
1039.261868258245
 30
0.0
 40
3.33333313465118
100
AcDbArc
 50
270.0
 51
329.9999974427113
  0
LINE
  5
B1
330
A3
100
AcDbEntity
  8
0 - Systemaufbauten
  6
Continuous
 62
     7
370
     0
100
AcDbLine
 10
336.6232404834063
 20
1037.595202137953
 30
0.0
 11
340.8497402793255
 21
1044.261868258244
 31
0.0
  0
ARC
  5
B2
330
A3
100
AcDbEntity
  8
0 - Systemaufbauten
  6
Continuous
 62
     7
370
     0
100
AcDbCircle
 10
343.736490381365
 20
1042.595201988943
 30
0.0
 40
3.33328818122972
100
AcDbArc
 50
30.00044020597701
 51
149.9999952245436
  0
LINE
  5
B3
330
A3
100
AcDbEntity
  8
0 - Systemaufbauten
  6
Continuous
 62
     7
370
     0
100
AcDbLine
 10
346.6232398873653
 20
1044.261868258244
 30
0.0
 11
350.8497408753665
 21
1037.595202137953
 31
0.0
  0
ARC
  5
B4
330
A3
100
AcDbEntity
  8
0 - Systemaufbauten
  6
Continuous
 62
     7
370
     0
100
AcDbCircle
 10
353.7364903813668
 20
1039.261868258245
 30
0.0
 40
3.33333146670084
100
AcDbArc
 50
210.000007679929
 51
270.0
  0
ARC
  5
B5
330
A3
100
AcDbEntity
  8
0 - Systemaufbauten
  6
Continuous
 62
     7
370
     0
100
AcDbCircle
 10
353.7364903813668
 20
1039.261868258245
 30
0.0
 40
3.33333313465118
100
AcDbArc
 50
270.0
 51
329.9999974427113
  0
LINE
  5
B6
330
A3
100
AcDbEntity
  8
0 - Systemaufbauten
  6
Continuous
 62
     7
370
     0
100
AcDbLine
 10
356.6232404834063
 20
1037.595202137953
 30
0.0
 11
360.8497402793255
 21
1044.261868258244
 31
0.0
  0
ARC
  5
B7
330
A3
100
AcDbEntity
  8
0 - Systemaufbauten
  6
Continuous
 62
     7
370
     0
100
AcDbCircle
 10
363.736490381365
 20
1042.595201988943
 30
0.0
 40
3.33328818122972
100
AcDbArc
 50
30.00044020597701
 51
149.9999952245436
  0
LINE
  5
B8
330
A3
100
AcDbEntity
  8
0 - Systemaufbauten
  6
Continuous
 62
     7
370
     0
100
AcDbLine
 10
366.6232398873653
 20
1044.261868258244
 30
0.0
 11
370.8497408753647
 21
1037.595202137953
 31
0.0
  0
ARC
  5
B9
330
A3
100
AcDbEntity
  8
0 - Systemaufbauten
  6
Continuous
 62
     7
370
     0
100
AcDbCircle
 10
373.736490381365
 20
1039.261868258245
 30
0.0
 40
3.33333146670084
100
AcDbArc
 50
210.000007679929
 51
270.0
  0
ARC
  5
BA
330
A3
100
AcDbEntity
  8
0 - Systemaufbauten
  6
Continuous
 62
     7
370
     0
100
AcDbCircle
 10
373.736490381365
 20
1039.261868258245
 30
0.0
 40
3.33333313465118
100
AcDbArc
 50
270.0
 51
329.9999974427113
  0
LINE
  5
BB
330
A3
100
AcDbEntity
  8
0 - Systemaufbauten
  6
Continuous
 62
     7
370
     0
100
AcDbLine
 10
376.6232404834045
 20
1037.595202137953
 30
0.0
 11
380.8497402793255
 21
1044.261868258244
 31
0.0
  0
ARC
  5
BC
330
A3
100
AcDbEntity
  8
0 - Systemaufbauten
  6
Continuous
 62
     7
370
     0
100
AcDbCircle
 10
383.736490381365
 20
1042.595201988943
 30
0.0
 40
3.33328818122972
100
AcDbArc
 50
30.00044020597701
 51
149.9999952245436
  0
LINE
  5
BD
330
A3
100
AcDbEntity
  8
0 - Systemaufbauten
  6
Continuous
 62
     7
370
     0
100
AcDbLine
 10
386.6232398873653
 20
1044.261868258244
 30
0.0
 11
390.8497408753647
 21
1037.595202137953
 31
0.0
  0
ARC
  5
BE
330
A3
100
AcDbEntity
  8
0 - Systemaufbauten
  6
Continuous
 62
     7
370
     0
100
AcDbCircle
 10
393.736490381365
 20
1039.261868258245
 30
0.0
 40
3.33333146670084
100
AcDbArc
 50
210.000007679929
 51
270.0
  0
ARC
  5
BF
330
A3
100
AcDbEntity
  8
0 - Systemaufbauten
  6
Continuous
 62
     7
370
     0
100
AcDbCircle
 10
393.736490381365
 20
1039.261868258245
 30
0.0
 40
3.33333313465118
100
AcDbArc
 50
270.0
 51
329.9999974427113
  0
LINE
  5
C0
330
A3
100
AcDbEntity
  8
0 - Systemaufbauten
  6
Continuous
 62
     7
370
     0
100
AcDbLine
 10
396.6232404834045
 20
1037.595202137953
 30
0.0
 11
400.8497402793164
 21
1044.261868258244
 31
0.0
  0
ARC
  5
C1
330
A3
100
AcDbEntity
  8
0 - Systemaufbauten
  6
Continuous
 62
     7
370
     0
100
AcDbCircle
 10
403.7364903813668
 20
1042.595201988943
 30
0.0
 40
3.33328818122972
100
AcDbArc
 50
30.00044020597701
 51
149.9999952245436
  0
LINE
  5
C2
330
A3
100
AcDbEntity
  8
0 - Systemaufbauten
  6
Continuous
 62
     7
370
     0
100
AcDbLine
 10
406.6232398873562
 20
1044.261868258244
 30
0.0
 11
410.8497408753665
 21
1037.595202137953
 31
0.0
  0
ARC
  5
C3
330
A3
100
AcDbEntity
  8
0 - Systemaufbauten
  6
Continuous
 62
     7
370
     0
100
AcDbCircle
 10
413.736490381365
 20
1039.261868258245
 30
0.0
 40
3.33333146670084
100
AcDbArc
 50
210.000007679929
 51
270.0
  0
ARC
  5
C4
330
A3
100
AcDbEntity
  8
0 - Systemaufbauten
  6
Continuous
 62
     7
370
     0
100
AcDbCircle
 10
413.736490381365
 20
1039.261868258245
 30
0.0
 40
3.33333313465118
100
AcDbArc
 50
270.0
 51
329.9999974427113
  0
LINE
  5
C5
330
A3
100
AcDbEntity
  8
0 - Systemaufbauten
  6
Continuous
 62
     7
370
     0
100
AcDbLine
 10
416.6232404834063
 20
1037.595202137953
 30
0.0
 11
420.8497402793146
 21
1044.261868258244
 31
0.0
  0
ARC
  5
C6
330
A3
100
AcDbEntity
  8
0 - Systemaufbauten
  6
Continuous
 62
     7
370
     0
100
AcDbCircle
 10
423.736490381365
 20
1042.595201988943
 30
0.0
 40
3.33328818122972
100
AcDbArc
 50
30.00044020597701
 51
149.9999952245436
  0
LINE
  5
C7
330
A3
100
AcDbEntity
  8
0 - Systemaufbauten
  6
Continuous
 62
     7
370
     0
100
AcDbLine
 10
426.6232398873562
 20
1044.261868258244
 30
0.0
 11
430.8497408753665
 21
1037.595202137953
 31
0.0
  0
ARC
  5
C8
330
A3
100
AcDbEntity
  8
0 - Systemaufbauten
  6
Continuous
 62
     7
370
     0
100
AcDbCircle
 10
433.736490381365
 20
1039.261868258245
 30
0.0
 40
3.33333146670084
100
AcDbArc
 50
210.000007679929
 51
270.0
  0
ARC
  5
C9
330
A3
100
AcDbEntity
  8
0 - Systemaufbauten
  6
Continuous
 62
     7
370
     0
100
AcDbCircle
 10
433.736490381365
 20
1039.261868258245
 30
0.0
 40
3.33333313465118
100
AcDbArc
 50
270.0
 51
329.9999974427113
  0
LINE
  5
CA
330
A3
100
AcDbEntity
  8
0 - Systemaufbauten
  6
Continuous
 62
     7
370
     0
100
AcDbLine
 10
436.6232404834063
 20
1037.595202137953
 30
0.0
 11
440.8497402793146
 21
1044.261868258244
 31
0.0
  0
ARC
  5
CB
330
A3
100
AcDbEntity
  8
0 - Systemaufbauten
  6
Continuous
 62
     7
370
     0
100
AcDbCircle
 10
443.736490381365
 20
1042.595201988943
 30
0.0
 40
3.33328818122972
100
AcDbArc
 50
30.00044020597701
 51
149.9999952245436
  0
LINE
  5
CC
330
A3
100
AcDbEntity
  8
0 - Systemaufbauten
  6
Continuous
 62
     7
370
     0
100
AcDbLine
 10
446.6232398873544
 20
1044.261868258244
 30
0.0
 11
450.8497408753665
 21
1037.595202137953
 31
0.0
  0
ARC
  5
CD
330
A3
100
AcDbEntity
  8
0 - Systemaufbauten
  6
Continuous
 62
     7
370
     0
100
AcDbCircle
 10
453.7364903813559
 20
1039.261868258245
 30
0.0
 40
3.33333146670084
100
AcDbArc
 50
210.000007679929
 51
270.0
  0
ARC
  5
CE
330
A3
100
AcDbEntity
  8
0 - Systemaufbauten
  6
Continuous
 62
     7
370
     0
100
AcDbCircle
 10
453.7364903813559
 20
1039.261868258245
 30
0.0
 40
3.33333313465118
100
AcDbArc
 50
270.0
 51
329.9999974427113
  0
LINE
  5
CF
330
A3
100
AcDbEntity
  8
0 - Systemaufbauten
  6
Continuous
 62
     7
370
     0
100
AcDbLine
 10
456.6232404834063
 20
1037.595202137953
 30
0.0
 11
460.8497402793164
 21
1044.261868258244
 31
0.0
  0
ARC
  5
D0
330
A3
100
AcDbEntity
  8
0 - Systemaufbauten
  6
Continuous
 62
     7
370
     0
100
AcDbCircle
 10
463.7364903813559
 20
1042.595201988943
 30
0.0
 40
3.33328818122972
100
AcDbArc
 50
30.00044020597701
 51
149.9999952245436
  0
LINE
  5
D1
330
A3
100
AcDbEntity
  8
0 - Systemaufbauten
  6
Continuous
 62
     7
370
     0
100
AcDbLine
 10
466.6232398873562
 20
1044.261868258244
 30
0.0
 11
470.8497408753647
 21
1037.595202137953
 31
0.0
  0
ARC
  5
D2
330
A3
100
AcDbEntity
  8
0 - Systemaufbauten
  6
Continuous
 62
     7
370
     0
100
AcDbCircle
 10
473.7364903813541
 20
1039.261868258245
 30
0.0
 40
3.33333146670084
100
AcDbArc
 50
210.000007679929
 51
270.0
  0
ARC
  5
D3
330
A3
100
AcDbEntity
  8
0 - Systemaufbauten
  6
Continuous
 62
     7
370
     0
100
AcDbCircle
 10
473.7364903813541
 20
1039.261868258245
 30
0.0
 40
3.33333313465118
100
AcDbArc
 50
270.0
 51
329.9999974427113
  0
LINE
  5
D4
330
A3
100
AcDbEntity
  8
0 - Systemaufbauten
  6
Continuous
 62
     7
370
     0
100
AcDbLine
 10
476.6232404834045
 20
1037.595202137953
 30
0.0
 11
480.8497402793164
 21
1044.261868258244
 31
0.0
  0
ARC
  5
D5
330
A3
100
AcDbEntity
  8
0 - Systemaufbauten
  6
Continuous
 62
     7
370
     0
100
AcDbCircle
 10
483.7364903813559
 20
1042.595201988943
 30
0.0
 40
3.33328818122972
100
AcDbArc
 50
30.00044020597701
 51
149.9999952245436
  0
LINE
  5
D6
330
A3
100
AcDbEntity
  8
0 - Systemaufbauten
  6
Continuous
 62
     7
370
     0
100
AcDbLine
 10
486.6232398873562
 20
1044.261868258244
 30
0.0
 11
490.8497408753647
 21
1037.595202137953
 31
0.0
  0
ARC
  5
D7
330
A3
100
AcDbEntity
  8
0 - Systemaufbauten
  6
Continuous
 62
     7
370
     0
100
AcDbCircle
 10
493.7364903813559
 20
1039.261868258245
 30
0.0
 40
3.33333146670084
100
AcDbArc
 50
210.000007679929
 51
270.0
  0
ARC
  5
D8
330
A3
100
AcDbEntity
  8
0 - Systemaufbauten
  6
Continuous
 62
     7
370
     0
100
AcDbCircle
 10
493.7364903813559
 20
1039.261868258245
 30
0.0
 40
3.33333313465118
100
AcDbArc
 50
270.0
 51
329.9999974427113
  0
LINE
  5
D9
330
A3
100
AcDbEntity
  8
0 - Systemaufbauten
  6
Continuous
 62
     7
370
     0
100
AcDbLine
 10
496.6232404834045
 20
1037.595202137953
 30
0.0
 11
500.8497402793164
 21
1044.261868258244
 31
0.0
  0
ARC
  5
DA
330
A3
100
AcDbEntity
  8
0 - Systemaufbauten
  6
Continuous
 62
     7
370
     0
100
AcDbCircle
 10
503.7364903813559
 20
1042.595201988943
 30
0.0
 40
3.33328818122972
100
AcDbArc
 50
30.00044020597701
 51
149.9999952245436
  0
LINE
  5
DB
330
A3
100
AcDbEntity
  8
0 - Systemaufbauten
  6
Continuous
 62
     7
370
     0
100
AcDbLine
 10
506.6232398873562
 20
1044.261868258244
 30
0.0
 11
510.8497408753556
 21
1037.595202137953
 31
0.0
  0
ARC
  5
DC
330
A3
100
AcDbEntity
  8
0 - Systemaufbauten
  6
Continuous
 62
     7
370
     0
100
AcDbCircle
 10
513.7364903813559
 20
1039.261868258245
 30
0.0
 40
3.33333146670084
100
AcDbArc
 50
210.000007679929
 51
270.0
  0
ARC
  5
DD
330
A3
100
AcDbEntity
  8
0 - Systemaufbauten
  6
Continuous
 62
     7
370
     0
100
AcDbCircle
 10
513.7364903813559
 20
1039.261868258245
 30
0.0
 40
3.33333313465118
100
AcDbArc
 50
270.0
 51
329.9999974427113
  0
LINE
  5
DE
330
A3
100
AcDbEntity
  8
0 - Systemaufbauten
  6
Continuous
 62
     7
370
     0
100
AcDbLine
 10
516.6232404833954
 20
1037.595202137953
 30
0.0
 11
520.8497402793146
 21
1044.261868258244
 31
0.0
  0
ARC
  5
DF
330
A3
100
AcDbEntity
  8
0 - Systemaufbauten
  6
Continuous
 62
     7
370
     0
100
AcDbCircle
 10
523.7364903813541
 20
1042.595201988943
 30
0.0
 40
3.33328818122972
100
AcDbArc
 50
30.00044020597701
 51
149.9999952245436
  0
LINE
  5
E0
330
A3
100
AcDbEntity
  8
0 - Systemaufbauten
  6
Continuous
 62
     7
370
     0
100
AcDbLine
 10
526.6232398873562
 20
1044.261868258244
 30
0.0
 11
530.8497408753556
 21
1037.595202137953
 31
0.0
  0
ARC
  5
E1
330
A3
100
AcDbEntity
  8
0 - Systemaufbauten
  6
Continuous
 62
     7
370
     0
100
AcDbCircle
 10
533.7364903813559
 20
1039.261868258245
 30
0.0
 40
3.33333146670084
100
AcDbArc
 50
210.000007679929
 51
270.0
  0
ARC
  5
E2
330
A3
100
AcDbEntity
  8
0 - Systemaufbauten
  6
Continuous
 62
     7
370
     0
100
AcDbCircle
 10
533.7364903813559
 20
1039.261868258245
 30
0.0
 40
3.33333313465118
100
AcDbArc
 50
270.0
 51
329.9999974427113
  0
LINE
  5
E3
330
A3
100
AcDbEntity
  8
0 - Systemaufbauten
  6
Continuous
 62
     7
370
     0
100
AcDbLine
 10
536.6232404833954
 20
1037.595202137953
 30
0.0
 11
540.8497402793146
 21
1044.261868258244
 31
0.0
  0
ARC
  5
E4
330
A3
100
AcDbEntity
  8
0 - Systemaufbauten
  6
Continuous
 62
     7
370
     0
100
AcDbCircle
 10
543.7364903813559
 20
1042.595201988943
 30
0.0
 40
3.33328818122972
100
AcDbArc
 50
30.00044020597701
 51
149.9999952245436
  0
LINE
  5
E5
330
A3
100
AcDbEntity
  8
0 - Systemaufbauten
  6
Continuous
 62
     7
370
     0
100
AcDbLine
 10
546.6232398873544
 20
1044.261868258244
 30
0.0
 11
550.8497408753556
 21
1037.595202137953
 31
0.0
  0
ARC
  5
E6
330
A3
100
AcDbEntity
  8
0 - Systemaufbauten
  6
Continuous
 62
     7
370
     0
100
AcDbCircle
 10
553.7364903813559
 20
1039.261868258245
 30
0.0
 40
3.33333146670084
100
AcDbArc
 50
210.000007679929
 51
270.0
  0
ARC
  5
E7
330
A3
100
AcDbEntity
  8
0 - Systemaufbauten
  6
Continuous
 62
     7
370
     0
100
AcDbCircle
 10
553.7364903813559
 20
1039.261868258245
 30
0.0
 40
3.33333313465118
100
AcDbArc
 50
270.0
 51
329.9999974427113
  0
LINE
  5
E8
330
A3
100
AcDbEntity
  8
0 - Systemaufbauten
  6
Continuous
 62
     7
370
     0
100
AcDbLine
 10
556.6232404833954
 20
1037.595202137953
 30
0.0
 11
560.8497402793164
 21
1044.261868258244
 31
0.0
  0
ARC
  5
E9
330
A3
100
AcDbEntity
  8
0 - Systemaufbauten
  6
Continuous
 62
     7
370
     0
100
AcDbCircle
 10
563.7364903813559
 20
1042.595201988943
 30
0.0
 40
3.33328818122972
100
AcDbArc
 50
30.00044020597701
 51
149.9999952245436
  0
LINE
  5
EA
330
A3
100
AcDbEntity
  8
0 - Systemaufbauten
  6
Continuous
 62
     7
370
     0
100
AcDbLine
 10
566.6232398873562
 20
1044.261868258244
 30
0.0
 11
570.8497408753556
 21
1037.595202137953
 31
0.0
  0
ARC
  5
EB
330
A3
100
AcDbEntity
  8
0 - Systemaufbauten
  6
Continuous
 62
     7
370
     0
100
AcDbCircle
 10
573.7364903813541
 20
1039.261868258245
 30
0.0
 40
3.33333146670084
100
AcDbArc
 50
210.000007679929
 51
270.0
  0
ARC
  5
EC
330
A3
100
AcDbEntity
  8
0 - Systemaufbauten
  6
Continuous
 62
     7
370
     0
100
AcDbCircle
 10
573.7364903813541
 20
1039.261868258245
 30
0.0
 40
3.33333313465118
100
AcDbArc
 50
270.0
 51
329.9999974427113
  0
LINE
  5
ED
330
A3
100
AcDbEntity
  8
0 - Systemaufbauten
  6
Continuous
 62
     7
370
     0
100
AcDbLine
 10
576.6232404833954
 20
1037.595202137953
 30
0.0
 11
580.8497402793055
 21
1044.261868258244
 31
0.0
  0
ARC
  5
EE
330
A3
100
AcDbEntity
  8
0 - Systemaufbauten
  6
Continuous
 62
     7
370
     0
100
AcDbCircle
 10
583.7364903813559
 20
1042.595201988943
 30
0.0
 40
3.33328818122972
100
AcDbArc
 50
30.00044020597701
 51
149.9999952245436
  0
LINE
  5
EF
330
A3
100
AcDbEntity
  8
0 - Systemaufbauten
  6
Continuous
 62
     7
370
     0
100
AcDbLine
 10
586.6232398873453
 20
1044.261868258244
 30
0.0
 11
590.8497408753556
 21
1037.595202137953
 31
0.0
  0
ARC
  5
F0
330
A3
100
AcDbEntity
  8
0 - Systemaufbauten
  6
Continuous
 62
     7
370
     0
100
AcDbCircle
 10
593.7364903813559
 20
1039.261868258245
 30
0.0
 40
3.33333146670084
100
AcDbArc
 50
210.000007679929
 51
270.0
  0
ARC
  5
F1
330
A3
100
AcDbEntity
  8
0 - Systemaufbauten
  6
Continuous
 62
     7
370
     0
100
AcDbCircle
 10
593.7364903813559
 20
1039.261868258245
 30
0.0
 40
3.33333313465118
100
AcDbArc
 50
270.0
 51
329.9999974427113
  0
LINE
  5
F2
330
A3
100
AcDbEntity
  8
0 - Systemaufbauten
  6
Continuous
 62
     7
370
     0
100
AcDbLine
 10
596.6232404833954
 20
1037.595202137953
 30
0.0
 11
600.8497402793055
 21
1044.261868258244
 31
0.0
  0
ARC
  5
F3
330
A3
100
AcDbEntity
  8
0 - Systemaufbauten
  6
Continuous
 62
     7
370
     0
100
AcDbCircle
 10
603.7364903813559
 20
1042.595201988943
 30
0.0
 40
3.33328818122972
100
AcDbArc
 50
30.00044020597701
 51
149.9999952245436
  0
LINE
  5
F4
330
A3
100
AcDbEntity
  8
0 - Systemaufbauten
  6
Continuous
 62
     7
370
     0
100
AcDbLine
 10
606.6232398873453
 20
1044.261868258244
 30
0.0
 11
610.8497408753556
 21
1037.595202137953
 31
0.0
  0
ARC
  5
F5
330
A3
100
AcDbEntity
  8
0 - Systemaufbauten
  6
Continuous
 62
     7
370
     0
100
AcDbCircle
 10
613.7364903813559
 20
1039.261868258245
 30
0.0
 40
3.33333146670084
100
AcDbArc
 50
210.000007679929
 51
270.0
  0
ARC
  5
F6
330
A3
100
AcDbEntity
  8
0 - Systemaufbauten
  6
Continuous
 62
     7
370
     0
100
AcDbCircle
 10
613.7364903813559
 20
1039.261868258245
 30
0.0
 40
3.33333313465118
100
AcDbArc
 50
270.0
 51
329.9999974427113
  0
LINE
  5
F7
330
A3
100
AcDbEntity
  8
0 - Systemaufbauten
  6
Continuous
 62
     7
370
     0
100
AcDbLine
 10
616.6232404833954
 20
1037.595202137953
 30
0.0
 11
620.8497402793055
 21
1044.261868258244
 31
0.0
  0
ARC
  5
F8
330
A3
100
AcDbEntity
  8
0 - Systemaufbauten
  6
Continuous
 62
     7
370
     0
100
AcDbCircle
 10
623.7364903813541
 20
1042.595201988943
 30
0.0
 40
3.33328818122972
100
AcDbArc
 50
30.00044020597701
 51
149.9999952245436
  0
LINE
  5
F9
330
A3
100
AcDbEntity
  8
0 - Systemaufbauten
  6
Continuous
 62
     7
370
     0
100
AcDbLine
 10
626.6232398873472
 20
1044.261868258244
 30
0.0
 11
630.8497408753556
 21
1037.595202137953
 31
0.0
  0
ARC
  5
FA
330
A3
100
AcDbEntity
  8
0 - Systemaufbauten
  6
Continuous
 62
     7
370
     0
100
AcDbCircle
 10
633.7364903813468
 20
1039.261868258245
 30
0.0
 40
3.33333146670084
100
AcDbArc
 50
210.000007679929
 51
270.0
  0
ARC
  5
FB
330
A3
100
AcDbEntity
  8
0 - Systemaufbauten
  6
Continuous
 62
     7
370
     0
100
AcDbCircle
 10
633.7364903813468
 20
1039.261868258245
 30
0.0
 40
3.33333313465118
100
AcDbArc
 50
270.0
 51
329.9999974427113
  0
LINE
  5
FC
330
A3
100
AcDbEntity
  8
0 - Systemaufbauten
  6
Continuous
 62
     7
370
     0
100
AcDbLine
 10
636.6232404833954
 20
1037.595202137953
 30
0.0
 11
640.8497402793055
 21
1044.261868258244
 31
0.0
  0
ARC
  5
FD
330
A3
100
AcDbEntity
  8
0 - Systemaufbauten
  6
Continuous
 62
     7
370
     0
100
AcDbCircle
 10
643.736490381345
 20
1042.595201988943
 30
0.0
 40
3.33328818122972
100
AcDbArc
 50
30.00044020597701
 51
149.9999952245436
  0
LINE
  5
FE
330
A3
100
AcDbEntity
  8
0 - Systemaufbauten
  6
Continuous
 62
     7
370
     0
100
AcDbLine
 10
646.6232398873453
 20
1044.261868258244
 30
0.0
 11
650.8497408753556
 21
1037.595202137953
 31
0.0
  0
ARC
  5
FF
330
A3
100
AcDbEntity
  8
0 - Systemaufbauten
  6
Continuous
 62
     7
370
     0
100
AcDbCircle
 10
653.7364903813468
 20
1039.261868258245
 30
0.0
 40
3.33333146670084
100
AcDbArc
 50
210.000007679929
 51
270.0
  0
ARC
  5
100
330
A3
100
AcDbEntity
  8
0 - Systemaufbauten
  6
Continuous
 62
     7
370
     0
100
AcDbCircle
 10
653.7364903813468
 20
1039.261868258245
 30
0.0
 40
3.33333313465118
100
AcDbArc
 50
270.0
 51
329.9999974427113
  0
LINE
  5
101
330
A3
100
AcDbEntity
  8
0 - Systemaufbauten
  6
Continuous
 62
     7
370
     0
100
AcDbLine
 10
656.6232404833954
 20
1037.595202137953
 30
0.0
 11
660.8497402793055
 21
1044.261868258244
 31
0.0
  0
ARC
  5
102
330
A3
100
AcDbEntity
  8
0 - Systemaufbauten
  6
Continuous
 62
     7
370
     0
100
AcDbCircle
 10
663.736490381345
 20
1042.595201988943
 30
0.0
 40
3.33328818122972
100
AcDbArc
 50
30.00044020597701
 51
149.9999952245436
  0
LINE
  5
103
330
A3
100
AcDbEntity
  8
0 - Systemaufbauten
  6
Continuous
 62
     7
370
     0
100
AcDbLine
 10
666.6232398873453
 20
1044.261868258244
 30
0.0
 11
670.8497408753556
 21
1037.595202137953
 31
0.0
  0
ARC
  5
104
330
A3
100
AcDbEntity
  8
0 - Systemaufbauten
  6
Continuous
 62
     7
370
     0
100
AcDbCircle
 10
673.736490381345
 20
1039.261868258245
 30
0.0
 40
3.33333146670084
100
AcDbArc
 50
210.000007679929
 51
270.0
  0
ARC
  5
105
330
A3
100
AcDbEntity
  8
0 - Systemaufbauten
  6
Continuous
 62
     7
370
     0
100
AcDbCircle
 10
673.736490381345
 20
1039.261868258245
 30
0.0
 40
3.33333313465118
100
AcDbArc
 50
270.0
 51
329.9999974427113
  0
LINE
  5
106
330
A3
100
AcDbEntity
  8
0 - Systemaufbauten
  6
Continuous
 62
     7
370
     0
100
AcDbLine
 10
676.6232404833954
 20
1037.595202137953
 30
0.0
 11
680.8497402793055
 21
1044.261868258244
 31
0.0
  0
ARC
  5
107
330
A3
100
AcDbEntity
  8
0 - Systemaufbauten
  6
Continuous
 62
     7
370
     0
100
AcDbCircle
 10
683.7364903813468
 20
1042.595201988943
 30
0.0
 40
3.33328818122972
100
AcDbArc
 50
30.00044020597701
 51
149.9999952245436
  0
LINE
  5
108
330
A3
100
AcDbEntity
  8
0 - Systemaufbauten
  6
Continuous
 62
     7
370
     0
100
AcDbLine
 10
686.6232398873453
 20
1044.261868258244
 30
0.0
 11
690.8497408753447
 21
1037.595202137953
 31
0.0
  0
ARC
  5
109
330
A3
100
AcDbEntity
  8
0 - Systemaufbauten
  6
Continuous
 62
     7
370
     0
100
AcDbCircle
 10
693.736490381345
 20
1039.261868258245
 30
0.0
 40
3.33333146670084
100
AcDbArc
 50
210.000007679929
 51
270.0
  0
ARC
  5
10A
330
A3
100
AcDbEntity
  8
0 - Systemaufbauten
  6
Continuous
 62
     7
370
     0
100
AcDbCircle
 10
693.736490381345
 20
1039.261868258245
 30
0.0
 40
3.33333313465118
100
AcDbArc
 50
270.0
 51
329.9999974427113
  0
LINE
  5
10B
330
A3
100
AcDbEntity
  8
0 - Systemaufbauten
  6
Continuous
 62
     7
370
     0
100
AcDbLine
 10
696.6232404833845
 20
1037.595202137953
 30
0.0
 11
700.8497402793055
 21
1044.261868258244
 31
0.0
  0
ARC
  5
10C
330
A3
100
AcDbEntity
  8
0 - Systemaufbauten
  6
Continuous
 62
     7
370
     0
100
AcDbCircle
 10
703.7364903813468
 20
1042.595201988943
 30
0.0
 40
3.33328818122972
100
AcDbArc
 50
30.00044020597701
 51
149.9999952245436
  0
LINE
  5
10D
330
A3
100
AcDbEntity
  8
0 - Systemaufbauten
  6
Continuous
 62
     7
370
     0
100
AcDbLine
 10
706.6232398873453
 20
1044.261868258244
 30
0.0
 11
710.8497408753465
 21
1037.595202137953
 31
0.0
  0
ARC
  5
10E
330
A3
100
AcDbEntity
  8
0 - Systemaufbauten
  6
Continuous
 62
     7
370
     0
100
AcDbCircle
 10
713.736490381345
 20
1039.261868258245
 30
0.0
 40
3.33333146670084
100
AcDbArc
 50
210.000007679929
 51
270.0
  0
ARC
  5
10F
330
A3
100
AcDbEntity
  8
0 - Systemaufbauten
  6
Continuous
 62
     7
370
     0
100
AcDbCircle
 10
713.736490381345
 20
1039.261868258245
 30
0.0
 40
3.33333313465118
100
AcDbArc
 50
270.0
 51
329.9999974427113
  0
LINE
  5
110
330
A3
100
AcDbEntity
  8
0 - Systemaufbauten
  6
Continuous
 62
     7
370
     0
100
AcDbLine
 10
716.6232404833863
 20
1037.595202137953
 30
0.0
 11
720.8497402793055
 21
1044.261868258244
 31
0.0
  0
ARC
  5
111
330
A3
100
AcDbEntity
  8
0 - Systemaufbauten
  6
Continuous
 62
     7
370
     0
100
AcDbCircle
 10
723.736490381345
 20
1042.595201988943
 30
0.0
 40
3.33328818122972
100
AcDbArc
 50
30.00044020597701
 51
149.9999952245436
  0
LINE
  5
112
330
A3
100
AcDbEntity
  8
0 - Systemaufbauten
  6
Continuous
 62
     7
370
     0
100
AcDbLine
 10
726.6232398873472
 20
1044.261868258244
 30
0.0
 11
730.8497408753465
 21
1037.595202137953
 31
0.0
  0
ARC
  5
113
330
A3
100
AcDbEntity
  8
0 - Systemaufbauten
  6
Continuous
 62
     7
370
     0
100
AcDbCircle
 10
733.7364903813468
 20
1039.261868258245
 30
0.0
 40
3.33333146670084
100
AcDbArc
 50
210.000007679929
 51
270.0
  0
ARC
  5
114
330
A3
100
AcDbEntity
  8
0 - Systemaufbauten
  6
Continuous
 62
     7
370
     0
100
AcDbCircle
 10
733.7364903813468
 20
1039.261868258245
 30
0.0
 40
3.33333313465118
100
AcDbArc
 50
270.0
 51
329.9999974427113
  0
LINE
  5
115
330
A3
100
AcDbEntity
  8
0 - Systemaufbauten
  6
Continuous
 62
     7
370
     0
100
AcDbLine
 10
736.6232404833863
 20
1037.595202137953
 30
0.0
 11
740.8497402793055
 21
1044.261868258244
 31
0.0
  0
ARC
  5
116
330
A3
100
AcDbEntity
  8
0 - Systemaufbauten
  6
Continuous
 62
     7
370
     0
100
AcDbCircle
 10
743.736490381345
 20
1042.595201988943
 30
0.0
 40
3.33328818122972
100
AcDbArc
 50
30.00044020597701
 51
149.9999952245436
  0
LINE
  5
117
330
A3
100
AcDbEntity
  8
0 - Systemaufbauten
  6
Continuous
 62
     7
370
     0
100
AcDbLine
 10
746.6232398873453
 20
1044.261868258244
 30
0.0
 11
750.8497408753447
 21
1037.595202137953
 31
0.0
  0
ARC
  5
118
330
A3
100
AcDbEntity
  8
0 - Systemaufbauten
  6
Continuous
 62
     7
370
     0
100
AcDbCircle
 10
753.7364903813468
 20
1039.261868258245
 30
0.0
 40
3.33333146670084
100
AcDbArc
 50
210.000007679929
 51
270.0
  0
ARC
  5
119
330
A3
100
AcDbEntity
  8
0 - Systemaufbauten
  6
Continuous
 62
     7
370
     0
100
AcDbCircle
 10
753.7364903813468
 20
1039.261868258245
 30
0.0
 40
3.33333313465118
100
AcDbArc
 50
270.0
 51
329.9999974427113
  0
LINE
  5
11A
330
A3
100
AcDbEntity
  8
0 - Systemaufbauten
  6
Continuous
 62
     7
370
     0
100
AcDbLine
 10
756.6232404833863
 20
1037.595202137953
 30
0.0
 11
760.8497402792964
 21
1044.261868258244
 31
0.0
  0
ARC
  5
11B
330
A3
100
AcDbEntity
  8
0 - Systemaufbauten
  6
Continuous
 62
     7
370
     0
100
AcDbCircle
 10
763.736490381345
 20
1042.595201988943
 30
0.0
 40
3.33328818122972
100
AcDbArc
 50
30.00044020597701
 51
149.9999952245436
  0
LINE
  5
11C
330
A3
100
AcDbEntity
  8
0 - Systemaufbauten
  6
Continuous
 62
     7
370
     0
100
AcDbLine
 10
766.6232398873362
 20
1044.261868258244
 30
0.0
 11
770.8497408753447
 21
1037.595202137953
 31
0.0
  0
ARC
  5
11D
330
A3
100
AcDbEntity
  8
0 - Systemaufbauten
  6
Continuous
 62
     7
370
     0
100
AcDbCircle
 10
773.736490381345
 20
1039.261868258245
 30
0.0
 40
3.33333146670084
100
AcDbArc
 50
210.000007679929
 51
270.0
  0
ARC
  5
11E
330
A3
100
AcDbEntity
  8
0 - Systemaufbauten
  6
Continuous
 62
     7
370
     0
100
AcDbCircle
 10
773.736490381345
 20
1039.261868258245
 30
0.0
 40
3.33333313465118
100
AcDbArc
 50
270.0
 51
329.9999974427113
  0
LINE
  5
11F
330
A3
100
AcDbEntity
  8
0 - Systemaufbauten
  6
Continuous
 62
     7
370
     0
100
AcDbLine
 10
776.6232404833845
 20
1037.595202137953
 30
0.0
 11
780.8497402792964
 21
1044.261868258244
 31
0.0
  0
ARC
  5
120
330
A3
100
AcDbEntity
  8
0 - Systemaufbauten
  6
Continuous
 62
     7
370
     0
100
AcDbCircle
 10
783.7364903813468
 20
1042.595201988943
 30
0.0
 40
3.33328818122972
100
AcDbArc
 50
30.00044020597701
 51
149.9999952245436
  0
LINE
  5
121
330
A3
100
AcDbEntity
  8
0 - Systemaufbauten
  6
Continuous
 62
     7
370
     0
100
AcDbLine
 10
786.6232398873362
 20
1044.261868258244
 30
0.0
 11
790.8497408753447
 21
1037.595202137953
 31
0.0
  0
ARC
  5
122
330
A3
100
AcDbEntity
  8
0 - Systemaufbauten
  6
Continuous
 62
     7
370
     0
100
AcDbCircle
 10
793.736490381345
 20
1039.261868258245
 30
0.0
 40
3.33333146670084
100
AcDbArc
 50
210.000007679929
 51
270.0
  0
ARC
  5
123
330
A3
100
AcDbEntity
  8
0 - Systemaufbauten
  6
Continuous
 62
     7
370
     0
100
AcDbCircle
 10
793.736490381345
 20
1039.261868258245
 30
0.0
 40
3.33333313465118
100
AcDbArc
 50
270.0
 51
329.9999974427113
  0
LINE
  5
124
330
A3
100
AcDbEntity
  8
0 - Systemaufbauten
  6
Continuous
 62
     7
370
     0
100
AcDbLine
 10
796.6232404833845
 20
1037.595202137953
 30
0.0
 11
800.8497402792964
 21
1044.261868258244
 31
0.0
  0
ARC
  5
125
330
A3
100
AcDbEntity
  8
0 - Systemaufbauten
  6
Continuous
 62
     7
370
     0
100
AcDbCircle
 10
803.7364903813359
 20
1042.595201988943
 30
0.0
 40
3.33328818122972
100
AcDbArc
 50
30.00044020597701
 51
149.9999952245436
  0
LINE
  5
126
330
A3
100
AcDbEntity
  8
0 - Systemaufbauten
  6
Continuous
 62
     7
370
     0
100
AcDbLine
 10
806.6232398873362
 20
1044.261868258244
 30
0.0
 11
810.8497408753465
 21
1037.595202137953
 31
0.0
  0
ARC
  5
127
330
A3
100
AcDbEntity
  8
0 - Systemaufbauten
  6
Continuous
 62
     7
370
     0
100
AcDbCircle
 10
813.7364903813359
 20
1039.261868258245
 30
0.0
 40
3.33333146670084
100
AcDbArc
 50
210.000007679929
 51
270.0
  0
ARC
  5
128
330
A3
100
AcDbEntity
  8
0 - Systemaufbauten
  6
Continuous
 62
     7
370
     0
100
AcDbCircle
 10
813.7364903813359
 20
1039.261868258245
 30
0.0
 40
3.33333313465118
100
AcDbArc
 50
270.0
 51
329.9999974427113
  0
LINE
  5
129
330
A3
100
AcDbEntity
  8
0 - Systemaufbauten
  6
Continuous
 62
     7
370
     0
100
AcDbLine
 10
816.6232404833863
 20
1037.595202137953
 30
0.0
 11
820.8497402792946
 21
1044.261868258244
 31
0.0
  0
ARC
  5
12A
330
A3
100
AcDbEntity
  8
0 - Systemaufbauten
  6
Continuous
 62
     7
370
     0
100
AcDbCircle
 10
823.7364903813359
 20
1042.595201988943
 30
0.0
 40
3.33328818122972
100
AcDbArc
 50
30.00044020597701
 51
149.9999952245436
  0
LINE
  5
12B
330
A3
100
AcDbEntity
  8
0 - Systemaufbauten
  6
Continuous
 62
     7
370
     0
100
AcDbLine
 10
826.6232398873344
 20
1044.261868258244
 30
0.0
 11
830.8497408753465
 21
1037.595202137953
 31
0.0
  0
ARC
  5
12C
330
A3
100
AcDbEntity
  8
0 - Systemaufbauten
  6
Continuous
 62
     7
370
     0
100
AcDbCircle
 10
833.7364903813359
 20
1039.261868258245
 30
0.0
 40
3.33333146670084
100
AcDbArc
 50
210.000007679929
 51
270.0
  0
ARC
  5
12D
330
A3
100
AcDbEntity
  8
0 - Systemaufbauten
  6
Continuous
 62
     7
370
     0
100
AcDbCircle
 10
833.7364903813359
 20
1039.261868258245
 30
0.0
 40
3.33333313465118
100
AcDbArc
 50
270.0
 51
329.9999974427113
  0
LINE
  5
12E
330
A3
100
AcDbEntity
  8
0 - Systemaufbauten
  6
Continuous
 62
     7
370
     0
100
AcDbLine
 10
836.6232404833863
 20
1037.595202137953
 30
0.0
 11
840.8497402792946
 21
1044.261868258244
 31
0.0
  0
ARC
  5
12F
330
A3
100
AcDbEntity
  8
0 - Systemaufbauten
  6
Continuous
 62
     7
370
     0
100
AcDbCircle
 10
843.7364903813359
 20
1042.595201988943
 30
0.0
 40
3.33328818122972
100
AcDbArc
 50
30.00044020597701
 51
149.9999952245436
  0
LINE
  5
130
330
A3
100
AcDbEntity
  8
0 - Systemaufbauten
  6
Continuous
 62
     7
370
     0
100
AcDbLine
 10
846.6232398873344
 20
1044.261868258244
 30
0.0
 11
850.8497408753447
 21
1037.595202137953
 31
0.0
  0
ARC
  5
131
330
A3
100
AcDbEntity
  8
0 - Systemaufbauten
  6
Continuous
 62
     7
370
     0
100
AcDbCircle
 10
853.7364903813359
 20
1039.261868258245
 30
0.0
 40
3.33333146670084
100
AcDbArc
 50
210.000007679929
 51
270.0
  0
ARC
  5
132
330
A3
100
AcDbEntity
  8
0 - Systemaufbauten
  6
Continuous
 62
     7
370
     0
100
AcDbCircle
 10
853.7364903813359
 20
1039.261868258245
 30
0.0
 40
3.33333313465118
100
AcDbArc
 50
270.0
 51
329.9999974427113
  0
LINE
  5
133
330
A3
100
AcDbEntity
  8
0 - Systemaufbauten
  6
Continuous
 62
     7
370
     0
100
AcDbLine
 10
856.6232404833754
 20
1037.595202137953
 30
0.0
 11
860.8497402792964
 21
1044.261868258244
 31
0.0
  0
ARC
  5
134
330
A3
100
AcDbEntity
  8
0 - Systemaufbauten
  6
Continuous
 62
     7
370
     0
100
AcDbCircle
 10
863.7364903813359
 20
1042.595201988943
 30
0.0
 40
3.33328818122972
100
AcDbArc
 50
30.00044020597701
 51
149.9999952245436
  0
LINE
  5
135
330
A3
100
AcDbEntity
  8
0 - Systemaufbauten
  6
Continuous
 62
     7
370
     0
100
AcDbLine
 10
866.6232398873362
 20
1044.261868258244
 30
0.0
 11
870.8497408753356
 21
1037.595202137953
 31
0.0
  0
ARC
  5
136
330
A3
100
AcDbEntity
  8
0 - Systemaufbauten
  6
Continuous
 62
     7
370
     0
100
AcDbCircle
 10
873.7364903813359
 20
1039.261868258245
 30
0.0
 40
3.33333146670084
100
AcDbArc
 50
210.000007679929
 51
270.0
  0
ARC
  5
137
330
A3
100
AcDbEntity
  8
0 - Systemaufbauten
  6
Continuous
 62
     7
370
     0
100
AcDbCircle
 10
873.7364903813359
 20
1039.261868258245
 30
0.0
 40
3.33333313465118
100
AcDbArc
 50
270.0
 51
329.9999974427113
  0
LINE
  5
138
330
A3
100
AcDbEntity
  8
0 - Systemaufbauten
  6
Continuous
 62
     7
370
     0
100
AcDbLine
 10
876.6232404833754
 20
1037.595202137953
 30
0.0
 11
880.8497402792964
 21
1044.261868258244
 31
0.0
  0
ARC
  5
139
330
A3
100
AcDbEntity
  8
0 - Systemaufbauten
  6
Continuous
 62
     7
370
     0
100
AcDbCircle
 10
883.7364903813359
 20
1042.595201988943
 30
0.0
 40
3.33328818122972
100
AcDbArc
 50
30.00044020597701
 51
149.9999952245436
  0
LINE
  5
13A
330
A3
100
AcDbEntity
  8
0 - Systemaufbauten
  6
Continuous
 62
     7
370
     0
100
AcDbLine
 10
886.6232398873362
 20
1044.261868258244
 30
0.0
 11
890.8497408753356
 21
1037.595202137953
 31
0.0
  0
ARC
  5
13B
330
A3
100
AcDbEntity
  8
0 - Systemaufbauten
  6
Continuous
 62
     7
370
     0
100
AcDbCircle
 10
893.7364903813359
 20
1039.261868258245
 30
0.0
 40
3.33333146670084
100
AcDbArc
 50
210.000007679929
 51
270.0
  0
ARC
  5
13C
330
A3
100
AcDbEntity
  8
0 - Systemaufbauten
  6
Continuous
 62
     7
370
     0
100
AcDbCircle
 10
893.7364903813359
 20
1039.261868258245
 30
0.0
 40
3.33333313465118
100
AcDbArc
 50
270.0
 51
329.9999974427113
  0
LINE
  5
13D
330
A3
100
AcDbEntity
  8
0 - Systemaufbauten
  6
Continuous
 62
     7
370
     0
100
AcDbLine
 10
896.6232404833754
 20
1037.595202137953
 30
0.0
 11
900.8497402792964
 21
1044.261868258244
 31
0.0
  0
ARC
  5
13E
330
A3
100
AcDbEntity
  8
0 - Systemaufbauten
  6
Continuous
 62
     7
370
     0
100
AcDbCircle
 10
903.7364903813359
 20
1042.595201988943
 30
0.0
 40
3.33328818122972
100
AcDbArc
 50
30.00044020597701
 51
149.9999952245436
  0
LINE
  5
13F
330
A3
100
AcDbEntity
  8
0 - Systemaufbauten
  6
Continuous
 62
     7
370
     0
100
AcDbLine
 10
906.6232398873362
 20
1044.261868258244
 30
0.0
 11
910.8497408753356
 21
1037.595202137953
 31
0.0
  0
ARC
  5
140
330
A3
100
AcDbEntity
  8
0 - Systemaufbauten
  6
Continuous
 62
     7
370
     0
100
AcDbCircle
 10
913.7364903813359
 20
1039.261868258245
 30
0.0
 40
3.33333146670084
100
AcDbArc
 50
210.000007679929
 51
270.0
  0
ARC
  5
141
330
A3
100
AcDbEntity
  8
0 - Systemaufbauten
  6
Continuous
 62
     7
370
     0
100
AcDbCircle
 10
913.7364903813359
 20
1039.261868258245
 30
0.0
 40
3.33333313465118
100
AcDbArc
 50
270.0
 51
329.9999974427113
  0
LINE
  5
142
330
A3
100
AcDbEntity
  8
0 - Systemaufbauten
  6
Continuous
 62
     7
370
     0
100
AcDbLine
 10
916.6232404833754
 20
1037.595202137953
 30
0.0
 11
920.8497402792946
 21
1044.261868258244
 31
0.0
  0
ARC
  5
143
330
A3
100
AcDbEntity
  8
0 - Systemaufbauten
  6
Continuous
 62
     7
370
     0
100
AcDbCircle
 10
923.7364903813359
 20
1042.595201988943
 30
0.0
 40
3.33328818122972
100
AcDbArc
 50
30.00044020597701
 51
149.9999952245436
  0
LINE
  5
144
330
A3
100
AcDbEntity
  8
0 - Systemaufbauten
  6
Continuous
 62
     7
370
     0
100
AcDbLine
 10
926.6232398873344
 20
1044.261868258244
 30
0.0
 11
930.8497408753356
 21
1037.595202137953
 31
0.0
  0
ARC
  5
145
330
A3
100
AcDbEntity
  8
0 - Systemaufbauten
  6
Continuous
 62
     7
370
     0
100
AcDbCircle
 10
933.7364903813359
 20
1039.261868258245
 30
0.0
 40
3.33333146670084
100
AcDbArc
 50
210.000007679929
 51
270.0
  0
ARC
  5
146
330
A3
100
AcDbEntity
  8
0 - Systemaufbauten
  6
Continuous
 62
     7
370
     0
100
AcDbCircle
 10
933.7364903813359
 20
1039.261868258245
 30
0.0
 40
3.33333313465118
100
AcDbArc
 50
270.0
 51
329.9999974427113
  0
LINE
  5
147
330
A3
100
AcDbEntity
  8
0 - Systemaufbauten
  6
Continuous
 62
     7
370
     0
100
AcDbLine
 10
936.6232404833754
 20
1037.595202137953
 30
0.0
 11
940.8497402792855
 21
1044.261868258244
 31
0.0
  0
ARC
  5
148
330
A3
100
AcDbEntity
  8
0 - Systemaufbauten
  6
Continuous
 62
     7
370
     0
100
AcDbCircle
 10
943.7364903813359
 20
1042.595201988943
 30
0.0
 40
3.33328818122972
100
AcDbArc
 50
30.00044020597701
 51
149.9999952245436
  0
LINE
  5
149
330
A3
100
AcDbEntity
  8
0 - Systemaufbauten
  6
Continuous
 62
     7
370
     0
100
AcDbLine
 10
946.6232398873253
 20
1044.261868258244
 30
0.0
 11
950.8497408753356
 21
1037.595202137953
 31
0.0
  0
ARC
  5
14A
330
A3
100
AcDbEntity
  8
0 - Systemaufbauten
  6
Continuous
 62
     7
370
     0
100
AcDbCircle
 10
953.7364903813359
 20
1039.261868258245
 30
0.0
 40
3.33333146670084
100
AcDbArc
 50
210.000007679929
 51
270.0
  0
ARC
  5
14B
330
A3
100
AcDbEntity
  8
0 - Systemaufbauten
  6
Continuous
 62
     7
370
     0
100
AcDbCircle
 10
953.7364903813359
 20
1039.261868258245
 30
0.0
 40
3.33333313465118
100
AcDbArc
 50
270.0
 51
329.9999974427113
  0
LINE
  5
14C
330
A3
100
AcDbEntity
  8
0 - Systemaufbauten
  6
Continuous
 62
     7
370
     0
100
AcDbLine
 10
956.6232404833754
 20
1037.595202137953
 30
0.0
 11
960.8497402792855
 21
1044.261868258244
 31
0.0
  0
ARC
  5
14D
330
A3
100
AcDbEntity
  8
0 - Systemaufbauten
  6
Continuous
 62
     7
370
     0
100
AcDbCircle
 10
963.7364903813359
 20
1042.595201988943
 30
0.0
 40
3.33328818122972
100
AcDbArc
 50
30.00044020597701
 51
149.9999952245436
  0
LINE
  5
14E
330
A3
100
AcDbEntity
  8
0 - Systemaufbauten
  6
Continuous
 62
     7
370
     0
100
AcDbLine
 10
966.6232398873253
 20
1044.261868258244
 30
0.0
 11
970.8497408753356
 21
1037.595202137953
 31
0.0
  0
ARC
  5
14F
330
A3
100
AcDbEntity
  8
0 - Systemaufbauten
  6
Continuous
 62
     7
370
     0
100
AcDbCircle
 10
973.7364903813359
 20
1039.261868258245
 30
0.0
 40
3.33333146670084
100
AcDbArc
 50
210.000007679929
 51
270.0
  0
ARC
  5
150
330
A3
100
AcDbEntity
  8
0 - Systemaufbauten
  6
Continuous
 62
     7
370
     0
100
AcDbCircle
 10
973.7364903813359
 20
1039.261868258245
 30
0.0
 40
3.33333313465118
100
AcDbArc
 50
270.0
 51
329.9999974427113
  0
LINE
  5
151
330
A3
100
AcDbEntity
  8
0 - Systemaufbauten
  6
Continuous
 62
     7
370
     0
100
AcDbLine
 10
976.6232404833754
 20
1037.595202137953
 30
0.0
 11
980.8497402792855
 21
1044.261868258244
 31
0.0
  0
ARC
  5
152
330
A3
100
AcDbEntity
  8
0 - Systemaufbauten
  6
Continuous
 62
     7
370
     0
100
AcDbCircle
 10
983.7364903813268
 20
1042.595201988943
 30
0.0
 40
3.33328818122972
100
AcDbArc
 50
30.00044020597701
 51
149.9999952245436
  0
LINE
  5
153
330
A3
100
AcDbEntity
  8
0 - Systemaufbauten
  6
Continuous
 62
     7
370
     0
100
AcDbLine
 10
986.6232398873253
 20
1044.261868258244
 30
0.0
 11
990.8497408753356
 21
1037.595202137953
 31
0.0
  0
ARC
  5
154
330
A3
100
AcDbEntity
  8
0 - Systemaufbauten
  6
Continuous
 62
     7
370
     0
100
AcDbCircle
 10
993.736490381325
 20
1039.261868258245
 30
0.0
 40
3.33333146670084
100
AcDbArc
 50
210.000007679929
 51
270.0
  0
ARC
  5
155
330
A3
100
AcDbEntity
  8
0 - Systemaufbauten
  6
Continuous
 62
     7
370
     0
100
AcDbCircle
 10
993.736490381325
 20
1039.261868258245
 30
0.0
 40
3.33333313465118
100
AcDbArc
 50
270.0
 51
329.9999974427113
  0
LINE
  5
156
330
A3
100
AcDbEntity
  8
0 - Systemaufbauten
  6
Continuous
 62
     7
370
     0
100
AcDbLine
 10
996.6232404833754
 20
1037.595202137953
 30
0.0
 11
1000.849740279285
 21
1044.261868258244
 31
0.0
  0
ARC
  5
157
330
A3
100
AcDbEntity
  8
0 - Systemaufbauten
  6
Continuous
 62
     7
370
     0
100
AcDbCircle
 10
1003.736490381327
 20
1042.595201988943
 30
0.0
 40
3.33328818122972
100
AcDbArc
 50
30.00044020597701
 51
149.9999952245436
  0
LINE
  5
158
330
A3
100
AcDbEntity
  8
0 - Systemaufbauten
  6
Continuous
 62
     7
370
     0
100
AcDbLine
 10
1006.623239887325
 20
1044.261868258244
 30
0.0
 11
1010.849740875336
 21
1037.595202137953
 31
0.0
  0
ARC
  5
159
330
A3
100
AcDbEntity
  8
0 - Systemaufbauten
  6
Continuous
 62
     7
370
     0
100
AcDbCircle
 10
1013.736490381325
 20
1039.261868258245
 30
0.0
 40
3.33333146670084
100
AcDbArc
 50
210.000007679929
 51
270.0
  0
ARC
  5
15A
330
A3
100
AcDbEntity
  8
0 - Systemaufbauten
  6
Continuous
 62
     7
370
     0
100
AcDbCircle
 10
1013.736490381325
 20
1039.261868258245
 30
0.0
 40
3.33333313465118
100
AcDbArc
 50
270.0
 51
329.9999974427113
  0
LINE
  5
15B
330
A3
100
AcDbEntity
  8
0 - Systemaufbauten
  6
Continuous
 62
     7
370
     0
100
AcDbLine
 10
1016.623240483375
 20
1037.595202137953
 30
0.0
 11
1020.849740279285
 21
1044.261868258244
 31
0.0
  0
ARC
  5
15C
330
A3
100
AcDbEntity
  8
0 - Systemaufbauten
  6
Continuous
 62
     7
370
     0
100
AcDbCircle
 10
1023.736490381325
 20
1042.595201988943
 30
0.0
 40
3.33328818122972
100
AcDbArc
 50
30.00044020597701
 51
149.9999952245436
  0
LINE
  5
15D
330
A3
100
AcDbEntity
  8
0 - Systemaufbauten
  6
Continuous
 62
     7
370
     0
100
AcDbLine
 10
1026.623239887325
 20
1044.261868258244
 30
0.0
 11
1030.849740875326
 21
1037.595202137953
 31
0.0
  0
ARC
  5
15E
330
A3
100
AcDbEntity
  8
0 - Systemaufbauten
  6
Continuous
 62
     7
370
     0
100
AcDbCircle
 10
1033.736490381327
 20
1039.261868258245
 30
0.0
 40
3.33333146670084
100
AcDbArc
 50
210.000007679929
 51
270.0
  0
ARC
  5
15F
330
A3
100
AcDbEntity
  8
0 - Systemaufbauten
  6
Continuous
 62
     7
370
     0
100
AcDbCircle
 10
1033.736490381327
 20
1039.261868258245
 30
0.0
 40
3.33333313465118
100
AcDbArc
 50
270.0
 51
329.9999974427113
  0
LINE
  5
160
330
A3
100
AcDbEntity
  8
0 - Systemaufbauten
  6
Continuous
 62
     7
370
     0
100
AcDbLine
 10
1036.623240483366
 20
1037.595202137953
 30
0.0
 11
1040.849740279285
 21
1044.261868258244
 31
0.0
  0
ARC
  5
161
330
A3
100
AcDbEntity
  8
0 - Systemaufbauten
  6
Continuous
 62
     7
370
     0
100
AcDbCircle
 10
1043.736490381325
 20
1042.595201988943
 30
0.0
 40
3.33328818122972
100
AcDbArc
 50
30.00044020597701
 51
149.9999952245436
  0
LINE
  5
162
330
A3
100
AcDbEntity
  8
0 - Systemaufbauten
  6
Continuous
 62
     7
370
     0
100
AcDbLine
 10
1046.623239887325
 20
1044.261868258244
 30
0.0
 11
1050.849740875325
 21
1037.595202137953
 31
0.0
  0
ARC
  5
163
330
A3
100
AcDbEntity
  8
0 - Systemaufbauten
  6
Continuous
 62
     7
370
     0
100
AcDbCircle
 10
1053.736490381327
 20
1039.261868258245
 30
0.0
 40
3.33333146670084
100
AcDbArc
 50
210.000007679929
 51
270.0
  0
ARC
  5
164
330
A3
100
AcDbEntity
  8
0 - Systemaufbauten
  6
Continuous
 62
     7
370
     0
100
AcDbCircle
 10
1053.736490381327
 20
1039.261868258245
 30
0.0
 40
3.33333313465118
100
AcDbArc
 50
270.0
 51
329.9999974427113
  0
LINE
  5
165
330
A3
100
AcDbEntity
  8
0 - Systemaufbauten
  6
Continuous
 62
     7
370
     0
100
AcDbLine
 10
1056.623240483366
 20
1037.595202137953
 30
0.0
 11
1060.849740279285
 21
1044.261868258244
 31
0.0
  0
ARC
  5
166
330
A3
100
AcDbEntity
  8
0 - Systemaufbauten
  6
Continuous
 62
     7
370
     0
100
AcDbCircle
 10
1063.736490381325
 20
1042.595201988943
 30
0.0
 40
3.33328818122972
100
AcDbArc
 50
30.00044020597701
 51
149.9999952245436
  0
LINE
  5
167
330
A3
100
AcDbEntity
  8
0 - Systemaufbauten
  6
Continuous
 62
     7
370
     0
100
AcDbLine
 10
1066.623239887325
 20
1044.261868258244
 30
0.0
 11
1070.849740875325
 21
1037.595202137953
 31
0.0
  0
ARC
  5
168
330
A3
100
AcDbEntity
  8
0 - Systemaufbauten
  6
Continuous
 62
     7
370
     0
100
AcDbCircle
 10
1073.736490381325
 20
1039.261868258245
 30
0.0
 40
3.33333146670084
100
AcDbArc
 50
210.000007679929
 51
270.0
  0
ARC
  5
169
330
A3
100
AcDbEntity
  8
0 - Systemaufbauten
  6
Continuous
 62
     7
370
     0
100
AcDbCircle
 10
1073.736490381325
 20
1039.261868258245
 30
0.0
 40
3.33333313465118
100
AcDbArc
 50
270.0
 51
329.9999974427113
  0
LINE
  5
16A
330
A3
100
AcDbEntity
  8
0 - Systemaufbauten
  6
Continuous
 62
     7
370
     0
100
AcDbLine
 10
1076.623240483364
 20
1037.595202137953
 30
0.0
 11
1080.849740279285
 21
1044.261868258244
 31
0.0
  0
ARC
  5
16B
330
A3
100
AcDbEntity
  8
0 - Systemaufbauten
  6
Continuous
 62
     7
370
     0
100
AcDbCircle
 10
1083.736490381327
 20
1042.595201988943
 30
0.0
 40
3.33328818123038
100
AcDbArc
 50
138.5912579324218
 51
149.9999952245436
  0
ARC
  5
16C
330
A3
100
AcDbEntity
  8
0 - Systemaufbauten
  6
Continuous
 62
     7
370
     0
100
AcDbCircle
 10
1086.236490381365
 20
1039.261868258245
 30
0.0
 40
3.33333313465118
100
AcDbArc
 50
270.0
 51
329.9999974427113
  0
LINE
  5
16D
330
A3
100
AcDbEntity
  8
0 - Systemaufbauten
  6
Continuous
 62
     7
370
     0
100
AcDbLine
 10
1089.123240483405
 20
1037.595202137953
 30
0.0
 11
1093.349740279325
 21
1044.261868258244
 31
0.0
  0
ARC
  5
16E
330
A3
100
AcDbEntity
  8
0 - Systemaufbauten
  6
Continuous
 62
     7
370
     0
100
AcDbCircle
 10
1096.236490381365
 20
1042.595201988943
 30
0.0
 40
3.33328818122972
100
AcDbArc
 50
30.00044020597701
 51
149.9999952245436
  0
LINE
  5
16F
330
A3
100
AcDbEntity
  8
0 - Systemaufbauten
  6
Continuous
 62
     7
370
     0
100
AcDbLine
 10
1099.123239887365
 20
1044.261868258244
 30
0.0
 11
1103.349740875365
 21
1037.595202137953
 31
0.0
  0
ARC
  5
170
330
A3
100
AcDbEntity
  8
0 - Systemaufbauten
  6
Continuous
 62
     7
370
     0
100
AcDbCircle
 10
1106.236490381365
 20
1039.261868258245
 30
0.0
 40
3.33333146670084
100
AcDbArc
 50
210.000007679929
 51
270.0
  0
ARC
  5
171
330
A3
100
AcDbEntity
  8
0 - Systemaufbauten
  6
Continuous
 62
     7
370
     0
100
AcDbCircle
 10
1106.236490381365
 20
1039.261868258245
 30
0.0
 40
3.33333313465118
100
AcDbArc
 50
270.0
 51
329.9999974427113
  0
LINE
  5
172
330
A3
100
AcDbEntity
  8
0 - Systemaufbauten
  6
Continuous
 62
     7
370
     0
100
AcDbLine
 10
1109.123240483405
 20
1037.595202137953
 30
0.0
 11
1113.349740279325
 21
1044.261868258244
 31
0.0
  0
ARC
  5
173
330
A3
100
AcDbEntity
  8
0 - Systemaufbauten
  6
Continuous
 62
     7
370
     0
100
AcDbCircle
 10
1116.236490381367
 20
1042.595201988943
 30
0.0
 40
3.33328818122972
100
AcDbArc
 50
30.00044020597701
 51
149.9999952245436
  0
LINE
  5
174
330
A3
100
AcDbEntity
  8
0 - Systemaufbauten
  6
Continuous
 62
     7
370
     0
100
AcDbLine
 10
1119.123239887365
 20
1044.261868258244
 30
0.0
 11
1123.349740875366
 21
1037.595202137953
 31
0.0
  0
ARC
  5
175
330
A3
100
AcDbEntity
  8
0 - Systemaufbauten
  6
Continuous
 62
     7
370
     0
100
AcDbCircle
 10
1126.236490381365
 20
1039.261868258245
 30
0.0
 40
3.33333146670084
100
AcDbArc
 50
210.000007679929
 51
270.0
  0
ARC
  5
176
330
A3
100
AcDbEntity
  8
0 - Systemaufbauten
  6
Continuous
 62
     7
370
     0
100
AcDbCircle
 10
1126.236490381365
 20
1039.261868258245
 30
0.0
 40
3.33333313465118
100
AcDbArc
 50
270.0
 51
329.9999974427113
  0
LINE
  5
177
330
A3
100
AcDbEntity
  8
0 - Systemaufbauten
  6
Continuous
 62
     7
370
     0
100
AcDbLine
 10
1129.123240483406
 20
1037.595202137953
 30
0.0
 11
1133.349740279325
 21
1044.261868258244
 31
0.0
  0
ARC
  5
178
330
A3
100
AcDbEntity
  8
0 - Systemaufbauten
  6
Continuous
 62
     7
370
     0
100
AcDbCircle
 10
1136.236490381365
 20
1042.595201988943
 30
0.0
 40
3.33328818122972
100
AcDbArc
 50
30.00044020597701
 51
149.9999952245436
  0
LINE
  5
179
330
A3
100
AcDbEntity
  8
0 - Systemaufbauten
  6
Continuous
 62
     7
370
     0
100
AcDbLine
 10
1139.123239887356
 20
1044.261868258244
 30
0.0
 11
1143.349740875366
 21
1037.595202137953
 31
0.0
  0
ARC
  5
17A
330
A3
100
AcDbEntity
  8
0 - Systemaufbauten
  6
Continuous
 62
     7
370
     0
100
AcDbCircle
 10
1146.236490381365
 20
1039.261868258245
 30
0.0
 40
3.33333146670084
100
AcDbArc
 50
210.000007679929
 51
270.0
  0
ARC
  5
17B
330
A3
100
AcDbEntity
  8
0 - Systemaufbauten
  6
Continuous
 62
     7
370
     0
100
AcDbCircle
 10
1146.236490381365
 20
1039.261868258245
 30
0.0
 40
3.33333313465118
100
AcDbArc
 50
270.0
 51
329.9999974427113
  0
LINE
  5
17C
330
A3
100
AcDbEntity
  8
0 - Systemaufbauten
  6
Continuous
 62
     7
370
     0
100
AcDbLine
 10
1149.123240483406
 20
1037.595202137953
 30
0.0
 11
1153.349740279315
 21
1044.261868258244
 31
0.0
  0
ARC
  5
17D
330
A3
100
AcDbEntity
  8
0 - Systemaufbauten
  6
Continuous
 62
     7
370
     0
100
AcDbCircle
 10
1156.236490381365
 20
1042.595201988943
 30
0.0
 40
3.33328818122972
100
AcDbArc
 50
30.00044020597701
 51
149.9999952245436
  0
LINE
  5
17E
330
A3
100
AcDbEntity
  8
0 - Systemaufbauten
  6
Continuous
 62
     7
370
     0
100
AcDbLine
 10
1159.123239887354
 20
1044.261868258244
 30
0.0
 11
1163.349740875366
 21
1037.595202137953
 31
0.0
  0
ARC
  5
17F
330
A3
100
AcDbEntity
  8
0 - Systemaufbauten
  6
Continuous
 62
     7
370
     0
100
AcDbCircle
 10
1166.236490381367
 20
1039.261868258245
 30
0.0
 40
3.33333146670084
100
AcDbArc
 50
210.000007679929
 51
270.0
  0
ARC
  5
180
330
A3
100
AcDbEntity
  8
0 - Systemaufbauten
  6
Continuous
 62
     7
370
     0
100
AcDbCircle
 10
1166.236490381367
 20
1039.261868258245
 30
0.0
 40
3.33333313465118
100
AcDbArc
 50
270.0
 51
329.9999974427113
  0
LINE
  5
181
330
A3
100
AcDbEntity
  8
0 - Systemaufbauten
  6
Continuous
 62
     7
370
     0
100
AcDbLine
 10
1169.123240483406
 20
1037.595202137953
 30
0.0
 11
1173.349740279316
 21
1044.261868258244
 31
0.0
  0
ARC
  5
182
330
A3
100
AcDbEntity
  8
0 - Systemaufbauten
  6
Continuous
 62
     7
370
     0
100
AcDbCircle
 10
1176.236490381365
 20
1042.595201988943
 30
0.0
 40
3.33328818122972
100
AcDbArc
 50
30.00044020597701
 51
149.9999952245436
  0
LINE
  5
183
330
A3
100
AcDbEntity
  8
0 - Systemaufbauten
  6
Continuous
 62
     7
370
     0
100
AcDbLine
 10
1179.123239887356
 20
1044.261868258244
 30
0.0
 11
1183.349740875365
 21
1037.595202137953
 31
0.0
  0
ARC
  5
184
330
A3
100
AcDbEntity
  8
0 - Systemaufbauten
  6
Continuous
 62
     7
370
     0
100
AcDbCircle
 10
1186.236490381365
 20
1039.261868258245
 30
0.0
 40
3.33333146670084
100
AcDbArc
 50
210.000007679929
 51
270.0
  0
ARC
  5
185
330
A3
100
AcDbEntity
  8
0 - Systemaufbauten
  6
Continuous
 62
     7
370
     0
100
AcDbCircle
 10
1186.236490381365
 20
1039.261868258245
 30
0.0
 40
3.33333313465118
100
AcDbArc
 50
270.0
 51
329.9999974427113
  0
LINE
  5
186
330
A3
100
AcDbEntity
  8
0 - Systemaufbauten
  6
Continuous
 62
     7
370
     0
100
AcDbLine
 10
1189.123240483405
 20
1037.595202137953
 30
0.0
 11
1193.349740279316
 21
1044.261868258244
 31
0.0
  0
ARC
  5
187
330
A3
100
AcDbEntity
  8
0 - Systemaufbauten
  6
Continuous
 62
     7
370
     0
100
AcDbCircle
 10
1196.236490381356
 20
1042.595201988943
 30
0.0
 40
3.33328818122972
100
AcDbArc
 50
30.00044020597701
 51
149.9999952245436
  0
LINE
  5
188
330
A3
100
AcDbEntity
  8
0 - Systemaufbauten
  6
Continuous
 62
     7
370
     0
100
AcDbLine
 10
1199.123239887356
 20
1044.261868258244
 30
0.0
 11
1203.349740875365
 21
1037.595202137953
 31
0.0
  0
ARC
  5
189
330
A3
100
AcDbEntity
  8
0 - Systemaufbauten
  6
Continuous
 62
     7
370
     0
100
AcDbCircle
 10
1206.236490381356
 20
1039.261868258245
 30
0.0
 40
3.33333146670084
100
AcDbArc
 50
210.000007679929
 51
270.0
  0
ARC
  5
18A
330
A3
100
AcDbEntity
  8
0 - Systemaufbauten
  6
Continuous
 62
     7
370
     0
100
AcDbCircle
 10
1206.236490381356
 20
1039.261868258245
 30
0.0
 40
3.33333313465118
100
AcDbArc
 50
270.0
 51
329.9999974427113
  0
LINE
  5
18B
330
A3
100
AcDbEntity
  8
0 - Systemaufbauten
  6
Continuous
 62
     7
370
     0
100
AcDbLine
 10
1209.123240483405
 20
1037.595202137953
 30
0.0
 11
1213.349740279316
 21
1044.261868258244
 31
0.0
  0
ARC
  5
18C
330
A3
100
AcDbEntity
  8
0 - Systemaufbauten
  6
Continuous
 62
     7
370
     0
100
AcDbCircle
 10
1216.236490381356
 20
1042.595201988943
 30
0.0
 40
3.33328818122972
100
AcDbArc
 50
30.00044020597701
 51
149.9999952245436
  0
LINE
  5
18D
330
A3
100
AcDbEntity
  8
0 - Systemaufbauten
  6
Continuous
 62
     7
370
     0
100
AcDbLine
 10
1219.123239887356
 20
1044.261868258244
 30
0.0
 11
1223.349740875366
 21
1037.595202137953
 31
0.0
  0
ARC
  5
18E
330
A3
100
AcDbEntity
  8
0 - Systemaufbauten
  6
Continuous
 62
     7
370
     0
100
AcDbCircle
 10
1226.236490381356
 20
1039.261868258245
 30
0.0
 40
3.33333146670084
100
AcDbArc
 50
210.000007679929
 51
270.0
  0
ARC
  5
18F
330
A3
100
AcDbEntity
  8
0 - Systemaufbauten
  6
Continuous
 62
     7
370
     0
100
AcDbCircle
 10
1226.236490381356
 20
1039.261868258245
 30
0.0
 40
3.33333313465118
100
AcDbArc
 50
270.0
 51
329.9999974427113
  0
LINE
  5
190
330
A3
100
AcDbEntity
  8
0 - Systemaufbauten
  6
Continuous
 62
     7
370
     0
100
AcDbLine
 10
1229.123240483406
 20
1037.595202137953
 30
0.0
 11
1233.349740279315
 21
1044.261868258244
 31
0.0
  0
ARC
  5
191
330
A3
100
AcDbEntity
  8
0 - Systemaufbauten
  6
Continuous
 62
     7
370
     0
100
AcDbCircle
 10
1236.236490381354
 20
1042.595201988943
 30
0.0
 40
3.33328818122972
100
AcDbArc
 50
30.00044020597701
 51
149.9999952245436
  0
LINE
  5
192
330
A3
100
AcDbEntity
  8
0 - Systemaufbauten
  6
Continuous
 62
     7
370
     0
100
AcDbLine
 10
1239.123239887356
 20
1044.261868258244
 30
0.0
 11
1243.349740875356
 21
1037.595202137953
 31
0.0
  0
ARC
  5
193
330
A3
100
AcDbEntity
  8
0 - Systemaufbauten
  6
Continuous
 62
     7
370
     0
100
AcDbCircle
 10
1246.236490381356
 20
1039.261868258245
 30
0.0
 40
3.33333146670084
100
AcDbArc
 50
210.000007679929
 51
270.0
  0
ARC
  5
194
330
A3
100
AcDbEntity
  8
0 - Systemaufbauten
  6
Continuous
 62
     7
370
     0
100
AcDbCircle
 10
1246.236490381356
 20
1039.261868258245
 30
0.0
 40
3.33333313465118
100
AcDbArc
 50
270.0
 51
329.9999974427113
  0
LINE
  5
195
330
A3
100
AcDbEntity
  8
0 - Systemaufbauten
  6
Continuous
 62
     7
370
     0
100
AcDbLine
 10
1249.123240483395
 20
1037.595202137953
 30
0.0
 11
1253.349740279315
 21
1044.261868258244
 31
0.0
  0
ARC
  5
196
330
A3
100
AcDbEntity
  8
0 - Systemaufbauten
  6
Continuous
 62
     7
370
     0
100
AcDbCircle
 10
1256.236490381356
 20
1042.595201988943
 30
0.0
 40
3.33328818122972
100
AcDbArc
 50
30.00044020597701
 51
149.9999952245436
  0
LINE
  5
197
330
A3
100
AcDbEntity
  8
0 - Systemaufbauten
  6
Continuous
 62
     7
370
     0
100
AcDbLine
 10
1259.123239887354
 20
1044.261868258244
 30
0.0
 11
1263.349740875356
 21
1037.595202137953
 31
0.0
  0
ARC
  5
198
330
A3
100
AcDbEntity
  8
0 - Systemaufbauten
  6
Continuous
 62
     7
370
     0
100
AcDbCircle
 10
1266.236490381356
 20
1039.261868258245
 30
0.0
 40
3.33333146670084
100
AcDbArc
 50
210.000007679929
 51
270.0
  0
ARC
  5
199
330
A3
100
AcDbEntity
  8
0 - Systemaufbauten
  6
Continuous
 62
     7
370
     0
100
AcDbCircle
 10
1266.236490381356
 20
1039.261868258245
 30
0.0
 40
3.33333313465118
100
AcDbArc
 50
270.0
 51
329.9999974427113
  0
LINE
  5
19A
330
A3
100
AcDbEntity
  8
0 - Systemaufbauten
  6
Continuous
 62
     7
370
     0
100
AcDbLine
 10
1269.123240483395
 20
1037.595202137953
 30
0.0
 11
1273.349740279316
 21
1044.261868258244
 31
0.0
  0
ARC
  5
19B
330
A3
100
AcDbEntity
  8
0 - Systemaufbauten
  6
Continuous
 62
     7
370
     0
100
AcDbCircle
 10
1276.236490381356
 20
1042.595201988943
 30
0.0
 40
3.33328818122972
100
AcDbArc
 50
30.00044020597701
 51
149.9999952245436
  0
LINE
  5
19C
330
A3
100
AcDbEntity
  8
0 - Systemaufbauten
  6
Continuous
 62
     7
370
     0
100
AcDbLine
 10
1279.123239887356
 20
1044.261868258244
 30
0.0
 11
1283.349740875356
 21
1037.595202137953
 31
0.0
  0
ARC
  5
19D
330
A3
100
AcDbEntity
  8
0 - Systemaufbauten
  6
Continuous
 62
     7
370
     0
100
AcDbCircle
 10
1286.236490381354
 20
1039.261868258245
 30
0.0
 40
3.33333146670084
100
AcDbArc
 50
210.000007679929
 51
270.0
  0
ARC
  5
19E
330
A3
100
AcDbEntity
  8
0 - Systemaufbauten
  6
Continuous
 62
     7
370
     0
100
AcDbCircle
 10
1286.236490381354
 20
1039.261868258245
 30
0.0
 40
3.33333313465118
100
AcDbArc
 50
270.0
 51
329.9999974427113
  0
LINE
  5
19F
330
A3
100
AcDbEntity
  8
0 - Systemaufbauten
  6
Continuous
 62
     7
370
     0
100
AcDbLine
 10
1289.123240483395
 20
1037.595202137953
 30
0.0
 11
1293.349740279316
 21
1044.261868258244
 31
0.0
  0
ARC
  5
1A0
330
A3
100
AcDbEntity
  8
0 - Systemaufbauten
  6
Continuous
 62
     7
370
     0
100
AcDbCircle
 10
1296.236490381356
 20
1042.595201988943
 30
0.0
 40
3.33328818122972
100
AcDbArc
 50
30.00044020597701
 51
149.9999952245436
  0
LINE
  5
1A1
330
A3
100
AcDbEntity
  8
0 - Systemaufbauten
  6
Continuous
 62
     7
370
     0
100
AcDbLine
 10
1299.123239887356
 20
1044.261868258244
 30
0.0
 11
1303.349740875356
 21
1037.595202137953
 31
0.0
  0
ARC
  5
1A2
330
A3
100
AcDbEntity
  8
0 - Systemaufbauten
  6
Continuous
 62
     7
370
     0
100
AcDbCircle
 10
1306.236490381356
 20
1039.261868258245
 30
0.0
 40
3.33333146670084
100
AcDbArc
 50
210.000007679929
 51
270.0
  0
ARC
  5
1A3
330
A3
100
AcDbEntity
  8
0 - Systemaufbauten
  6
Continuous
 62
     7
370
     0
100
AcDbCircle
 10
1306.236490381356
 20
1039.261868258245
 30
0.0
 40
3.33333313465118
100
AcDbArc
 50
270.0
 51
329.9999974427113
  0
LINE
  5
1A4
330
A3
100
AcDbEntity
  8
0 - Systemaufbauten
  6
Continuous
 62
     7
370
     0
100
AcDbLine
 10
1309.123240483395
 20
1037.595202137953
 30
0.0
 11
1313.349740279305
 21
1044.261868258244
 31
0.0
  0
ARC
  5
1A5
330
A3
100
AcDbEntity
  8
0 - Systemaufbauten
  6
Continuous
 62
     7
370
     0
100
AcDbCircle
 10
1316.236490381356
 20
1042.595201988943
 30
0.0
 40
3.33328818122972
100
AcDbArc
 50
30.00044020597701
 51
149.9999952245436
  0
LINE
  5
1A6
330
A3
100
AcDbEntity
  8
0 - Systemaufbauten
  6
Continuous
 62
     7
370
     0
100
AcDbLine
 10
1319.123239887345
 20
1044.261868258244
 30
0.0
 11
1323.349740875356
 21
1037.595202137953
 31
0.0
  0
ARC
  5
1A7
330
A3
100
AcDbEntity
  8
0 - Systemaufbauten
  6
Continuous
 62
     7
370
     0
100
AcDbCircle
 10
1326.236490381356
 20
1039.261868258245
 30
0.0
 40
3.33333146670084
100
AcDbArc
 50
210.000007679929
 51
270.0
  0
ARC
  5
1A8
330
A3
100
AcDbEntity
  8
0 - Systemaufbauten
  6
Continuous
 62
     7
370
     0
100
AcDbCircle
 10
1326.236490381356
 20
1039.261868258245
 30
0.0
 40
3.33333313465118
100
AcDbArc
 50
270.0
 51
329.9999974427113
  0
LINE
  5
1A9
330
A3
100
AcDbEntity
  8
0 - Systemaufbauten
  6
Continuous
 62
     7
370
     0
100
AcDbLine
 10
1329.123240483395
 20
1037.595202137953
 30
0.0
 11
1333.349740279305
 21
1044.261868258244
 31
0.0
  0
ARC
  5
1AA
330
A3
100
AcDbEntity
  8
0 - Systemaufbauten
  6
Continuous
 62
     7
370
     0
100
AcDbCircle
 10
1336.236490381354
 20
1042.595201988943
 30
0.0
 40
3.33328818122972
100
AcDbArc
 50
30.00044020597701
 51
149.9999952245436
  0
LINE
  5
1AB
330
A3
100
AcDbEntity
  8
0 - Systemaufbauten
  6
Continuous
 62
     7
370
     0
100
AcDbLine
 10
1339.123239887347
 20
1044.261868258244
 30
0.0
 11
1343.349740875356
 21
1037.595202137953
 31
0.0
  0
ARC
  5
1AC
330
A3
100
AcDbEntity
  8
0 - Systemaufbauten
  6
Continuous
 62
     7
370
     0
100
AcDbCircle
 10
1346.236490381356
 20
1039.261868258245
 30
0.0
 40
3.33333146670084
100
AcDbArc
 50
210.000007679929
 51
270.0
  0
ARC
  5
1AD
330
A3
100
AcDbEntity
  8
0 - Systemaufbauten
  6
Continuous
 62
     7
370
     0
100
AcDbCircle
 10
1346.236490381356
 20
1039.261868258245
 30
0.0
 40
3.33333313465118
100
AcDbArc
 50
270.0
 51
329.9999974427113
  0
LINE
  5
1AE
330
A3
100
AcDbEntity
  8
0 - Systemaufbauten
  6
Continuous
 62
     7
370
     0
100
AcDbLine
 10
1349.123240483395
 20
1037.595202137953
 30
0.0
 11
1353.349740279305
 21
1044.261868258244
 31
0.0
  0
ARC
  5
1AF
330
A3
100
AcDbEntity
  8
0 - Systemaufbauten
  6
Continuous
 62
     7
370
     0
100
AcDbCircle
 10
1356.236490381356
 20
1042.595201988943
 30
0.0
 40
3.33328818122972
100
AcDbArc
 50
30.00044020597701
 51
149.9999952245436
  0
LINE
  5
1B0
330
A3
100
AcDbEntity
  8
0 - Systemaufbauten
  6
Continuous
 62
     7
370
     0
100
AcDbLine
 10
1359.123239887345
 20
1044.261868258244
 30
0.0
 11
1363.349740875356
 21
1037.595202137953
 31
0.0
  0
ARC
  5
1B1
330
A3
100
AcDbEntity
  8
0 - Systemaufbauten
  6
Continuous
 62
     7
370
     0
100
AcDbCircle
 10
1366.236490381347
 20
1039.261868258245
 30
0.0
 40
3.33333146670084
100
AcDbArc
 50
210.000007679929
 51
270.0
  0
ARC
  5
1B2
330
A3
100
AcDbEntity
  8
0 - Systemaufbauten
  6
Continuous
 62
     7
370
     0
100
AcDbCircle
 10
1366.236490381347
 20
1039.261868258245
 30
0.0
 40
3.33333313465118
100
AcDbArc
 50
270.0
 51
329.9999974427113
  0
LINE
  5
1B3
330
A3
100
AcDbEntity
  8
0 - Systemaufbauten
  6
Continuous
 62
     7
370
     0
100
AcDbLine
 10
1369.123240483395
 20
1037.595202137953
 30
0.0
 11
1373.349740279305
 21
1044.261868258244
 31
0.0
  0
ARC
  5
1B4
330
A3
100
AcDbEntity
  8
0 - Systemaufbauten
  6
Continuous
 62
     7
370
     0
100
AcDbCircle
 10
1376.236490381345
 20
1042.595201988943
 30
0.0
 40
3.33328818122972
100
AcDbArc
 50
30.00044020597701
 51
149.9999952245436
  0
LINE
  5
1B5
330
A3
100
AcDbEntity
  8
0 - Systemaufbauten
  6
Continuous
 62
     7
370
     0
100
AcDbLine
 10
1379.123239887345
 20
1044.261868258244
 30
0.0
 11
1383.349740875356
 21
1037.595202137953
 31
0.0
  0
ARC
  5
1B6
330
A3
100
AcDbEntity
  8
0 - Systemaufbauten
  6
Continuous
 62
     7
370
     0
100
AcDbCircle
 10
1386.236490381345
 20
1039.261868258245
 30
0.0
 40
3.33333146670084
100
AcDbArc
 50
210.000007679929
 51
270.0
  0
ARC
  5
1B7
330
A3
100
AcDbEntity
  8
0 - Systemaufbauten
  6
Continuous
 62
     7
370
     0
100
AcDbCircle
 10
1386.236490381345
 20
1039.261868258245
 30
0.0
 40
3.33333313465118
100
AcDbArc
 50
270.0
 51
329.9999974427113
  0
LINE
  5
1B8
330
A3
100
AcDbEntity
  8
0 - Systemaufbauten
  6
Continuous
 62
     7
370
     0
100
AcDbLine
 10
1389.123240483395
 20
1037.595202137953
 30
0.0
 11
1393.349740279305
 21
1044.261868258244
 31
0.0
  0
ARC
  5
1B9
330
A3
100
AcDbEntity
  8
0 - Systemaufbauten
  6
Continuous
 62
     7
370
     0
100
AcDbCircle
 10
1396.236490381347
 20
1042.595201988943
 30
0.0
 40
3.33328818122972
100
AcDbArc
 50
30.00044020597701
 51
149.9999952245436
  0
LINE
  5
1BA
330
A3
100
AcDbEntity
  8
0 - Systemaufbauten
  6
Continuous
 62
     7
370
     0
100
AcDbLine
 10
1399.123239887345
 20
1044.261868258244
 30
0.0
 11
1403.349740875356
 21
1037.595202137953
 31
0.0
  0
ARC
  5
1BB
330
A3
100
AcDbEntity
  8
0 - Systemaufbauten
  6
Continuous
 62
     7
370
     0
100
AcDbCircle
 10
1406.236490381345
 20
1039.261868258245
 30
0.0
 40
3.33333146670084
100
AcDbArc
 50
210.000007679929
 51
270.0
  0
ARC
  5
1BC
330
A3
100
AcDbEntity
  8
0 - Systemaufbauten
  6
Continuous
 62
     7
370
     0
100
AcDbCircle
 10
1406.236490381345
 20
1039.261868258245
 30
0.0
 40
3.33333313465118
100
AcDbArc
 50
270.0
 51
329.9999974427113
  0
LINE
  5
1BD
330
A3
100
AcDbEntity
  8
0 - Systemaufbauten
  6
Continuous
 62
     7
370
     0
100
AcDbLine
 10
1409.123240483395
 20
1037.595202137953
 30
0.0
 11
1413.349740279305
 21
1044.261868258244
 31
0.0
  0
ARC
  5
1BE
330
A3
100
AcDbEntity
  8
0 - Systemaufbauten
  6
Continuous
 62
     7
370
     0
100
AcDbCircle
 10
1416.236490381347
 20
1042.595201988943
 30
0.0
 40
3.33328818122972
100
AcDbArc
 50
30.00044020597701
 51
149.9999952245436
  0
LINE
  5
1BF
330
A3
100
AcDbEntity
  8
0 - Systemaufbauten
  6
Continuous
 62
     7
370
     0
100
AcDbLine
 10
1419.123239887345
 20
1044.261868258244
 30
0.0
 11
1423.349740875346
 21
1037.595202137953
 31
0.0
  0
ARC
  5
1C0
330
A3
100
AcDbEntity
  8
0 - Systemaufbauten
  6
Continuous
 62
     7
370
     0
100
AcDbCircle
 10
1426.236490381345
 20
1039.261868258245
 30
0.0
 40
3.33333146670084
100
AcDbArc
 50
210.000007679929
 51
270.0
  0
ARC
  5
1C1
330
A3
100
AcDbEntity
  8
0 - Systemaufbauten
  6
Continuous
 62
     7
370
     0
100
AcDbCircle
 10
1426.236490381345
 20
1039.261868258245
 30
0.0
 40
3.33333313465118
100
AcDbArc
 50
270.0
 51
329.9999974427113
  0
LINE
  5
1C2
330
A3
100
AcDbEntity
  8
0 - Systemaufbauten
  6
Continuous
 62
     7
370
     0
100
AcDbLine
 10
1429.123240483386
 20
1037.595202137953
 30
0.0
 11
1433.349740279305
 21
1044.261868258244
 31
0.0
  0
ARC
  5
1C3
330
A3
100
AcDbEntity
  8
0 - Systemaufbauten
  6
Continuous
 62
     7
370
     0
100
AcDbCircle
 10
1436.236490381345
 20
1042.595201988943
 30
0.0
 40
3.33328818122972
100
AcDbArc
 50
30.00044020597701
 51
149.9999952245436
  0
LINE
  5
1C4
330
A3
100
AcDbEntity
  8
0 - Systemaufbauten
  6
Continuous
 62
     7
370
     0
100
AcDbLine
 10
1439.123239887347
 20
1044.261868258244
 30
0.0
 11
1443.349740875346
 21
1037.595202137953
 31
0.0
  0
ARC
  5
1C5
330
A3
100
AcDbEntity
  8
0 - Systemaufbauten
  6
Continuous
 62
     7
370
     0
100
AcDbCircle
 10
1446.236490381347
 20
1039.261868258245
 30
0.0
 40
3.33333146670084
100
AcDbArc
 50
210.000007679929
 51
270.0
  0
ARC
  5
1C6
330
A3
100
AcDbEntity
  8
0 - Systemaufbauten
  6
Continuous
 62
     7
370
     0
100
AcDbCircle
 10
1446.236490381347
 20
1039.261868258245
 30
0.0
 40
3.33333313465118
100
AcDbArc
 50
270.0
 51
329.9999974427113
  0
LINE
  5
1C7
330
A3
100
AcDbEntity
  8
0 - Systemaufbauten
  6
Continuous
 62
     7
370
     0
100
AcDbLine
 10
1449.123240483386
 20
1037.595202137953
 30
0.0
 11
1453.349740279305
 21
1044.261868258244
 31
0.0
  0
ARC
  5
1C8
330
A3
100
AcDbEntity
  8
0 - Systemaufbauten
  6
Continuous
 62
     7
370
     0
100
AcDbCircle
 10
1456.236490381345
 20
1042.595201988943
 30
0.0
 40
3.33328818122972
100
AcDbArc
 50
30.00044020597701
 51
149.9999952245436
  0
LINE
  5
1C9
330
A3
100
AcDbEntity
  8
0 - Systemaufbauten
  6
Continuous
 62
     7
370
     0
100
AcDbLine
 10
1459.123239887345
 20
1044.261868258244
 30
0.0
 11
1463.349740875345
 21
1037.595202137953
 31
0.0
  0
ARC
  5
1CA
330
A3
100
AcDbEntity
  8
0 - Systemaufbauten
  6
Continuous
 62
     7
370
     0
100
AcDbCircle
 10
1466.236490381347
 20
1039.261868258245
 30
0.0
 40
3.33333146670084
100
AcDbArc
 50
210.000007679929
 51
270.0
  0
ARC
  5
1CB
330
A3
100
AcDbEntity
  8
0 - Systemaufbauten
  6
Continuous
 62
     7
370
     0
100
AcDbCircle
 10
1466.236490381347
 20
1039.261868258245
 30
0.0
 40
3.33333313465118
100
AcDbArc
 50
270.0
 51
329.9999974427113
  0
LINE
  5
1CC
330
A3
100
AcDbEntity
  8
0 - Systemaufbauten
  6
Continuous
 62
     7
370
     0
100
AcDbLine
 10
1469.123240483386
 20
1037.595202137953
 30
0.0
 11
1473.349740279305
 21
1044.261868258244
 31
0.0
  0
ARC
  5
1CD
330
A3
100
AcDbEntity
  8
0 - Systemaufbauten
  6
Continuous
 62
     7
370
     0
100
AcDbCircle
 10
1476.236490381345
 20
1042.595201988943
 30
0.0
 40
3.33328818122972
100
AcDbArc
 50
30.00044020597701
 51
149.9999952245436
  0
LINE
  5
1CE
330
A3
100
AcDbEntity
  8
0 - Systemaufbauten
  6
Continuous
 62
     7
370
     0
100
AcDbLine
 10
1479.123239887345
 20
1044.261868258244
 30
0.0
 11
1483.349740875345
 21
1037.595202137953
 31
0.0
  0
ARC
  5
1CF
330
A3
100
AcDbEntity
  8
0 - Systemaufbauten
  6
Continuous
 62
     7
370
     0
100
AcDbCircle
 10
1486.236490381345
 20
1039.261868258245
 30
0.0
 40
3.33333146670084
100
AcDbArc
 50
210.000007679929
 51
270.0
  0
ARC
  5
1D0
330
A3
100
AcDbEntity
  8
0 - Systemaufbauten
  6
Continuous
 62
     7
370
     0
100
AcDbCircle
 10
1486.236490381345
 20
1039.261868258245
 30
0.0
 40
3.33333313465118
100
AcDbArc
 50
270.0
 51
329.9999974427113
  0
LINE
  5
1D1
330
A3
100
AcDbEntity
  8
0 - Systemaufbauten
  6
Continuous
 62
     7
370
     0
100
AcDbLine
 10
1489.123240483385
 20
1037.595202137953
 30
0.0
 11
1493.349740279296
 21
1044.261868258244
 31
0.0
  0
ARC
  5
1D2
330
A3
100
AcDbEntity
  8
0 - Systemaufbauten
  6
Continuous
 62
     7
370
     0
100
AcDbCircle
 10
1496.236490381347
 20
1042.595201988943
 30
0.0
 40
3.33328818122972
100
AcDbArc
 50
30.00044020597701
 51
149.9999952245436
  0
LINE
  5
1D3
330
A3
100
AcDbEntity
  8
0 - Systemaufbauten
  6
Continuous
 62
     7
370
     0
100
AcDbLine
 10
1499.123239887336
 20
1044.261868258244
 30
0.0
 11
1503.349740875345
 21
1037.595202137953
 31
0.0
  0
ARC
  5
1D4
330
A3
100
AcDbEntity
  8
0 - Systemaufbauten
  6
Continuous
 62
     7
370
     0
100
AcDbCircle
 10
1506.236490381345
 20
1039.261868258245
 30
0.0
 40
3.33333146670084
100
AcDbArc
 50
210.000007679929
 51
270.0
  0
ARC
  5
1D5
330
A3
100
AcDbEntity
  8
0 - Systemaufbauten
  6
Continuous
 62
     7
370
     0
100
AcDbCircle
 10
1506.236490381345
 20
1039.261868258245
 30
0.0
 40
3.33333313465118
100
AcDbArc
 50
270.0
 51
329.9999974427113
  0
LINE
  5
1D6
330
A3
100
AcDbEntity
  8
0 - Systemaufbauten
  6
Continuous
 62
     7
370
     0
100
AcDbLine
 10
1509.123240483385
 20
1037.595202137953
 30
0.0
 11
1513.349740279296
 21
1044.261868258244
 31
0.0
  0
ARC
  5
1D7
330
A3
100
AcDbEntity
  8
0 - Systemaufbauten
  6
Continuous
 62
     7
370
     0
100
AcDbCircle
 10
1516.236490381347
 20
1042.595201988943
 30
0.0
 40
3.33328818122972
100
AcDbArc
 50
30.00044020597701
 51
149.9999952245436
  0
LINE
  5
1D8
330
A3
100
AcDbEntity
  8
0 - Systemaufbauten
  6
Continuous
 62
     7
370
     0
100
AcDbLine
 10
1519.123239887336
 20
1044.261868258244
 30
0.0
 11
1523.349740875346
 21
1037.595202137953
 31
0.0
  0
ARC
  5
1D9
330
A3
100
AcDbEntity
  8
0 - Systemaufbauten
  6
Continuous
 62
     7
370
     0
100
AcDbCircle
 10
1526.236490381345
 20
1039.261868258245
 30
0.0
 40
3.33333146670084
100
AcDbArc
 50
210.000007679929
 51
270.0
  0
ARC
  5
1DA
330
A3
100
AcDbEntity
  8
0 - Systemaufbauten
  6
Continuous
 62
     7
370
     0
100
AcDbCircle
 10
1526.236490381345
 20
1039.261868258245
 30
0.0
 40
3.33333313465118
100
AcDbArc
 50
270.0
 51
329.9999974427113
  0
LINE
  5
1DB
330
A3
100
AcDbEntity
  8
0 - Systemaufbauten
  6
Continuous
 62
     7
370
     0
100
AcDbLine
 10
1529.123240483386
 20
1037.595202137953
 30
0.0
 11
1533.349740279295
 21
1044.261868258244
 31
0.0
  0
ARC
  5
1DC
330
A3
100
AcDbEntity
  8
0 - Systemaufbauten
  6
Continuous
 62
     7
370
     0
100
AcDbCircle
 10
1536.236490381345
 20
1042.595201988943
 30
0.0
 40
3.33328818122972
100
AcDbArc
 50
30.00044020597701
 51
149.9999952245436
  0
LINE
  5
1DD
330
A3
100
AcDbEntity
  8
0 - Systemaufbauten
  6
Continuous
 62
     7
370
     0
100
AcDbLine
 10
1539.123239887334
 20
1044.261868258244
 30
0.0
 11
1543.349740875346
 21
1037.595202137953
 31
0.0
  0
ARC
  5
1DE
330
A3
100
AcDbEntity
  8
0 - Systemaufbauten
  6
Continuous
 62
     7
370
     0
100
AcDbCircle
 10
1546.236490381336
 20
1039.261868258245
 30
0.0
 40
3.33333146670084
100
AcDbArc
 50
210.000007679929
 51
270.0
  0
ARC
  5
1DF
330
A3
100
AcDbEntity
  8
0 - Systemaufbauten
  6
Continuous
 62
     7
370
     0
100
AcDbCircle
 10
1546.236490381336
 20
1039.261868258245
 30
0.0
 40
3.33333313465118
100
AcDbArc
 50
270.0
 51
329.9999974427113
  0
LINE
  5
1E0
330
A3
100
AcDbEntity
  8
0 - Systemaufbauten
  6
Continuous
 62
     7
370
     0
100
AcDbLine
 10
1549.123240483386
 20
1037.595202137953
 30
0.0
 11
1553.349740279295
 21
1044.261868258244
 31
0.0
  0
ARC
  5
1E1
330
A3
100
AcDbEntity
  8
0 - Systemaufbauten
  6
Continuous
 62
     7
370
     0
100
AcDbCircle
 10
1556.236490381336
 20
1042.595201988943
 30
0.0
 40
3.33328818122972
100
AcDbArc
 50
30.00044020597701
 51
149.9999952245436
  0
LINE
  5
1E2
330
A3
100
AcDbEntity
  8
0 - Systemaufbauten
  6
Continuous
 62
     7
370
     0
100
AcDbLine
 10
1559.123239887334
 20
1044.261868258244
 30
0.0
 11
1563.349740875345
 21
1037.595202137953
 31
0.0
  0
ARC
  5
1E3
330
A3
100
AcDbEntity
  8
0 - Systemaufbauten
  6
Continuous
 62
     7
370
     0
100
AcDbCircle
 10
1566.236490381336
 20
1039.261868258245
 30
0.0
 40
3.33333146670084
100
AcDbArc
 50
210.000007679929
 51
270.0
  0
ARC
  5
1E4
330
A3
100
AcDbEntity
  8
0 - Systemaufbauten
  6
Continuous
 62
     7
370
     0
100
AcDbCircle
 10
1566.236490381336
 20
1039.261868258245
 30
0.0
 40
3.33333313465118
100
AcDbArc
 50
270.0
 51
329.9999974427113
  0
LINE
  5
1E5
330
A3
100
AcDbEntity
  8
0 - Systemaufbauten
  6
Continuous
 62
     7
370
     0
100
AcDbLine
 10
1569.123240483386
 20
1037.595202137953
 30
0.0
 11
1573.349740279296
 21
1044.261868258244
 31
0.0
  0
ARC
  5
1E6
330
A3
100
AcDbEntity
  8
0 - Systemaufbauten
  6
Continuous
 62
     7
370
     0
100
AcDbCircle
 10
1576.236490381336
 20
1042.595201988943
 30
0.0
 40
3.33328818122972
100
AcDbArc
 50
30.00044020597701
 51
149.9999952245436
  0
LINE
  5
1E7
330
A3
100
AcDbEntity
  8
0 - Systemaufbauten
  6
Continuous
 62
     7
370
     0
100
AcDbLine
 10
1579.123239887336
 20
1044.261868258244
 30
0.0
 11
1583.349740875345
 21
1037.595202137953
 31
0.0
  0
ARC
  5
1E8
330
A3
100
AcDbEntity
  8
0 - Systemaufbauten
  6
Continuous
 62
     7
370
     0
100
AcDbCircle
 10
1586.236490381336
 20
1039.261868258245
 30
0.0
 40
3.33333146670084
100
AcDbArc
 50
210.000007679929
 51
270.0
  0
ARC
  5
1E9
330
A3
100
AcDbEntity
  8
0 - Systemaufbauten
  6
Continuous
 62
     7
370
     0
100
AcDbCircle
 10
1586.236490381336
 20
1039.261868258245
 30
0.0
 40
3.33333313465118
100
AcDbArc
 50
270.0
 51
329.9999974427113
  0
LINE
  5
1EA
330
A3
100
AcDbEntity
  8
0 - Systemaufbauten
  6
Continuous
 62
     7
370
     0
100
AcDbLine
 10
1589.123240483385
 20
1037.595202137953
 30
0.0
 11
1593.349740279296
 21
1044.261868258244
 31
0.0
  0
ARC
  5
1EB
330
A3
100
AcDbEntity
  8
0 - Systemaufbauten
  6
Continuous
 62
     7
370
     0
100
AcDbCircle
 10
1596.236490381336
 20
1042.595201988943
 30
0.0
 40
3.33328818122972
100
AcDbArc
 50
30.00044020597701
 51
149.9999952245436
  0
LINE
  5
1EC
330
A3
100
AcDbEntity
  8
0 - Systemaufbauten
  6
Continuous
 62
     7
370
     0
100
AcDbLine
 10
1599.123239887336
 20
1044.261868258244
 30
0.0
 11
1603.349740875336
 21
1037.595202137953
 31
0.0
  0
ARC
  5
1ED
330
A3
100
AcDbEntity
  8
0 - Systemaufbauten
  6
Continuous
 62
     7
370
     0
100
AcDbCircle
 10
1606.236490381336
 20
1039.261868258245
 30
0.0
 40
3.33333146670084
100
AcDbArc
 50
210.000007679929
 51
270.0
  0
ARC
  5
1EE
330
A3
100
AcDbEntity
  8
0 - Systemaufbauten
  6
Continuous
 62
     7
370
     0
100
AcDbCircle
 10
1606.236490381336
 20
1039.261868258245
 30
0.0
 40
3.33333313465118
100
AcDbArc
 50
270.0
 51
329.9999974427113
  0
LINE
  5
1EF
330
A3
100
AcDbEntity
  8
0 - Systemaufbauten
  6
Continuous
 62
     7
370
     0
100
AcDbLine
 10
1609.123240483375
 20
1037.595202137953
 30
0.0
 11
1613.349740279296
 21
1044.261868258244
 31
0.0
  0
ARC
  5
1F0
330
A3
100
AcDbEntity
  8
0 - Systemaufbauten
  6
Continuous
 62
     7
370
     0
100
AcDbCircle
 10
1616.236490381336
 20
1042.595201988943
 30
0.0
 40
3.33328818122972
100
AcDbArc
 50
30.00044020597701
 51
149.9999952245436
  0
LINE
  5
1F1
330
A3
100
AcDbEntity
  8
0 - Systemaufbauten
  6
Continuous
 62
     7
370
     0
100
AcDbLine
 10
1619.123239887336
 20
1044.261868258244
 30
0.0
 11
1623.349740875336
 21
1037.595202137953
 31
0.0
  0
ARC
  5
1F2
330
A3
100
AcDbEntity
  8
0 - Systemaufbauten
  6
Continuous
 62
     7
370
     0
100
AcDbCircle
 10
1626.236490381336
 20
1039.261868258245
 30
0.0
 40
3.33333146670084
100
AcDbArc
 50
210.000007679929
 51
270.0
  0
ARC
  5
1F3
330
A3
100
AcDbEntity
  8
0 - Systemaufbauten
  6
Continuous
 62
     7
370
     0
100
AcDbCircle
 10
1626.236490381336
 20
1039.261868258245
 30
0.0
 40
3.33333313465118
100
AcDbArc
 50
270.0
 51
329.9999974427113
  0
LINE
  5
1F4
330
A3
100
AcDbEntity
  8
0 - Systemaufbauten
  6
Continuous
 62
     7
370
     0
100
AcDbLine
 10
1629.123240483375
 20
1037.595202137953
 30
0.0
 11
1633.349740279295
 21
1044.261868258244
 31
0.0
  0
ARC
  5
1F5
330
A3
100
AcDbEntity
  8
0 - Systemaufbauten
  6
Continuous
 62
     7
370
     0
100
AcDbCircle
 10
1636.236490381336
 20
1042.595201988943
 30
0.0
 40
3.33328818122972
100
AcDbArc
 50
30.00044020597701
 51
149.9999952245436
  0
LINE
  5
1F6
330
A3
100
AcDbEntity
  8
0 - Systemaufbauten
  6
Continuous
 62
     7
370
     0
100
AcDbLine
 10
1639.123239887334
 20
1044.261868258244
 30
0.0
 11
1643.349740875336
 21
1037.595202137953
 31
0.0
  0
ARC
  5
1F7
330
A3
100
AcDbEntity
  8
0 - Systemaufbauten
  6
Continuous
 62
     7
370
     0
100
AcDbCircle
 10
1646.236490381336
 20
1039.261868258245
 30
0.0
 40
3.33333146670084
100
AcDbArc
 50
210.000007679929
 51
270.0
  0
ARC
  5
1F8
330
A3
100
AcDbEntity
  8
0 - Systemaufbauten
  6
Continuous
 62
     7
370
     0
100
AcDbCircle
 10
1646.236490381336
 20
1039.261868258245
 30
0.0
 40
3.33333313465118
100
AcDbArc
 50
270.0
 51
329.9999974427113
  0
LINE
  5
1F9
330
A3
100
AcDbEntity
  8
0 - Systemaufbauten
  6
Continuous
 62
     7
370
     0
100
AcDbLine
 10
1649.123240483375
 20
1037.595202137953
 30
0.0
 11
1653.349740279295
 21
1044.261868258244
 31
0.0
  0
ARC
  5
1FA
330
A3
100
AcDbEntity
  8
0 - Systemaufbauten
  6
Continuous
 62
     7
370
     0
100
AcDbCircle
 10
1656.236490381336
 20
1042.595201988943
 30
0.0
 40
3.33328818122972
100
AcDbArc
 50
30.00044020597701
 51
149.9999952245436
  0
LINE
  5
1FB
330
A3
100
AcDbEntity
  8
0 - Systemaufbauten
  6
Continuous
 62
     7
370
     0
100
AcDbLine
 10
1659.123239887334
 20
1044.261868258244
 30
0.0
 11
1663.349740875336
 21
1037.595202137953
 31
0.0
  0
ARC
  5
1FC
330
A3
100
AcDbEntity
  8
0 - Systemaufbauten
  6
Continuous
 62
     7
370
     0
100
AcDbCircle
 10
1666.236490381336
 20
1039.261868258245
 30
0.0
 40
3.33333146670084
100
AcDbArc
 50
210.000007679929
 51
270.0
  0
ARC
  5
1FD
330
A3
100
AcDbEntity
  8
0 - Systemaufbauten
  6
Continuous
 62
     7
370
     0
100
AcDbCircle
 10
1666.236490381336
 20
1039.261868258245
 30
0.0
 40
3.33333313465118
100
AcDbArc
 50
270.0
 51
329.9999974427113
  0
LINE
  5
1FE
330
A3
100
AcDbEntity
  8
0 - Systemaufbauten
  6
Continuous
 62
     7
370
     0
100
AcDbLine
 10
1669.123240483375
 20
1037.595202137953
 30
0.0
 11
1673.349740279285
 21
1044.261868258244
 31
0.0
  0
ARC
  5
1FF
330
A3
100
AcDbEntity
  8
0 - Systemaufbauten
  6
Continuous
 62
     7
370
     0
100
AcDbCircle
 10
1676.236490381336
 20
1042.595201988943
 30
0.0
 40
3.33328818122972
100
AcDbArc
 50
30.00044020597701
 51
149.9999952245436
  0
LINE
  5
200
330
A3
100
AcDbEntity
  8
0 - Systemaufbauten
  6
Continuous
 62
     7
370
     0
100
AcDbLine
 10
1679.123239887325
 20
1044.261868258244
 30
0.0
 11
1683.349740875336
 21
1037.595202137953
 31
0.0
  0
ARC
  5
201
330
A3
100
AcDbEntity
  8
0 - Systemaufbauten
  6
Continuous
 62
     7
370
     0
100
AcDbCircle
 10
1686.236490381336
 20
1039.261868258245
 30
0.0
 40
3.33333146670084
100
AcDbArc
 50
210.000007679929
 51
270.0
  0
ARC
  5
202
330
A3
100
AcDbEntity
  8
0 - Systemaufbauten
  6
Continuous
 62
     7
370
     0
100
AcDbCircle
 10
1686.236490381336
 20
1039.261868258245
 30
0.0
 40
3.33333313465118
100
AcDbArc
 50
270.0
 51
329.9999974427113
  0
LINE
  5
203
330
A3
100
AcDbEntity
  8
0 - Systemaufbauten
  6
Continuous
 62
     7
370
     0
100
AcDbLine
 10
1689.123240483375
 20
1037.595202137953
 30
0.0
 11
1693.349740279285
 21
1044.261868258244
 31
0.0
  0
ARC
  5
204
330
A3
100
AcDbEntity
  8
0 - Systemaufbauten
  6
Continuous
 62
     7
370
     0
100
AcDbCircle
 10
1696.236490381336
 20
1042.595201988943
 30
0.0
 40
3.33328818122972
100
AcDbArc
 50
30.00044020597701
 51
149.9999952245436
  0
LINE
  5
205
330
A3
100
AcDbEntity
  8
0 - Systemaufbauten
  6
Continuous
 62
     7
370
     0
100
AcDbLine
 10
1699.123239887325
 20
1044.261868258244
 30
0.0
 11
1703.349740875336
 21
1037.595202137953
 31
0.0
  0
ARC
  5
206
330
A3
100
AcDbEntity
  8
0 - Systemaufbauten
  6
Continuous
 62
     7
370
     0
100
AcDbCircle
 10
1706.236490381336
 20
1039.261868258245
 30
0.0
 40
3.33333146670084
100
AcDbArc
 50
210.000007679929
 51
270.0
  0
ARC
  5
207
330
A3
100
AcDbEntity
  8
0 - Systemaufbauten
  6
Continuous
 62
     7
370
     0
100
AcDbCircle
 10
1706.236490381336
 20
1039.261868258245
 30
0.0
 40
3.33333313465118
100
AcDbArc
 50
270.0
 51
329.9999974427113
  0
LINE
  5
208
330
A3
100
AcDbEntity
  8
0 - Systemaufbauten
  6
Continuous
 62
     7
370
     0
100
AcDbLine
 10
1709.123240483375
 20
1037.595202137953
 30
0.0
 11
1713.349740279285
 21
1044.261868258244
 31
0.0
  0
ARC
  5
209
330
A3
100
AcDbEntity
  8
0 - Systemaufbauten
  6
Continuous
 62
     7
370
     0
100
AcDbCircle
 10
1716.236490381327
 20
1042.595201988943
 30
0.0
 40
3.33328818122972
100
AcDbArc
 50
30.00044020597701
 51
149.9999952245436
  0
LINE
  5
20A
330
A3
100
AcDbEntity
  8
0 - Systemaufbauten
  6
Continuous
 62
     7
370
     0
100
AcDbLine
 10
1719.123239887325
 20
1044.261868258244
 30
0.0
 11
1723.349740875336
 21
1037.595202137953
 31
0.0
  0
ARC
  5
20B
330
A3
100
AcDbEntity
  8
0 - Systemaufbauten
  6
Continuous
 62
     7
370
     0
100
AcDbCircle
 10
1726.236490381325
 20
1039.261868258245
 30
0.0
 40
3.33333146670084
100
AcDbArc
 50
210.000007679929
 51
270.0
  0
ARC
  5
20C
330
A3
100
AcDbEntity
  8
0 - Systemaufbauten
  6
Continuous
 62
     7
370
     0
100
AcDbCircle
 10
1726.236490381325
 20
1039.261868258245
 30
0.0
 40
3.33333313465118
100
AcDbArc
 50
270.0
 51
329.9999974427113
  0
LINE
  5
20D
330
A3
100
AcDbEntity
  8
0 - Systemaufbauten
  6
Continuous
 62
     7
370
     0
100
AcDbLine
 10
1729.123240483375
 20
1037.595202137953
 30
0.0
 11
1733.349740279285
 21
1044.261868258244
 31
0.0
  0
ARC
  5
20E
330
A3
100
AcDbEntity
  8
0 - Systemaufbauten
  6
Continuous
 62
     7
370
     0
100
AcDbCircle
 10
1736.236490381325
 20
1042.595201988943
 30
0.0
 40
3.33328818122972
100
AcDbArc
 50
30.00044020597701
 51
149.9999952245436
  0
LINE
  5
20F
330
A3
100
AcDbEntity
  8
0 - Systemaufbauten
  6
Continuous
 62
     7
370
     0
100
AcDbLine
 10
1739.123239887325
 20
1044.261868258244
 30
0.0
 11
1743.349740875336
 21
1037.595202137953
 31
0.0
  0
ARC
  5
210
330
A3
100
AcDbEntity
  8
0 - Systemaufbauten
  6
Continuous
 62
     7
370
     0
100
AcDbCircle
 10
1746.236490381327
 20
1039.261868258245
 30
0.0
 40
3.33333146670084
100
AcDbArc
 50
210.000007679929
 51
270.0
  0
ARC
  5
211
330
A3
100
AcDbEntity
  8
0 - Systemaufbauten
  6
Continuous
 62
     7
370
     0
100
AcDbCircle
 10
1746.236490381327
 20
1039.261868258245
 30
0.0
 40
3.33333313465118
100
AcDbArc
 50
270.0
 51
329.9999974427113
  0
LINE
  5
212
330
A3
100
AcDbEntity
  8
0 - Systemaufbauten
  6
Continuous
 62
     7
370
     0
100
AcDbLine
 10
1749.123240483375
 20
1037.595202137953
 30
0.0
 11
1753.349740279285
 21
1044.261868258244
 31
0.0
  0
ARC
  5
213
330
A3
100
AcDbEntity
  8
0 - Systemaufbauten
  6
Continuous
 62
     7
370
     0
100
AcDbCircle
 10
1756.236490381325
 20
1042.595201988943
 30
0.0
 40
3.33328818122972
100
AcDbArc
 50
30.00044020597701
 51
149.9999952245436
  0
LINE
  5
214
330
A3
100
AcDbEntity
  8
0 - Systemaufbauten
  6
Continuous
 62
     7
370
     0
100
AcDbLine
 10
1759.123239887325
 20
1044.261868258244
 30
0.0
 11
1763.349740875336
 21
1037.595202137953
 31
0.0
  0
ARC
  5
215
330
A3
100
AcDbEntity
  8
0 - Systemaufbauten
  6
Continuous
 62
     7
370
     0
100
AcDbCircle
 10
1766.236490381327
 20
1039.261868258245
 30
0.0
 40
3.33333146670084
100
AcDbArc
 50
210.000007679929
 51
270.0
  0
ARC
  5
216
330
A3
100
AcDbEntity
  8
0 - Systemaufbauten
  6
Continuous
 62
     7
370
     0
100
AcDbCircle
 10
1766.236490381327
 20
1039.261868258245
 30
0.0
 40
3.33333313465118
100
AcDbArc
 50
270.0
 51
329.9999974427113
  0
LINE
  5
217
330
A3
100
AcDbEntity
  8
0 - Systemaufbauten
  6
Continuous
 62
     7
370
     0
100
AcDbLine
 10
1769.123240483366
 20
1037.595202137953
 30
0.0
 11
1773.349740279285
 21
1044.261868258244
 31
0.0
  0
ARC
  5
218
330
A3
100
AcDbEntity
  8
0 - Systemaufbauten
  6
Continuous
 62
     7
370
     0
100
AcDbCircle
 10
1776.236490381325
 20
1042.595201988943
 30
0.0
 40
3.33328818122972
100
AcDbArc
 50
30.00044020597701
 51
149.9999952245436
  0
LINE
  5
219
330
A3
100
AcDbEntity
  8
0 - Systemaufbauten
  6
Continuous
 62
     7
370
     0
100
AcDbLine
 10
1779.123239887325
 20
1044.261868258244
 30
0.0
 11
1783.349740875325
 21
1037.595202137953
 31
0.0
  0
ARC
  5
21A
330
A3
100
AcDbEntity
  8
0 - Systemaufbauten
  6
Continuous
 62
     7
370
     0
100
AcDbCircle
 10
1786.236490381325
 20
1039.261868258245
 30
0.0
 40
3.33333146670084
100
AcDbArc
 50
210.000007679929
 51
270.0
  0
ARC
  5
21B
330
A3
100
AcDbEntity
  8
0 - Systemaufbauten
  6
Continuous
 62
     7
370
     0
100
AcDbCircle
 10
1786.236490381325
 20
1039.261868258245
 30
0.0
 40
3.33333313465118
100
AcDbArc
 50
270.0
 51
329.9999974427113
  0
LINE
  5
21C
330
A3
100
AcDbEntity
  8
0 - Systemaufbauten
  6
Continuous
 62
     7
370
     0
100
AcDbLine
 10
1789.123240483364
 20
1037.595202137953
 30
0.0
 11
1793.349740279285
 21
1044.261868258244
 31
0.0
  0
ARC
  5
21D
330
A3
100
AcDbEntity
  8
0 - Systemaufbauten
  6
Continuous
 62
     7
370
     0
100
AcDbCircle
 10
1796.236490381327
 20
1042.595201988943
 30
0.0
 40
3.33328818122972
100
AcDbArc
 50
30.00044020597701
 51
149.9999952245436
  0
LINE
  5
21E
330
A3
100
AcDbEntity
  8
0 - Systemaufbauten
  6
Continuous
 62
     7
370
     0
100
AcDbLine
 10
1799.123239887325
 20
1044.261868258244
 30
0.0
 11
1803.349740875326
 21
1037.595202137953
 31
0.0
  0
ARC
  5
21F
330
A3
100
AcDbEntity
  8
0 - Systemaufbauten
  6
Continuous
 62
     7
370
     0
100
AcDbCircle
 10
1806.236490381325
 20
1039.261868258245
 30
0.0
 40
3.33333146670084
100
AcDbArc
 50
210.000007679929
 51
270.0
  0
ARC
  5
220
330
A3
100
AcDbEntity
  8
0 - Systemaufbauten
  6
Continuous
 62
     7
370
     0
100
AcDbCircle
 10
1806.236490381325
 20
1039.261868258245
 30
0.0
 40
3.33333313465118
100
AcDbArc
 50
270.0
 51
329.9999974427113
  0
LINE
  5
221
330
A3
100
AcDbEntity
  8
0 - Systemaufbauten
  6
Continuous
 62
     7
370
     0
100
AcDbLine
 10
1809.123240483366
 20
1037.595202137953
 30
0.0
 11
1813.349740279285
 21
1044.261868258244
 31
0.0
  0
ARC
  5
222
330
A3
100
AcDbEntity
  8
0 - Systemaufbauten
  6
Continuous
 62
     7
370
     0
100
AcDbCircle
 10
1816.236490381327
 20
1042.595201988943
 30
0.0
 40
3.33328818122972
100
AcDbArc
 50
30.00044020597701
 51
149.9999952245436
  0
LINE
  5
223
330
A3
100
AcDbEntity
  8
0 - Systemaufbauten
  6
Continuous
 62
     7
370
     0
100
AcDbLine
 10
1819.123239887325
 20
1044.261868258244
 30
0.0
 11
1823.349740875326
 21
1037.595202137953
 31
0.0
  0
ARC
  5
224
330
A3
100
AcDbEntity
  8
0 - Systemaufbauten
  6
Continuous
 62
     7
370
     0
100
AcDbCircle
 10
1826.236490381325
 20
1039.261868258245
 30
0.0
 40
3.33333146670084
100
AcDbArc
 50
210.000007679929
 51
270.0
  0
ARC
  5
225
330
A3
100
AcDbEntity
  8
0 - Systemaufbauten
  6
Continuous
 62
     7
370
     0
100
AcDbCircle
 10
1826.236490381325
 20
1039.261868258245
 30
0.0
 40
3.33333313465118
100
AcDbArc
 50
270.0
 51
329.9999974427113
  0
LINE
  5
226
330
A3
100
AcDbEntity
  8
0 - Systemaufbauten
  6
Continuous
 62
     7
370
     0
100
AcDbLine
 10
1829.123240483366
 20
1037.595202137953
 30
0.0
 11
1833.349740279285
 21
1044.261868258244
 31
0.0
  0
ARC
  5
227
330
A3
100
AcDbEntity
  8
0 - Systemaufbauten
  6
Continuous
 62
     7
370
     0
100
AcDbCircle
 10
1836.236490381325
 20
1042.595201988943
 30
0.0
 40
3.33328818123038
100
AcDbArc
 50
138.5912579324218
 51
149.9999952245436
  0
HATCH
  5
228
330
A3
100
AcDbEntity
  8
0 - Systemaufbauten
  6
Continuous
 62
     7
370
     0
100
AcDbHatch
 10
0.0
 20
0.0
 30
0.0
210
0.0
220
0.0
230
1.0
  2
SOLID
 70
     1
 71
     0
 91
        1
 92
        0
 93
        4
 72
     1
 10
1084.236490381365
 20
875.9285351235931
 11
1084.236490381365
 21
735.9285351235922
 72
     1
 10
1084.236490381365
 20
735.9285351235922
 11
1083.236490381367
 21
735.9285351235922
 72
     1
 10
1083.236490381367
 20
735.9285351235922
 11
1083.236490381367
 21
875.9285351235931
 72
     1
 10
1083.236490381367
 20
875.9285351235931
 11
1084.236490381365
 21
875.9285351235931
 97
        0
 75
     0
 76
     1
 98
        0
  0
HATCH
  5
229
330
A3
100
AcDbEntity
  8
0 - Systemaufbauten
  6
Continuous
 62
     2
370
     0
100
AcDbHatch
 10
0.0
 20
0.0
 30
0.0
210
0.0
220
0.0
230
1.0
  2
SOLID
 70
     1
 71
     0
 91
        1
 92
        0
 93
        4
 72
     1
 10
333.736490381365
 20
1035.928535123592
 11
333.736490381365
 21
895.9285351235922
 72
     1
 10
333.736490381365
 20
895.9285351235922
 11
1081.236490381365
 21
895.9285351235922
 72
     1
 10
1081.236490381365
 20
895.9285351235922
 11
1081.236490381365
 21
1035.928535123592
 72
     1
 10
1081.236490381365
 20
1035.928535123592
 11
333.736490381365
 21
1035.928535123592
 97
        0
 75
     0
 76
     1
 98
        0
  0
HATCH
  5
22A
330
A3
100
AcDbEntity
  8
0 - Systemaufbauten
  6
Continuous
 62
     2
370
     0
100
AcDbHatch
 10
0.0
 20
0.0
 30
0.0
210
0.0
220
0.0
230
1.0
  2
SOLID
 70
     1
 71
     0
 91
        1
 92
        0
 93
        6
 72
     1
 10
333.736490381365
 20
895.9285351235922
 11
1081.236490381365
 21
895.9285351235922
 72
     1
 10
1081.236490381365
 20
895.9285351235922
 11
1081.236490381365
 21
875.9285351235931
 72
     1
 10
1081.236490381365
 20
875.9285351235931
 11
1083.236490381367
 21
875.9285351235931
 72
     1
 10
1083.236490381367
 20
875.9285351235931
 11
1083.236490381367
 21
755.9285351235922
 72
     1
 10
1083.236490381367
 20
755.9285351235922
 11
333.736490381365
 21
755.9285351235922
 72
     1
 10
333.736490381365
 20
755.9285351235922
 11
333.736490381365
 21
895.9285351235922
 97
        0
 75
     0
 76
     1
 98
        0
  0
HATCH
  5
22B
330
A3
100
AcDbEntity
  8
0 - Systemaufbauten
  6
Continuous
 62
     2
370
     0
100
AcDbHatch
 10
0.0
 20
0.0
 30
0.0
210
0.0
220
0.0
230
1.0
  2
SOLID
 70
     1
 71
     0
 91
        1
 92
        0
 93
        4
 72
     1
 10
1086.236490381365
 20
1035.928535123592
 11
1833.736490381365
 21
1035.928535123592
 72
     1
 10
1833.736490381365
 20
1035.928535123592
 11
1833.736490381365
 21
895.9285351235922
 72
     1
 10
1833.736490381365
 20
895.9285351235922
 11
1086.236490381365
 21
895.9285351235922
 72
     1
 10
1086.236490381365
 20
895.9285351235922
 11
1086.236490381365
 21
1035.928535123592
 97
        0
 75
     0
 76
     1
 98
        0
  0
HATCH
  5
22C
330
A3
100
AcDbEntity
  8
0 - Systemaufbauten
  6
Continuous
 62
     2
370
     0
100
AcDbHatch
 10
0.0
 20
0.0
 30
0.0
210
0.0
220
0.0
230
1.0
  2
SOLID
 70
     1
 71
     0
 91
        1
 92
        0
 93
        6
 72
     1
 10
1086.236490381365
 20
895.9285351235922
 11
1086.236490381365
 21
875.9285351235931
 72
     1
 10
1086.236490381365
 20
875.9285351235931
 11
1084.236490381365
 21
875.9285351235931
 72
     1
 10
1084.236490381365
 20
875.9285351235931
 11
1084.236490381365
 21
755.9285351235922
 72
     1
 10
1084.236490381365
 20
755.9285351235922
 11
1833.736490381365
 21
755.9285351235922
 72
     1
 10
1833.736490381365
 20
755.9285351235922
 11
1833.736490381365
 21
895.9285351235922
 72
     1
 10
1833.736490381365
 20
895.9285351235922
 11
1086.236490381365
 21
895.9285351235922
 97
        0
 75
     0
 76
     1
 98
        0
  0
LINE
  5
22D
330
A3
100
AcDbEntity
  8
0 - Systemaufbauten
  6
Continuous
 62
     7
370
     0
100
AcDbLine
 10
333.736490381365
 20
895.9285351235922
 30
0.0
 11
389.7364912158355
 21
1035.928535123592
 31
0.0
  0
LINE
  5
22E
330
A3
100
AcDbEntity
  8
0 - Systemaufbauten
  6
Continuous
 62
     7
370
     0
100
AcDbLine
 10
389.7364912158355
 20
1035.928535123592
 30
0.0
 11
445.7364920502969
 21
895.9285351235922
 31
0.0
  0
LINE
  5
22F
330
A3
100
AcDbEntity
  8
0 - Systemaufbauten
  6
Continuous
 62
     7
370
     0
100
AcDbLine
 10
445.7364920502969
 20
895.9285351235922
 30
0.0
 11
501.7364928847655
 21
1035.928535123592
 31
0.0
  0
LINE
  5
230
330
A3
100
AcDbEntity
  8
0 - Systemaufbauten
  6
Continuous
 62
     7
370
     0
100
AcDbLine
 10
501.7364928847655
 20
1035.928535123592
 30
0.0
 11
557.7364937192251
 21
895.9285351235922
 31
0.0
  0
LINE
  5
231
330
A3
100
AcDbEntity
  8
0 - Systemaufbauten
  6
Continuous
 62
     7
370
     0
100
AcDbLine
 10
557.7364937192251
 20
895.9285351235922
 30
0.0
 11
613.7364945536956
 21
1035.928535123592
 31
0.0
  0
LINE
  5
232
330
A3
100
AcDbEntity
  8
0 - Systemaufbauten
  6
Continuous
 62
     7
370
     0
100
AcDbLine
 10
613.7364945536956
 20
1035.928535123592
 30
0.0
 11
669.7364953881552
 21
895.9285351235922
 31
0.0
  0
LINE
  5
233
330
A3
100
AcDbEntity
  8
0 - Systemaufbauten
  6
Continuous
 62
     7
370
     0
100
AcDbLine
 10
669.7364953881552
 20
895.9285351235922
 30
0.0
 11
725.7364962226256
 21
1035.928535123592
 31
0.0
  0
LINE
  5
234
330
A3
100
AcDbEntity
  8
0 - Systemaufbauten
  6
Continuous
 62
     7
370
     0
100
AcDbLine
 10
725.7364962226256
 20
1035.928535123592
 30
0.0
 11
781.7364970570852
 21
895.9285351235922
 31
0.0
  0
LINE
  5
235
330
A3
100
AcDbEntity
  8
0 - Systemaufbauten
  6
Continuous
 62
     7
370
     0
100
AcDbLine
 10
781.7364970570852
 20
895.9285351235922
 30
0.0
 11
837.7364978915557
 21
1035.928535123592
 31
0.0
  0
LINE
  5
236
330
A3
100
AcDbEntity
  8
0 - Systemaufbauten
  6
Continuous
 62
     7
370
     0
100
AcDbLine
 10
837.7364978915557
 20
1035.928535123592
 30
0.0
 11
893.7364987260153
 21
895.9285351235922
 31
0.0
  0
LINE
  5
237
330
A3
100
AcDbEntity
  8
0 - Systemaufbauten
  6
Continuous
 62
     7
370
     0
100
AcDbLine
 10
893.7364987260153
 20
895.9285351235922
 30
0.0
 11
949.7364995604858
 21
1035.928535123592
 31
0.0
  0
LINE
  5
238
330
A3
100
AcDbEntity
  8
0 - Systemaufbauten
  6
Continuous
 62
     7
370
     0
100
AcDbLine
 10
949.7364995604858
 20
1035.928535123592
 30
0.0
 11
1005.736500394954
 21
895.9285351235922
 31
0.0
  0
LINE
  5
239
330
A3
100
AcDbEntity
  8
0 - Systemaufbauten
  6
Continuous
 62
     7
370
     0
100
AcDbLine
 10
1005.736500394954
 20
895.9285351235922
 30
0.0
 11
1061.736501229416
 21
1035.928535123592
 31
0.0
  0
LINE
  5
23A
330
A3
100
AcDbEntity
  8
0 - Systemaufbauten
  6
Continuous
 62
     7
370
     0
100
AcDbLine
 10
1061.736501229416
 20
1035.928535123592
 30
0.0
 11
1081.236490381365
 21
987.1785629701499
 31
0.0
  0
LINE
  5
23B
330
A3
100
AcDbEntity
  8
0 - Systemaufbauten
  6
Continuous
 62
     7
370
     0
100
AcDbLine
 10
1086.236490381365
 20
895.9285351235922
 30
0.0
 11
1142.236491215835
 21
1035.928535123592
 31
0.0
  0
LINE
  5
23C
330
A3
100
AcDbEntity
  8
0 - Systemaufbauten
  6
Continuous
 62
     7
370
     0
100
AcDbLine
 10
1142.236491215835
 20
1035.928535123592
 30
0.0
 11
1198.236492050295
 21
895.9285351235922
 31
0.0
  0
LINE
  5
23D
330
A3
100
AcDbEntity
  8
0 - Systemaufbauten
  6
Continuous
 62
     7
370
     0
100
AcDbLine
 10
1198.236492050295
 20
895.9285351235922
 30
0.0
 11
1254.236492884766
 21
1035.928535123592
 31
0.0
  0
LINE
  5
23E
330
A3
100
AcDbEntity
  8
0 - Systemaufbauten
  6
Continuous
 62
     7
370
     0
100
AcDbLine
 10
1254.236492884766
 20
1035.928535123592
 30
0.0
 11
1310.236493719225
 21
895.9285351235922
 31
0.0
  0
LINE
  5
23F
330
A3
100
AcDbEntity
  8
0 - Systemaufbauten
  6
Continuous
 62
     7
370
     0
100
AcDbLine
 10
1310.236493719225
 20
895.9285351235922
 30
0.0
 11
1366.236494553696
 21
1035.928535123592
 31
0.0
  0
LINE
  5
240
330
A3
100
AcDbEntity
  8
0 - Systemaufbauten
  6
Continuous
 62
     7
370
     0
100
AcDbLine
 10
1366.236494553696
 20
1035.928535123592
 30
0.0
 11
1422.236495388155
 21
895.9285351235922
 31
0.0
  0
LINE
  5
241
330
A3
100
AcDbEntity
  8
0 - Systemaufbauten
  6
Continuous
 62
     7
370
     0
100
AcDbLine
 10
1422.236495388155
 20
895.9285351235922
 30
0.0
 11
1478.236496222626
 21
1035.928535123592
 31
0.0
  0
LINE
  5
242
330
A3
100
AcDbEntity
  8
0 - Systemaufbauten
  6
Continuous
 62
     7
370
     0
100
AcDbLine
 10
1478.236496222626
 20
1035.928535123592
 30
0.0
 11
1534.236497057087
 21
895.9285351235922
 31
0.0
  0
LINE
  5
243
330
A3
100
AcDbEntity
  8
0 - Systemaufbauten
  6
Continuous
 62
     7
370
     0
100
AcDbLine
 10
1534.236497057087
 20
895.9285351235922
 30
0.0
 11
1590.236497891556
 21
1035.928535123592
 31
0.0
  0
LINE
  5
244
330
A3
100
AcDbEntity
  8
0 - Systemaufbauten
  6
Continuous
 62
     7
370
     0
100
AcDbLine
 10
1590.236497891556
 20
1035.928535123592
 30
0.0
 11
1646.236498726015
 21
895.9285351235922
 31
0.0
  0
LINE
  5
245
330
A3
100
AcDbEntity
  8
0 - Systemaufbauten
  6
Continuous
 62
     7
370
     0
100
AcDbLine
 10
1646.236498726015
 20
895.9285351235922
 30
0.0
 11
1702.236499560486
 21
1035.928535123592
 31
0.0
  0
LINE
  5
246
330
A3
100
AcDbEntity
  8
0 - Systemaufbauten
  6
Continuous
 62
     7
370
     0
100
AcDbLine
 10
1702.236499560486
 20
1035.928535123592
 30
0.0
 11
1758.236500394945
 21
895.9285351235922
 31
0.0
  0
LINE
  5
247
330
A3
100
AcDbEntity
  8
0 - Systemaufbauten
  6
Continuous
 62
     7
370
     0
100
AcDbLine
 10
1758.236500394945
 20
895.9285351235922
 30
0.0
 11
1814.236501229416
 21
1035.928535123592
 31
0.0
  0
LINE
  5
248
330
A3
100
AcDbEntity
  8
0 - Systemaufbauten
  6
Continuous
 62
     7
370
     0
100
AcDbLine
 10
1814.236501229416
 20
1035.928535123592
 30
0.0
 11
1833.736490381365
 21
987.1785629701499
 31
0.0
  0
LINE
  5
249
330
A3
100
AcDbEntity
  8
0 - Systemaufbauten
  6
Continuous
 62
     7
370
     0
100
AcDbLine
 10
333.736490381365
 20
755.9285351235922
 30
0.0
 11
389.7364912158355
 21
895.9285351235922
 31
0.0
  0
LINE
  5
24A
330
A3
100
AcDbEntity
  8
0 - Systemaufbauten
  6
Continuous
 62
     7
370
     0
100
AcDbLine
 10
389.7364912158355
 20
895.9285351235922
 30
0.0
 11
445.7364920502969
 21
755.9285351235922
 31
0.0
  0
LINE
  5
24B
330
A3
100
AcDbEntity
  8
0 - Systemaufbauten
  6
Continuous
 62
     7
370
     0
100
AcDbLine
 10
445.7364920502969
 20
755.9285351235922
 30
0.0
 11
501.7364928847655
 21
895.9285351235922
 31
0.0
  0
LINE
  5
24C
330
A3
100
AcDbEntity
  8
0 - Systemaufbauten
  6
Continuous
 62
     7
370
     0
100
AcDbLine
 10
501.7364928847655
 20
895.9285351235922
 30
0.0
 11
557.7364937192251
 21
755.9285351235922
 31
0.0
  0
LINE
  5
24D
330
A3
100
AcDbEntity
  8
0 - Systemaufbauten
  6
Continuous
 62
     7
370
     0
100
AcDbLine
 10
557.7364937192251
 20
755.9285351235922
 30
0.0
 11
613.7364945536956
 21
895.9285351235922
 31
0.0
  0
LINE
  5
24E
330
A3
100
AcDbEntity
  8
0 - Systemaufbauten
  6
Continuous
 62
     7
370
     0
100
AcDbLine
 10
613.7364945536956
 20
895.9285351235922
 30
0.0
 11
669.7364953881552
 21
755.9285351235922
 31
0.0
  0
LINE
  5
24F
330
A3
100
AcDbEntity
  8
0 - Systemaufbauten
  6
Continuous
 62
     7
370
     0
100
AcDbLine
 10
669.7364953881552
 20
755.9285351235922
 30
0.0
 11
725.7364962226256
 21
895.9285351235922
 31
0.0
  0
LINE
  5
250
330
A3
100
AcDbEntity
  8
0 - Systemaufbauten
  6
Continuous
 62
     7
370
     0
100
AcDbLine
 10
725.7364962226256
 20
895.9285351235922
 30
0.0
 11
781.7364970570852
 21
755.9285351235922
 31
0.0
  0
LINE
  5
251
330
A3
100
AcDbEntity
  8
0 - Systemaufbauten
  6
Continuous
 62
     7
370
     0
100
AcDbLine
 10
781.7364970570852
 20
755.9285351235922
 30
0.0
 11
837.7364978915557
 21
895.9285351235922
 31
0.0
  0
LINE
  5
252
330
A3
100
AcDbEntity
  8
0 - Systemaufbauten
  6
Continuous
 62
     7
370
     0
100
AcDbLine
 10
837.7364978915557
 20
895.9285351235922
 30
0.0
 11
893.7364987260153
 21
755.9285351235922
 31
0.0
  0
LINE
  5
253
330
A3
100
AcDbEntity
  8
0 - Systemaufbauten
  6
Continuous
 62
     7
370
     0
100
AcDbLine
 10
893.7364987260153
 20
755.9285351235922
 30
0.0
 11
949.7364995604858
 21
895.9285351235922
 31
0.0
  0
LINE
  5
254
330
A3
100
AcDbEntity
  8
0 - Systemaufbauten
  6
Continuous
 62
     7
370
     0
100
AcDbLine
 10
949.7364995604858
 20
895.9285351235922
 30
0.0
 11
1005.736500394954
 21
755.9285351235922
 31
0.0
  0
LINE
  5
255
330
A3
100
AcDbEntity
  8
0 - Systemaufbauten
  6
Continuous
 62
     7
370
     0
100
AcDbLine
 10
1005.736500394954
 20
755.9285351235922
 30
0.0
 11
1061.736501229416
 21
895.9285351235922
 31
0.0
  0
LINE
  5
256
330
A3
100
AcDbEntity
  8
0 - Systemaufbauten
  6
Continuous
 62
     7
370
     0
100
AcDbLine
 10
1061.736501229416
 20
895.9285351235922
 30
0.0
 11
1083.236490381367
 21
842.178563044653
 31
0.0
  0
LINE
  5
257
330
A3
100
AcDbEntity
  8
0 - Systemaufbauten
  6
Continuous
 62
     7
370
     0
100
AcDbLine
 10
1084.236490381365
 20
755.9285351235922
 30
0.0
 11
1140.236491215835
 21
895.9285351235922
 31
0.0
  0
LINE
  5
258
330
A3
100
AcDbEntity
  8
0 - Systemaufbauten
  6
Continuous
 62
     7
370
     0
100
AcDbLine
 10
1140.236491215835
 20
895.9285351235922
 30
0.0
 11
1196.236492050295
 21
755.9285351235922
 31
0.0
  0
LINE
  5
259
330
A3
100
AcDbEntity
  8
0 - Systemaufbauten
  6
Continuous
 62
     7
370
     0
100
AcDbLine
 10
1196.236492050295
 20
755.9285351235922
 30
0.0
 11
1252.236492884766
 21
895.9285351235922
 31
0.0
  0
LINE
  5
25A
330
A3
100
AcDbEntity
  8
0 - Systemaufbauten
  6
Continuous
 62
     7
370
     0
100
AcDbLine
 10
1252.236492884766
 20
895.9285351235922
 30
0.0
 11
1308.236493719225
 21
755.9285351235922
 31
0.0
  0
LINE
  5
25B
330
A3
100
AcDbEntity
  8
0 - Systemaufbauten
  6
Continuous
 62
     7
370
     0
100
AcDbLine
 10
1308.236493719225
 20
755.9285351235922
 30
0.0
 11
1364.236494553696
 21
895.9285351235922
 31
0.0
  0
LINE
  5
25C
330
A3
100
AcDbEntity
  8
0 - Systemaufbauten
  6
Continuous
 62
     7
370
     0
100
AcDbLine
 10
1364.236494553696
 20
895.9285351235922
 30
0.0
 11
1420.236495388155
 21
755.9285351235922
 31
0.0
  0
LINE
  5
25D
330
A3
100
AcDbEntity
  8
0 - Systemaufbauten
  6
Continuous
 62
     7
370
     0
100
AcDbLine
 10
1420.236495388155
 20
755.9285351235922
 30
0.0
 11
1476.236496222626
 21
895.9285351235922
 31
0.0
  0
LINE
  5
25E
330
A3
100
AcDbEntity
  8
0 - Systemaufbauten
  6
Continuous
 62
     7
370
     0
100
AcDbLine
 10
1476.236496222626
 20
895.9285351235922
 30
0.0
 11
1532.236497057085
 21
755.9285351235922
 31
0.0
  0
LINE
  5
25F
330
A3
100
AcDbEntity
  8
0 - Systemaufbauten
  6
Continuous
 62
     7
370
     0
100
AcDbLine
 10
1532.236497057085
 20
755.9285351235922
 30
0.0
 11
1588.236497891556
 21
895.9285351235922
 31
0.0
  0
LINE
  5
260
330
A3
100
AcDbEntity
  8
0 - Systemaufbauten
  6
Continuous
 62
     7
370
     0
100
AcDbLine
 10
1588.236497891556
 20
895.9285351235922
 30
0.0
 11
1644.236498726015
 21
755.9285351235922
 31
0.0
  0
LINE
  5
261
330
A3
100
AcDbEntity
  8
0 - Systemaufbauten
  6
Continuous
 62
     7
370
     0
100
AcDbLine
 10
1644.236498726015
 20
755.9285351235922
 30
0.0
 11
1700.236499560486
 21
895.9285351235922
 31
0.0
  0
LINE
  5
262
330
A3
100
AcDbEntity
  8
0 - Systemaufbauten
  6
Continuous
 62
     7
370
     0
100
AcDbLine
 10
1700.236499560486
 20
895.9285351235922
 30
0.0
 11
1756.236500394945
 21
755.9285351235922
 31
0.0
  0
LINE
  5
263
330
A3
100
AcDbEntity
  8
0 - Systemaufbauten
  6
Continuous
 62
     7
370
     0
100
AcDbLine
 10
1756.236500394945
 20
755.9285351235922
 30
0.0
 11
1812.236501229416
 21
895.9285351235922
 31
0.0
  0
LINE
  5
264
330
A3
100
AcDbEntity
  8
0 - Systemaufbauten
  6
Continuous
 62
     7
370
     0
100
AcDbLine
 10
1812.236501229416
 20
895.9285351235922
 30
0.0
 11
1833.736490381365
 21
842.178563044653
 31
0.0
  0
LWPOLYLINE
  5
265
330
A3
100
AcDbEntity
  8
0 - Systemaufbauten
  6
Continuous
 62
     7
370
     0
100
AcDbPolyline
 90
        4
 70
     1
 43
0.0
 10
1.220070422536082
 20
0.2614436619714979
 10
2971.220070422534
 20
0.2614436619714979
 10
2971.220070422534
 20
2100.261443661971
 10
1.220070422536082
 20
2100.261443661971
  0
LWPOLYLINE
  5
266
330
A3
100
AcDbEntity
  8
0 - Systemaufbauten
  6
Continuous
 62
     7
370
     0
100
AcDbPolyline
 90
        4
 70
     1
 43
0.0
 10
251.2200704225361
 20
2050.261443661971
 10
2921.220070422534
 20
2050.261443661971
 10
2921.220070422534
 20
50.2614436619715
 10
251.2200704225361
 20
50.2614436619715
  0
LWPOLYLINE
  5
267
330
A3
100
AcDbEntity
  8
0 - Systemaufbauten
  6
Continuous
 62
     7
370
     0
100
AcDbPolyline
 90
        3
 70
     0
 43
0.0
 10
1571.220070422536
 20
50.2614436619715
 10
1571.220070422536
 20
500.2614436619715
 10
2921.220070422534
 20
500.2614436619715
  0
LINE
  5
268
330
A3
100
AcDbEntity
  8
0 - Systemaufbauten
  6
Continuous
 62
     7
370
     0
100
AcDbLine
 10
1571.220070422536
 20
150.2614436619715
 30
0.0
 11
2921.220070422534
 21
150.2614436619715
 31
0.0
  0
LINE
  5
269
330
A3
100
AcDbEntity
  8
0 - Systemaufbauten
  6
Continuous
 62
     7
370
     0
100
AcDbLine
 10
1571.220070422536
 20
350.2614436619715
 30
0.0
 11
2921.220070422534
 21
350.2614436619715
 31
0.0
  0
LINE
  5
26A
330
A3
100
AcDbEntity
  8
0 - Systemaufbauten
  6
Continuous
 62
     7
370
     0
100
AcDbLine
 10
1841.220070422536
 20
150.2614436619715
 30
0.0
 11
1841.220070422536
 21
50.2614436619715
 31
0.0
  0
LINE
  5
26B
330
A3
100
AcDbEntity
  8
0 - Systemaufbauten
  6
Continuous
 62
     7
370
     0
100
AcDbLine
 10
2111.220070422536
 20
150.2614436619715
 30
0.0
 11
2111.220070422536
 21
50.2614436619715
 31
0.0
  0
LINE
  5
26C
330
A3
100
AcDbEntity
  8
0 - Systemaufbauten
  6
Continuous
 62
     7
370
     0
100
AcDbLine
 10
2381.220070422536
 20
150.2614436619715
 30
0.0
 11
2381.220070422536
 21
50.2614436619715
 31
0.0
  0
LINE
  5
26D
330
A3
100
AcDbEntity
  8
0 - Systemaufbauten
  6
Continuous
 62
     7
370
     0
100
AcDbLine
 10
2651.220070422536
 20
150.2614436619715
 30
0.0
 11
2651.220070422536
 21
50.2614436619715
 31
0.0
  0
TEXT
  5
26E
330
A3
100
AcDbEntity
  8
0 - Systemaufbauten
  6
Continuous
 62
     7
370
     0
100
AcDbText
 10
1591.220070422536
 20
470.2614436619715
 30
0.0
 40
22.69896125793457
  1
PLANINHALT:
 41
0.8579923483530327
  7
Style0
100
AcDbText
  0
TEXT
  5
26F
330
A3
100
AcDbEntity
  8
0 - Systemaufbauten
  6
Continuous
 62
     7
370
     0
100
AcDbText
 10
1591.220070422536
 20
120.2614436619715
 30
0.0
 40
22.69896125793457
  1
MASSSTAB:
 41
0.9111284619623434
  7
Style0
100
AcDbText
  0
TEXT
  5
270
330
A3
100
AcDbEntity
  8
0 - Systemaufbauten
  6
Continuous
 62
     7
370
     0
100
AcDbText
 10
1861.220070422536
 20
120.2614436619715
 30
0.0
 40
22.69896125793457
  1
ERSTELLT:
 41
0.8423641974483923
  7
Style0
100
AcDbText
  0
TEXT
  5
271
330
A3
100
AcDbEntity
  8
0 - Systemaufbauten
  6
Continuous
 62
     7
370
     0
100
AcDbText
 10
2131.220070422536
 20
120.2614436619715
 30
0.0
 40
22.69896125793457
  1
BLATT NR.:
 41
0.8458022923346369
  7
Style0
100
AcDbText
  0
TEXT
  5
272
330
A3
100
AcDbEntity
  8
0 - Systemaufbauten
  6
Continuous
 62
     7
370
     0
100
AcDbText
 10
2401.220070422536
 20
120.2614436619715
 30
0.0
 40
22.69896125793457
  1
DETAIL NR.:
 41
0.8204844463352615
  7
Style0
100
AcDbText
  0
TEXT
  5
273
330
A3
100
AcDbEntity
  8
0 - Systemaufbauten
  6
Continuous
 62
     7
370
     0
100
AcDbText
 10
2671.220070422534
 20
120.2614436619715
 30
0.0
 40
22.69896125793457
  1
GEZEICHNET:
 41
0.8908118839923805
  7
Style0
100
AcDbText
  0
TEXT
  5
274
330
A3
100
AcDbEntity
  8
0 - Systemaufbauten
  6
Continuous
 62
     7
370
     0
100
AcDbText
 10
1592.494675053515
 20
324.3559089545333
 30
0.0
 40
9.079585075378418
  1
Die oben dargestellte Detailzeichnung bezieht sich auf eine Regelkonstruktion, d.h. sie ist zu überprüfen,
 41
0.8426884399575822
  7
Style0
100
AcDbText
  0
TEXT
  5
275
330
A3
100
AcDbEntity
  8
0 - Systemaufbauten
  6
Continuous
 62
     7
370
     0
100
AcDbText
 10
1592.494675053515
 20
305.1828985739121
 30
0.0
 40
9.079585075378418
  1
objektgebunden anzupassen, abzustimmen und gegebenfalls zu ergänzen.
 41
0.9123924215372422
  7
Style0
100
AcDbText
  0
TEXT
  5
276
330
A3
100
AcDbEntity
  8
0 - Systemaufbauten
  6
Continuous
 62
     7
370
     0
100
AcDbText
 10
1592.494675053515
 20
286.009888193289
 30
0.0
 40
9.079585075378418
  1
Die empfohlenen Anwendungsbereiche sind auf Grund der Erfahrungen und Normen ausgearbeitet.
 41
0.9124509843910388
  7
Style0
100
AcDbText
  0
TEXT
  5
277
330
A3
100
AcDbEntity
  8
0 - Systemaufbauten
  6
Continuous
 62
     7
370
     0
100
AcDbText
 10
1592.494675053515
 20
266.8368778126651
 30
0.0
 40
9.079585075378418
  1
Eine Verbindlichkeit kann hieraus nicht abgeleitet werden. Technische Änderungen sind vorbehalten.
 41
0.8551696102436678
  7
Style0
100
AcDbText
  0
TEXT
  5
278
330
A3
100
AcDbEntity
  8
0 - Systemaufbauten
  6
Continuous
 62
     7
370
     0
100
AcDbText
 10
1592.494675053515
 20
247.663867432042
 30
0.0
 40
9.079585075378418
  1
Die vorliegende Detailzeichnung verliert bei Erscheinen einer Neuausgabe ihre Gültigkeit.
 41
0.8332855365681433
  7
Style0
100
AcDbText
  0
TEXT
  5
279
330
A3
100
AcDbEntity
  8
0 - Systemaufbauten
  6
Continuous
 62
     7
370
     0
100
AcDbText
 10
1592.494675053515
 20
228.4908570514208
 30
0.0
 40
9.079585075378418
  1
Jede Haftung von COVERiT bei leichter Fahrlässigkeit sowie für Beratung ohne nachfolgende Warenlieferung
 41
0.8747626777695675
  7
Style0
100
AcDbText
  0
TEXT
  5
27A
330
A3
100
AcDbEntity
  8
0 - Systemaufbauten
  6
Continuous
 62
     7
370
     0
100
AcDbText
 10
1592.494675053515
 20
209.3178466707968
 30
0.0
 40
9.079585075378418
  1
von COVERiT und gegenüber Dritten (andere als COVERiT-Vertragspartner) ist ausgeschlossen.
 41
0.8853418449037859
  7
Style0
100
AcDbText
  0
TEXT
  5
27B
330
A3
100
AcDbEntity
  8
0 - Systemaufbauten
  6
Continuous
 62
     7
370
     0
100
AcDbText
 10
1592.494675053515
 20
190.1448362901738
 30
0.0
 40
9.079585075378418
  1
Verkauf und Lieferung von COVERiT erfolgt ausschließlich zu den allgemeinen Liefer-, Zahlungs- und Gewährleistungsbedingungen von COVERiT.
 41
0.7222222222222222
  7
Style0
100
AcDbText
  0
TEXT
  5
27C
330
A3
100
AcDbEntity
  8
0 - Systemaufbauten
  6
Continuous
 62
     7
370
     0
100
AcDbText
 10
1592.494675053515
 20
170.9718259095516
 30
0.0
 40
9.079585075378418
  1
Es gilt österreichisches Recht (ohne UN Kaufrecht). Gerichtsstand ist Wels.
 41
0.8506157414920329
  7
Style0
100
AcDbText
  0
TEXT
  5
27D
330
A3
100
AcDbEntity
  8
0 - Systemaufbauten
  6
Continuous
 62
     7
370
     0
100
AcDbText
 10
1591.220070422536
 20
60.26144366197332
 30
0.0
 40
31.7785472869873
  1
1:1
 41
0.6016886835724486
  7
Style0
100
AcDbText
  0
TEXT
  5
27E
330
A3
100
AcDbEntity
  8
0 - Systemaufbauten
  6
Continuous
 62
     7
370
     0
100
AcDbText
 10
1861.220070422536
 20
60.26144366197332
 30
0.0
 40
31.7785472869873
  1
07/15
 41
0.990207449084411
  7
Style0
100
AcDbText
  0
TEXT
  5
27F
330
A3
100
AcDbEntity
  8
0 - Systemaufbauten
  6
Continuous
 62
     7
370
     0
100
AcDbText
 10
2131.220070422536
 20
60.26144366197332
 30
0.0
 40
31.7785472869873
  1
09
 41
0.8509596322171366
  7
Style0
100
AcDbText
  0
TEXT
  5
280
330
A3
100
AcDbEntity
  8
0 - Systemaufbauten
  6
Continuous
 62
     7
370
     0
100
AcDbText
 10
2401.220070422536
 20
60.26144366197332
 30
0.0
 40
31.7785472869873
  1
09
 41
0.8509596322171366
  7
Style0
100
AcDbText
  0
TEXT
  5
281
330
A3
100
AcDbEntity
  8
0 - Systemaufbauten
  6
Continuous
 62
     7
370
     0
100
AcDbText
 10
2671.220070422534
 20
60.26144366197332
 30
0.0
 40
31.7785472869873
  1
TR/AP
 41
0.9695781525146926
  7
Style0
100
AcDbText
  0
LINE
  5
282
330
A3
100
AcDbEntity
  8
0 - Systemaufbauten
  6
Continuous
 62
     7
370
     0
100
AcDbLine
 10
2446.021832237775
 20
350.2614436619715
 30
0.0
 11
2446.021832237775
 21
150.2614436619715
 31
0.0
  0
LINE
  5
283
330
A3
100
AcDbEntity
  8
0 - Systemaufbauten
  6
Continuous
 62
     7
370
     0
100
AcDbLine
 10
433.736490381365
 20
755.9285351235922
 30
0.0
 11
433.736490381365
 21
745.9285351235922
 31
0.0
  0
LINE
  5
284
330
A3
100
AcDbEntity
  8
0 - Systemaufbauten
  6
Continuous
 62
     7
370
     0
100
AcDbLine
 10
533.736490381365
 20
755.9285351235922
 30
0.0
 11
533.736490381365
 21
745.9285351235922
 31
0.0
  0
LINE
  5
285
330
A3
100
AcDbEntity
  8
0 - Systemaufbauten
  6
Continuous
 62
     7
370
     0
100
AcDbLine
 10
633.736490381365
 20
755.9285351235922
 30
0.0
 11
633.736490381365
 21
745.9285351235922
 31
0.0
  0
LINE
  5
286
330
A3
100
AcDbEntity
  8
0 - Systemaufbauten
  6
Continuous
 62
     7
370
     0
100
AcDbLine
 10
733.736490381365
 20
755.9285351235922
 30
0.0
 11
733.736490381365
 21
745.9285351235922
 31
0.0
  0
LINE
  5
287
330
A3
100
AcDbEntity
  8
0 - Systemaufbauten
  6
Continuous
 62
     7
370
     0
100
AcDbLine
 10
833.736490381365
 20
755.9285351235922
 30
0.0
 11
833.736490381365
 21
745.9285351235922
 31
0.0
  0
LINE
  5
288
330
A3
100
AcDbEntity
  8
0 - Systemaufbauten
  6
Continuous
 62
     7
370
     0
100
AcDbLine
 10
933.736490381365
 20
755.9285351235922
 30
0.0
 11
933.736490381365
 21
745.9285351235922
 31
0.0
  0
LINE
  5
289
330
A3
100
AcDbEntity
  8
0 - Systemaufbauten
  6
Continuous
 62
     7
370
     0
100
AcDbLine
 10
1033.736490381365
 20
755.9285351235922
 30
0.0
 11
1033.736490381365
 21
745.9285351235922
 31
0.0
  0
LINE
  5
28A
330
A3
100
AcDbEntity
  8
0 - Systemaufbauten
  6
Continuous
 62
     7
370
     0
100
AcDbLine
 10
1133.736490381365
 20
755.9285351235922
 30
0.0
 11
1133.736490381365
 21
745.9285351235922
 31
0.0
  0
LINE
  5
28B
330
A3
100
AcDbEntity
  8
0 - Systemaufbauten
  6
Continuous
 62
     7
370
     0
100
AcDbLine
 10
1233.736490381365
 20
755.9285351235922
 30
0.0
 11
1233.736490381365
 21
745.9285351235922
 31
0.0
  0
LINE
  5
28C
330
A3
100
AcDbEntity
  8
0 - Systemaufbauten
  6
Continuous
 62
     7
370
     0
100
AcDbLine
 10
1333.736490381365
 20
755.9285351235922
 30
0.0
 11
1333.736490381365
 21
745.9285351235922
 31
0.0
  0
LINE
  5
28D
330
A3
100
AcDbEntity
  8
0 - Systemaufbauten
  6
Continuous
 62
     7
370
     0
100
AcDbLine
 10
1433.736490381365
 20
755.9285351235922
 30
0.0
 11
1433.736490381365
 21
745.9285351235922
 31
0.0
  0
LINE
  5
28E
330
A3
100
AcDbEntity
  8
0 - Systemaufbauten
  6
Continuous
 62
     7
370
     0
100
AcDbLine
 10
1533.736490381365
 20
755.9285351235922
 30
0.0
 11
1533.736490381365
 21
745.9285351235922
 31
0.0
  0
LINE
  5
28F
330
A3
100
AcDbEntity
  8
0 - Systemaufbauten
  6
Continuous
 62
     7
370
     0
100
AcDbLine
 10
1633.736490381365
 20
755.9285351235922
 30
0.0
 11
1633.736490381365
 21
745.9285351235922
 31
0.0
  0
LINE
  5
290
330
A3
100
AcDbEntity
  8
0 - Systemaufbauten
  6
Continuous
 62
     7
370
     0
100
AcDbLine
 10
1733.736490381365
 20
755.9285351235922
 30
0.0
 11
1733.736490381365
 21
745.9285351235922
 31
0.0
  0
LINE
  5
291
330
A3
100
AcDbEntity
  8
0 - Systemaufbauten
  6
Continuous
 62
     7
370
     0
100
AcDbLine
 10
404.2364903813559
 20
595.9285351235922
 30
0.0
 11
464.2364903813559
 21
745.9285351235922
 31
0.0
  0
LINE
  5
292
330
A3
100
AcDbEntity
  8
0 - Systemaufbauten
  6
Continuous
 62
     7
370
     0
100
AcDbLine
 10
863.2364903813559
 20
745.9285351235922
 30
0.0
 11
923.2364903813559
 21
595.9285351235922
 31
0.0
  0
LINE
  5
293
330
A3
100
AcDbEntity
  8
0 - Systemaufbauten
  6
Continuous
 62
     7
370
     0
100
AcDbLine
 10
964.236490381365
 20
595.9285351235922
 30
0.0
 11
1024.236490381365
 21
745.9285351235922
 31
0.0
  0
LINE
  5
294
330
A3
100
AcDbEntity
  8
0 - Systemaufbauten
  6
Continuous
 62
     7
370
     0
100
AcDbLine
 10
1143.236490381365
 20
745.9285351235922
 30
0.0
 11
1203.236490381365
 21
595.9285351235922
 31
0.0
  0
LINE
  5
295
330
A3
100
AcDbEntity
  8
0 - Systemaufbauten
  6
Continuous
 62
     7
370
     0
100
AcDbLine
 10
1244.236490381367
 20
595.9285351235922
 30
0.0
 11
1304.236490381365
 21
745.9285351235922
 31
0.0
  0
LINE
  5
296
330
A3
100
AcDbEntity
  8
0 - Systemaufbauten
  6
Continuous
 62
     7
370
     0
100
AcDbLine
 10
1423.236490381365
 20
745.9285351235922
 30
0.0
 11
1483.236490381367
 21
595.9285351235922
 31
0.0
  0
LINE
  5
297
330
A3
100
AcDbEntity
  8
0 - Systemaufbauten
  6
Continuous
 62
     7
370
     0
100
AcDbLine
 10
1524.236490381365
 20
595.9285351235922
 30
0.0
 11
1584.236490381365
 21
745.9285351235922
 31
0.0
  0
LINE
  5
298
330
A3
100
AcDbEntity
  8
0 - Systemaufbauten
  6
Continuous
 62
     7
370
     0
100
AcDbLine
 10
1703.236490381365
 20
745.9285351235922
 30
0.0
 11
1763.236490381367
 21
595.9285351235922
 31
0.0
  0
LINE
  5
299
330
A3
100
AcDbEntity
  8
0 - Systemaufbauten
  6
Continuous
 62
     7
370
     0
100
AcDbLine
 10
583.2364903813559
 20
745.9285351235922
 30
0.0
 11
643.2364903813559
 21
595.9285351235922
 31
0.0
  0
LINE
  5
29A
330
A3
100
AcDbEntity
  8
0 - Systemaufbauten
  6
Continuous
 62
     7
370
     0
100
AcDbLine
 10
684.236490381365
 20
595.9285351235922
 30
0.0
 11
744.2364903813559
 21
745.9285351235922
 31
0.0
  0
LINE
  5
29B
330
A3
100
AcDbEntity
  8
0 - Systemaufbauten
  6
Continuous
 62
     7
370
     0
100
AcDbLine
 10
333.736490381365
 20
669.6785351235685
 30
0.0
 11
363.2364903813559
 21
595.9285351235922
 31
0.0
  0
LINE
  5
29C
330
A3
100
AcDbEntity
  8
0 - Systemaufbauten
  6
Continuous
 62
     7
370
     0
100
AcDbLine
 10
1804.236490381365
 20
595.9285351235922
 30
0.0
 11
1833.736490381365
 21
669.6785351235894
 31
0.0
  0
LINE
  5
29D
330
A3
100
AcDbEntity
  8
0 - Systemaufbauten
  6
Continuous
 62
     7
370
     0
100
AcDbLine
 10
363.2364903813559
 20
595.9285351235922
 30
0.0
 11
404.2364903813559
 21
595.9285351235922
 31
0.0
  0
LINE
  5
29E
330
A3
100
AcDbEntity
  8
0 - Systemaufbauten
  6
Continuous
 62
     7
370
     0
100
AcDbLine
 10
643.2364903813559
 20
595.9285351235922
 30
0.0
 11
684.236490381365
 21
595.9285351235922
 31
0.0
  0
LINE
  5
29F
330
A3
100
AcDbEntity
  8
0 - Systemaufbauten
  6
Continuous
 62
     7
370
     0
100
AcDbLine
 10
923.2364903813559
 20
595.9285351235922
 30
0.0
 11
964.236490381365
 21
595.9285351235922
 31
0.0
  0
LINE
  5
2A0
330
A3
100
AcDbEntity
  8
0 - Systemaufbauten
  6
Continuous
 62
     7
370
     0
100
AcDbLine
 10
1203.236490381365
 20
595.9285351235922
 30
0.0
 11
1244.236490381367
 21
595.9285351235922
 31
0.0
  0
LINE
  5
2A1
330
A3
100
AcDbEntity
  8
0 - Systemaufbauten
  6
Continuous
 62
     7
370
     0
100
AcDbLine
 10
1483.236490381367
 20
595.9285351235922
 30
0.0
 11
1524.236490381365
 21
595.9285351235922
 31
0.0
  0
LINE
  5
2A2
330
A3
100
AcDbEntity
  8
0 - Systemaufbauten
  6
Continuous
 62
     7
370
     0
100
AcDbLine
 10
1763.236490381367
 20
595.9285351235922
 30
0.0
 11
1804.236490381365
 21
595.9285351235922
 31
0.0
  0
LWPOLYLINE
  5
2A3
330
A3
100
AcDbEntity
  8
0 - Systemaufbauten
  6
Continuous
 62
     7
370
     0
100
AcDbPolyline
 90
        4
 70
     0
 43
0.0
 10
1063.736490381365
 20
1055.928535123593
 10
1063.736490381365
 20
1054.928535123593
 10
1103.736490381367
 20
1054.928535123593
 10
1103.736490381367
 20
1055.928535123593
  0
LINE
  5
2A4
330
A3
100
AcDbEntity
  8
0 - Systemaufbauten
  6
Continuous
 62
     7
370
     0
100
AcDbLine
 10
1123.736490381365
 20
1055.928535123593
 30
0.0
 11
1123.736490381365
 21
1045.928535123592
 31
0.0
  0
LINE
  5
2A5
330
A3
100
AcDbEntity
  8
0 - Systemaufbauten
  6
Continuous
 62
     7
370
     0
100
AcDbLine
 10
333.736490381365
 20
1055.928535123593
 30
0.0
 11
1123.736490381365
 21
1055.928535123593
 31
0.0
  0
LINE
  5
2A6
330
A3
100
AcDbEntity
  8
0 - Systemaufbauten
  6
Continuous
 62
     7
370
     0
100
AcDbLine
 10
1123.736490381365
 20
1055.928535123593
 30
0.0
 11
1128.736486612095
 21
1055.928535123593
 31
0.0
  0
ARC
  5
2A7
330
A3
100
AcDbEntity
  8
0 - Systemaufbauten
  6
Continuous
 62
     7
370
     0
100
AcDbCircle
 10
1128.736490381367
 20
1050.928535123594
 30
0.0
 40
5.00000000000114
100
AcDbArc
 50
0.0
 51
90.0000431926206
  0
ARC
  5
2A8
330
A3
100
AcDbEntity
  8
0 - Systemaufbauten
  6
Continuous
 62
     7
370
     0
100
AcDbCircle
 10
1138.736490381365
 20
1050.928535123594
 30
0.0
 40
5.00000000000114
100
AcDbArc
 50
180.0
 51
270.0000305417929
  0
ARC
  5
2A9
330
A3
100
AcDbEntity
  8
0 - Systemaufbauten
  6
Continuous
 62
     7
370
     0
100
AcDbCircle
 10
1138.736490381365
 20
1060.928535123592
 30
0.0
 40
5.00000000000114
100
AcDbArc
 50
0.0
 51
90.0000431926206
  0
ARC
  5
2AA
330
A3
100
AcDbEntity
  8
0 - Systemaufbauten
  6
Continuous
 62
     7
370
     0
100
AcDbCircle
 10
1148.736490381365
 20
1060.928535123592
 30
0.0
 40
5.00000000000114
100
AcDbArc
 50
180.0
 51
270.0000305417929
  0
LINE
  5
2AB
330
A3
100
AcDbEntity
  8
0 - Systemaufbauten
  6
Continuous
 62
     7
370
     0
100
AcDbLine
 10
1148.736487716094
 20
1055.928535123593
 30
0.0
 11
1833.736490381365
 21
1055.928535123593
 31
0.0
  0
LINE
  5
2AC
330
A3
100
AcDbEntity
  8
0 - Systemaufbauten
  6
Continuous
 62
     7
370
     0
100
AcDbLine
 10
1028.736494150637
 20
1065.928535123593
 30
0.0
 11
1028.736494150637
 21
1055.928535123593
 31
0.0
  0
LINE
  5
2AD
330
A3
100
AcDbEntity
  8
0 - Systemaufbauten
  6
Continuous
 62
     7
370
     0
100
AcDbLine
 10
1028.736494150637
 20
1065.928535123593
 30
0.0
 11
1138.736486612095
 21
1065.928535123593
 31
0.0
  0
LINE
  5
2AE
330
A3
100
AcDbEntity
  8
0 - Systemaufbauten
  6
Continuous
 62
     7
370
     0
100
AcDbLine
 10
333.736490381365
 20
1045.928535123592
 30
0.0
 11
1081.236490381365
 21
1045.928535123592
 31
0.0
  0
LINE
  5
2AF
330
A3
100
AcDbEntity
  8
0 - Systemaufbauten
  6
Continuous
 62
     7
370
     0
100
AcDbLine
 10
1086.236490381365
 20
1045.928535123592
 30
0.0
 11
1833.736490381365
 21
1045.928535123592
 31
0.0
  0
LINE
  5
2B0
330
A3
100
AcDbEntity
  8
0 - Systemaufbauten
  6
Continuous
 62
     7
370
     0
100
AcDbLine
 10
333.736490381365
 20
1035.928535123592
 30
0.0
 11
1081.236490381365
 21
1035.928535123592
 31
0.0
  0
LINE
  5
2B1
330
A3
100
AcDbEntity
  8
0 - Systemaufbauten
  6
Continuous
 62
     7
370
     0
100
AcDbLine
 10
1086.236490381365
 20
1035.928535123592
 30
0.0
 11
1833.736490381365
 21
1035.928535123592
 31
0.0
  0
LINE
  5
2B2
330
A3
100
AcDbEntity
  8
0 - Systemaufbauten
  6
Continuous
 62
     7
370
     0
100
AcDbLine
 10
333.736490381365
 20
895.9285351235922
 30
0.0
 11
1081.236490381365
 21
895.9285351235922
 31
0.0
  0
LINE
  5
2B3
330
A3
100
AcDbEntity
  8
0 - Systemaufbauten
  6
Continuous
 62
     7
370
     0
100
AcDbLine
 10
1086.236490381365
 20
895.9285351235922
 30
0.0
 11
1833.736490381365
 21
895.9285351235922
 31
0.0
  0
LINE
  5
2B4
330
A3
100
AcDbEntity
  8
0 - Systemaufbauten
  6
Continuous
 62
     7
370
     0
100
AcDbLine
 10
1081.236490381365
 20
1054.928535123593
 30
0.0
 11
1081.236490381365
 21
875.9285351235931
 31
0.0
  0
LINE
  5
2B5
330
A3
100
AcDbEntity
  8
0 - Systemaufbauten
  6
Continuous
 62
     7
370
     0
100
AcDbLine
 10
1086.236490381365
 20
875.9285351235931
 30
0.0
 11
1086.236490381365
 21
1054.928535123593
 31
0.0
  0
LINE
  5
2B6
330
A3
100
AcDbEntity
  8
0 - Systemaufbauten
  6
Continuous
 62
     7
370
     0
100
AcDbLine
 10
1081.236490381365
 20
875.9285351235931
 30
0.0
 11
1086.236490381365
 21
875.9285351235931
 31
0.0
  0
LINE
  5
2B7
330
A3
100
AcDbEntity
  8
0 - Systemaufbauten
  6
Continuous
 62
     7
370
     0
100
AcDbLine
 10
1083.236490381367
 20
735.9285351235922
 30
0.0
 11
1083.236490381367
 21
875.9285351235931
 31
0.0
  0
LINE
  5
2B8
330
A3
100
AcDbEntity
  8
0 - Systemaufbauten
  6
Continuous
 62
     7
370
     0
100
AcDbLine
 10
1084.236490381365
 20
735.9285351235922
 30
0.0
 11
1084.236490381365
 21
875.9285351235931
 31
0.0
  0
LINE
  5
2B9
330
A3
100
AcDbEntity
  8
0 - Systemaufbauten
  6
Continuous
 62
     7
370
     0
100
AcDbLine
 10
1083.236490381367
 20
735.9285351235922
 30
0.0
 11
1084.236490381365
 21
735.9285351235922
 31
0.0
  0
LINE
  5
2BA
330
A3
100
AcDbEntity
  8
0 - Systemaufbauten
  6
Continuous
 62
     7
370
     0
100
AcDbLine
 10
333.736490381365
 20
745.9285351235922
 30
0.0
 11
1083.236490381367
 21
745.9285351235922
 31
0.0
  0
LINE
  5
2BB
330
A3
100
AcDbEntity
  8
0 - Systemaufbauten
  6
Continuous
 62
     7
370
     0
100
AcDbLine
 10
1084.236490381365
 20
745.9285351235922
 30
0.0
 11
1833.736490381365
 21
745.9285351235922
 31
0.0
  0
LINE
  5
2BC
330
A3
100
AcDbEntity
  8
0 - Systemaufbauten
  6
Continuous
 62
     7
370
     0
100
AcDbLine
 10
333.736490381365
 20
755.9285351235922
 30
0.0
 11
1083.236490381367
 21
755.9285351235922
 31
0.0
  0
LINE
  5
2BD
330
A3
100
AcDbEntity
  8
0 - Systemaufbauten
  6
Continuous
 62
     7
370
     0
100
AcDbLine
 10
1084.236490381365
 20
755.9285351235922
 30
0.0
 11
1833.736490381365
 21
755.9285351235922
 31
0.0
  0
LINE
  5
2BE
330
A3
100
AcDbEntity
  8
0 - Systemaufbauten
  6
Continuous
 62
     7
370
     0
100
AcDbLine
 10
1501.846944224657
 20
1013.852695246166
 30
0.0
 11
1501.846944224657
 21
1861.999935712787
 31
0.0
  0
TEXT
  5
2BF
330
A3
100
AcDbEntity
  8
0 - Systemaufbauten
  6
Continuous
 62
     7
370
     0
100
AcDbText
 10
1500.367764839204
 20
1630.183821048893
 30
0.0
 40
31.7785472869873
  1
- Stahltrapezblech
 41
0.7222222222222222
  7
Style0
100
AcDbText
  0
TEXT
  5
2C0
330
A3
100
AcDbEntity
  8
0 - Systemaufbauten
  6
Continuous
 62
     7
370
     0
100
AcDbText
 10
1500.367764839204
 20
1684.789357381074
 30
0.0
 40
31.7785472869873
  1
- Dampfsperre (*3)
 41
0.7222222222222222
  7
Style0
100
AcDbText
  0
TEXT
  5
2C1
330
A3
100
AcDbEntity
  8
0 - Systemaufbauten
  6
Continuous
 62
     7
370
     0
100
AcDbText
 10
1500.367764839204
 20
1739.394893713253
 30
0.0
 40
31.7785472869873
  1
- Wärmedämmung (*2)
 41
0.7222222222222222
  7
Style0
100
AcDbText
  0
TEXT
  5
2C2
330
A3
100
AcDbEntity
  8
0 - Systemaufbauten
  6
Continuous
 62
     7
370
     0
100
AcDbText
 10
1500.367764839204
 20
1794.000430045434
 30
0.0
 40
31.7785472869873
  1
- Brandschutzlage (*1)
 41
0.7222222222222222
  7
Style0
100
AcDbText
  0
TEXT
  5
2C3
330
A3
100
AcDbEntity
  8
0 - Systemaufbauten
  6
Continuous
 62
    30
370
     0
100
AcDbText
 10
1500.367764839204
 20
1848.605966377612
 30
0.0
 40
31.7785472869873
  1
  oder dickvlieskaschiert 1,3 mm
 41
0.7222222222222222
  7
Style0
100
AcDbText
  0
TEXT
  5
2C4
330
A3
100
AcDbEntity
  8
0 - Systemaufbauten
  6
Continuous
 62
     7
370
     0
100
AcDbText
 10
330.7391853955069
 20
469.1573611312615
 30
0.0
 40
31.7785472869873
  1
(*1) Anforderung für Broof(t1),
 41
0.7222222222222222
  7
Style0
100
AcDbText
  0
TEXT
  5
2C5
330
A3
100
AcDbEntity
  8
0 - Systemaufbauten
  6
Continuous
 62
     7
370
     0
100
AcDbText
 10
330.7391853955069
 20
414.5518247990822
 30
0.0
 40
31.7785472869873
  1
Glasvlies A2 120 g erforderlich
 41
0.7222222222222222
  7
Style0
100
AcDbText
  0
TEXT
  5
2C6
330
A3
100
AcDbEntity
  8
0 - Systemaufbauten
  6
Continuous
 62
     7
370
     0
100
AcDbText
 10
330.7391853955069
 20
359.946288466901
 30
0.0
 40
31.7785472869873
  1
(*2) Wärmedämmung entsprechend druckfest,
 41
0.7222222222222222
  7
Style0
100
AcDbText
  0
TEXT
  5
2C7
330
A3
100
AcDbEntity
  8
0 - Systemaufbauten
  6
Continuous
 62
     7
370
     0
100
AcDbText
 10
330.7391853955069
 20
305.3407521347226
 30
0.0
 40
31.7785472869873
  1
2- lagig lt. ÖNORM B 3691
 41
0.7222222222222222
  7
Style0
100
AcDbText
  0
TEXT
  5
2C8
330
A3
100
AcDbEntity
  8
0 - Systemaufbauten
  6
Continuous
 62
     7
370
     0
100
AcDbText
 10
1591.514159237366
 20
420.5541383479003
 30
0.0
 40
31.7785472869873
  1
Warmdach - Stahltrapezblech
 41
0.7222222222222222
  7
Style0
100
AcDbText
  0
TEXT
  5
2C9
330
A3
100
AcDbEntity
  8
0 - Systemaufbauten
  6
Continuous
 62
     7
370
     0
100
AcDbText
 10
1591.514159237366
 20
365.948602015721
 30
0.0
 40
31.7785472869873
  1
verdeckt mechanisch befestigt
 41
0.7222222222222222
  7
Style0
100
AcDbText
  0
TEXT
  5
2CA
330
A3
100
AcDbEntity
  8
0 - Systemaufbauten
  6
Continuous
 62
    30
370
     0
100
AcDbText
 10
1500.367764839204
 20
1902.936081937681
 30
0.0
 40
31.7785472869873
  1
- COVERiT NOVOtan EPDM Rollenware vlieskaschiert 1,3/ 1,5 mm
 41
0.7222222222222222
  7
Style0
100
AcDbText
  0
LINE
  5
2CB
330
A3
100
AcDbEntity
  8
0 - Systemaufbauten
  6
Continuous
 62
     7
370
     0
100
AcDbLine
 10
1501.846944224657
 20
1861.999935712787
 30
0.0
 11
1501.846944224657
 21
1916.710811371019
 31
0.0
  0
TEXT
  5
2CC
330
A3
100
AcDbEntity
  8
0 - Systemaufbauten
  6
Continuous
 62
     7
370
     0
100
AcDbText
 10
333.736490381365
 20
253.1051159586123
 30
0.0
 40
31.7785472869873
  1
(*3) Ohne vorhandene bauphysikalische
 41
0.7222222222222222
  7
Style0
100
AcDbText
  0
TEXT
  5
2CD
330
A3
100
AcDbEntity
  8
0 - Systemaufbauten
  6
Continuous
 62
     7
370
     0
100
AcDbText
 10
333.736490381365
 20
198.4995796264329
 30
0.0
 40
31.7785472869873
  1
Berechnung, Dampfsperre >1000m sd-Wert
 41
0.7222222222222222
  7
Style0
100
AcDbText
  0
TEXT
  5
2CE
330
A3
100
AcDbEntity
  8
0 - Systemaufbauten
  6
Continuous
 62
     7
370
     0
100
AcDbText
 10
333.736490381365
 20
143.8940432942527
 30
0.0
 40
31.7785472869873
  1
lt. ÖNORM B 3691 erforderlich
 41
0.7222222222222222
  7
Style0
100
AcDbText
  0
LINE
  5
2CF
330
A3
100
AcDbEntity
  8
0 - Systemaufbauten
  6
Continuous
 62
     7
370
     0
100
AcDbLine
 10
1501.846944224657
 20
1013.852695246166
 30
0.0
 11
1501.846944224657
 21
545.9285351235922
 31
0.0
  0
IMAGE
  5
2D0
330
A3
100
AcDbEntity
  8
00_Allgemein - Systemaufbauten
  6
Continuous
 62
     7
370
     0
 92
      140
310
8C00000001000000840000000600000005000000D8F2567DD531A34060DF18AE5AD165400000000000000000D8F2565DA6BCA64060DF18AE5AD165400000000000000000D8F2565DA6BCA640B06F0C67B05F74400000000000000000D8F2567DD531A340B06F0C67B05F74400000000000000000D8F2567DD531A34060DF18
310
AE5AD165400000000000000000
100
AcDbRasterImage
 90
        0
 10
2456.916971890587
 20
174.5423193441193
 30
0.0
 11
0.2876954054469384
 21
0.0
 31
0.0
 12
0.0
 22
0.2873591037583758
 32
0.0
 13
1576.0
 23
527.0
340
A2
 70
     3
280
     0
281
    50
282
    50
283
     0
360
0
 71
     1
 91
        2
 14
-0.5
 24
-0.5
 14
1575.5
 24
526.5
  0
HATCH
  5
2D1
330
A3
100
AcDbEntity
  8
0 - Systemaufbauten
  6
Continuous
 62
     7
370
     0
100
AcDbHatch
 10
0.0
 20
0.0
 30
0.0
210
0.0
220
0.0
230
1.0
  2
SOLID
 70
     1
 71
     0
 91
        1
 92
        0
 93
        4
 72
     1
 10
333.736490381365
 20
755.9285351235922
 11
433.736490381365
 21
755.9285351235922
 72
     1
 10
433.736490381365
 20
755.9285351235922
 11
433.736490381365
 21
745.9285351235922
 72
     1
 10
433.736490381365
 20
745.9285351235922
 11
333.736490381365
 21
745.9285351235922
 72
     1
 10
333.736490381365
 20
745.9285351235922
 11
333.736490381365
 21
755.9285351235922
 97
        0
 75
     0
 76
     1
 98
        0
  0
ENDBLK
  5
2D4
330
A3
100
AcDbEntity
  8
0
100
AcDbBlockEnd
  0
ENDSEC
  0
SECTION
  2
ENTITIES
  0
IMAGE
  5
9F
330
1F
100
AcDbEntity
  8
00_Allgemein - Systemaufbauten
  6
Continuous
 62
     7
370
     0
 92
      140
310
8C00000001000000840000000600000005000000D8F2567DD531A34060DF18AE5AD165400000000000000000D8F2565DA6BCA64060DF18AE5AD165400000000000000000D8F2565DA6BCA640B06F0C67B05F74400000000000000000D8F2567DD531A340B06F0C67B05F74400000000000000000D8F2567DD531A34060DF18
310
AE5AD165400000000000000000
100
AcDbRasterImage
 90
        0
 10
2456.916971890587
 20
174.5423193441193
 30
0.0
 11
0.2876954054469384
 21
0.0
 31
0.0
 12
0.0
 22
0.2873591037583758
 32
0.0
 13
1576.0
 23
527.0
340
9E
 70
     3
280
     0
281
    50
282
    50
283
     0
360
A0
 71
     1
 91
        2
 14
-0.5
 24
-0.5
 14
1575.5
 24
526.5
  0
INSERT
  5
2D2
330
1F
100
AcDbEntity
  8
00_Allgemein - Systemaufbauten
  6
Continuous
 62
     7
370
     0
100
AcDbBlockReference
  2
dokument systemaufbauten.asc(id_1)
 10
0.0
 20
0.0
 30
0.0
  0
ENDSEC
  0
SECTION
  2
OBJECTS
  0
DICTIONARY
  5
C
330
0
100
AcDbDictionary
281
     1
  3
ACAD_DETAILVIEWSTYLE
350
31A
  3
ACAD_GROUP
350
D
  3
ACAD_IMAGE_DICT
350
9D
  3
ACAD_LAYOUT
350
1A
  3
ACAD_MATERIAL
350
43
  3
ACAD_MLEADERSTYLE
350
6B
  3
ACAD_MLINESTYLE
350
17
  3
ACAD_PLOTSETTINGS
350
19
  3
ACAD_PLOTSTYLENAME
350
E
  3
ACAD_SCALELIST
350
47
  3
ACAD_SECTIONVIEWSTYLE
350
31B
  3
ACAD_TABLESTYLE
350
69
  3
ACAD_VISUALSTYLE
350
2A
  3
ACDB_RECOMPOSE_DATA
350
317
  3
AcDbVariableDictionary
350
2D7
  0
DICTIONARY
  5
2D5
330
8
100
AcDbDictionary
280
     1
281
     1
  3
ACAD_XREC_ROUNDTRIP
360
2D6
  0
IMAGEDEF_REACTOR
  5
A0
330
9F
100
AcDbRasterImageDefReactor
 90
        2
330
9F
  0
DICTIONARY
  5
31A
102
{ACAD_REACTORS
330
C
102
}
330
C
100
AcDbDictionary
281
     1
  0
DICTIONARY
  5
D
102
{ACAD_REACTORS
330
C
102
}
330
C
100
AcDbDictionary
281
     1
  0
DICTIONARY
  5
9D
102
{ACAD_REACTORS
330
C
102
}
330
C
100
AcDbDictionary
281
     1
  3
Image0
350
9E
  3
Image1
350
A2
  0
DICTIONARY
  5
1A
102
{ACAD_REACTORS
330
C
102
}
330
C
100
AcDbDictionary
281
     1
  3
Layout1
350
1E
  3
Layout2
350
26
  3
Model
350
22
  0
DICTIONARY
  5
43
102
{ACAD_REACTORS
330
C
102
}
330
C
100
AcDbDictionary
281
     1
  3
ByBlock
350
45
  3
ByLayer
350
44
  3
Global
350
46
  0
DICTIONARY
  5
6B
102
{ACAD_REACTORS
330
C
102
}
330
C
100
AcDbDictionary
281
     1
  3
Standard
350
6C
  0
DICTIONARY
  5
17
102
{ACAD_REACTORS
330
C
102
}
330
C
100
AcDbDictionary
281
     1
  3
Standard
350
18
  0
DICTIONARY
  5
19
102
{ACAD_REACTORS
330
C
102
}
330
C
100
AcDbDictionary
281
     1
  0
ACDBDICTIONARYWDFLT
  5
E
102
{ACAD_REACTORS
330
C
102
}
330
C
100
AcDbDictionary
281
     1
  3
Normal
350
F
100
AcDbDictionaryWithDefault
340
F
  0
DICTIONARY
  5
47
102
{ACAD_REACTORS
330
C
102
}
330
C
100
AcDbDictionary
281
     1
  3
A0
350
48
  3
A1
350
49
  3
A2
350
4A
  3
A3
350
4B
  3
A4
350
4C
  3
A5
350
4D
  3
A6
350
4E
  3
A7
350
4F
  3
A8
350
50
  3
A9
350
51
  3
B0
350
52
  3
B1
350
53
  3
B2
350
54
  3
B3
350
55
  3
B4
350
56
  3
B5
350
57
  3
B6
350
58
  3
B7
350
59
  3
B8
350
5A
  3
B9
350
5B
  3
C0
350
5C
  3
C1
350
5D
  3
C2
350
5E
  3
C3
350
5F
  3
C4
350
60
  3
C5
350
61
  3
C6
350
62
  3
C7
350
63
  3
C8
350
64
  3
C9
350
65
  3
D0
350
66
  3
D1
350
67
  3
D2
350
68
  0
DICTIONARY
  5
31B
102
{ACAD_REACTORS
330
C
102
}
330
C
100
AcDbDictionary
281
     1
  0
DICTIONARY
  5
69
102
{ACAD_REACTORS
330
C
102
}
330
C
100
AcDbDictionary
281
     1
  3
Standard
350
6A
  0
DICTIONARY
  5
2A
102
{ACAD_REACTORS
330
C
102
}
330
C
100
AcDbDictionary
281
     1
  3
2dWireframe
350
2F
  3
Basic
350
32
  3
Brighten
350
36
  3
ColorChange
350
3A
  3
Conceptual
350
34
  3
Dim
350
35
  3
EdgeColorOff
350
3D
  3
Facepattern
350
39
  3
Flat
350
2B
  3
FlatWithEdges
350
2C
  3
Gouraud
350
2D
  3
GouraudWithEdges
350
2E
  3
Hidden
350
31
  3
JitterOff
350
3B
  3
Linepattern
350
38
  3
OverhangOff
350
3C
  3
Realistic
350
33
  3
Shaded
350
42
  3
Shaded with edges
350
41
  3
Shades of Gray
350
3E
  3
Sketchy
350
3F
  3
Thicken
350
37
  3
Wireframe
350
30
  3
X-Ray
350
40
  0
XRECORD
  5
317
102
{ACAD_REACTORS
330
C
102
}
330
C
100
AcDbXrecord
280
     1
 90
        1
330
6A
  0
DICTIONARY
  5
2D7
102
{ACAD_REACTORS
330
C
102
}
330
C
100
AcDbDictionary
281
     1
  3
CANNOSCALE
350
2D8
  3
CMLEADERSTYLE
350
319
  3
CTABLESTYLE
350
318
  3
MSLTSCALE
350
2D9
  3
XCLIPFRAME
350
2DA
  0
XRECORD
  5
2D6
102
{ACAD_REACTORS
330
2D5
102
}
330
2D5
100
AcDbXrecord
280
     1
102
VTR_0.000_0.000_1.000_1.000_VISUALSTYLE
340
2F
102
VTR_0.000_0.000_1.000_1.000_GRIDDISPLAY
 70
     3
102
VTR_0.000_0.000_1.000_1.000_GRIDMAJOR
 70
     5
102
VTR_0.000_0.000_1.000_1.000_DEFAULTLIGHTING
280
     1
102
VTR_0.000_0.000_1.000_1.000_DEFAULTLIGHTINGTYPE
 70
     1
102
VTR_0.000_0.000_1.000_1.000_BRIGHTNESS
141
0.0
102
VTR_0.000_0.000_1.000_1.000_CONTRAST
142
0.0
  0
IMAGEDEF
  5
9E
102
{ACAD_REACTORS
330
9D
330
A0
102
}
330
9D
100
AcDbRasterImageDef
 90
        0
  1
__ID8_Coverit+www.jpg
 10
1576.0
 20
527.0
 11
0.0006345177664974619
 21
0.0006345177664974619
280
     1
281
     1
  0
IMAGEDEF
  5
A2
102
{ACAD_REACTORS
330
9D
102
}
330
9D
100
AcDbRasterImageDef
 90
        0
  1
__ID8_Coverit+www.jpg
 10
1576.0
 20
527.0
 11
0.0006345177664974619
 21
0.0006345177664974619
280
     1
281
     1
  0
LAYOUT
  5
1E
102
{ACAD_REACTORS
330
1A
102
}
330
1A
100
AcDbPlotSettings
  1

  2
none_device
  4

  6

 40
0.0
 41
0.0
 42
0.0
 43
0.0
 44
0.0
 45
0.0
 46
0.0
 47
0.0
 48
0.0
 49
0.0
140
0.0
141
0.0
142
1.0
143
1.0
 70
   688
 72
     0
 73
     0
 74
     5
  7

 75
    16
 76
     0
 77
     2
 78
   300
147
1.0
148
0.0
149
0.0
100
AcDbLayout
  1
Layout1
 70
     1
 71
     1
 10
0.0
 20
0.0
 11
12.0
 21
9.0
 12
0.0
 22
0.0
 32
0.0
 14
1.000000000000000E+20
 24
1.000000000000000E+20
 34
1.000000000000000E+20
 15
-1.000000000000000E+20
 25
-1.000000000000000E+20
 35
-1.000000000000000E+20
146
0.0
 13
0.0
 23
0.0
 33
0.0
 16
1.0
 26
0.0
 36
0.0
 17
0.0
 27
1.0
 37
0.0
 76
     0
330
1B
  0
LAYOUT
  5
26
102
{ACAD_REACTORS
330
1A
102
}
330
1A
100
AcDbPlotSettings
  1

  2
none_device
  4

  6

 40
0.0
 41
0.0
 42
0.0
 43
0.0
 44
0.0
 45
0.0
 46
0.0
 47
0.0
 48
0.0
 49
0.0
140
0.0
141
0.0
142
1.0
143
1.0
 70
   688
 72
     0
 73
     0
 74
     5
  7

 75
    16
 76
     0
 77
     2
 78
   300
147
1.0
148
0.0
149
0.0
100
AcDbLayout
  1
Layout2
 70
     1
 71
     2
 10
0.0
 20
0.0
 11
0.0
 21
0.0
 12
0.0
 22
0.0
 32
0.0
 14
0.0
 24
0.0
 34
0.0
 15
0.0
 25
0.0
 35
0.0
146
0.0
 13
0.0
 23
0.0
 33
0.0
 16
1.0
 26
0.0
 36
0.0
 17
0.0
 27
1.0
 37
0.0
 76
     0
330
23
  0
LAYOUT
  5
22
102
{ACAD_REACTORS
330
1A
102
}
330
1A
100
AcDbPlotSettings
  1

  2
none_device
  4
Letter_(8.50_x_11.00_Inches)
  6

 40
6.35
 41
6.35
 42
6.35000508
 43
6.35000508
 44
215.9
 45
279.4
 46
0.0
 47
0.0
 48
0.0
 49
0.0
140
0.0
141
0.0
142
1.0
143
1.0
 70
  1712
 72
     0
 73
     0
 74
     0
  7

 75
     0
 76
     0
 77
     2
 78
   300
147
1.0
148
0.0
149
0.0
100
AcDbLayout
  1
Model
 70
     1
 71
     0
 10
0.0
 20
0.0
 11
12.0
 21
9.0
 12
0.0
 22
0.0
 32
0.0
 14
1.220070422536082
 24
0.2614436619714979
 34
0.0
 15
2971.220070422536
 25
2100.261443661971
 35
0.0
146
0.0
 13
0.0
 23
0.0
 33
0.0
 16
1.0
 26
0.0
 36
0.0
 17
0.0
 27
1.0
 37
0.0
 76
     0
330
1F
331
29
  0
MATERIAL
  5
45
102
{ACAD_REACTORS
330
43
102
}
102
{ACAD_XDICTIONARY
360
30D
102
}
330
43
100
AcDbMaterial
  1
ByBlock
  0
MATERIAL
  5
44
102
{ACAD_REACTORS
330
43
102
}
102
{ACAD_XDICTIONARY
360
30B
102
}
330
43
100
AcDbMaterial
  1
ByLayer
  0
MATERIAL
  5
46
102
{ACAD_REACTORS
330
43
102
}
102
{ACAD_XDICTIONARY
360
30F
102
}
330
43
100
AcDbMaterial
  1
Global
  0
MLEADERSTYLE
  5
6C
102
{ACAD_REACTORS
330
6B
102
}
102
{ACAD_XDICTIONARY
360
315
102
}
330
6B
100
AcDbMLeaderStyle
170
     2
171
     1
172
     0
 90
        2
 40
0.0
 41
0.0
173
     1
 91
-1056964608
340
14
 92
       -2
290
     1
 42
0.09
291
     1
 43
0.36
  3
Standard
341
0
 44
0.18
300

342
11
174
     1
178
     6
175
     1
176
     0
 93
-1056964608
 45
0.18
292
     0
297
     0
 46
0.18
343
0
 94
-1056964608
 47
1.0
 49
1.0
140
1.0
293
     1
141
0.0
294
     1
177
     0
142
1.0
295
     0
296
     0
143
0.125
1001
ACAD_MLEADERVER
1070
     2
  0
MLINESTYLE
  5
18
102
{ACAD_REACTORS
330
17
102
}
330
17
100
AcDbMlineStyle
  2
Standard
 70
     0
  3

 62
   256
 51
90.0
 52
90.0
 71
     2
 49
0.5
 62
   256
  6
BYLAYER
 49
-0.5
 62
   256
  6
BYLAYER
  0
ACDBPLACEHOLDER
  5
F
102
{ACAD_REACTORS
330
E
102
}
330
E
  0
SCALE
  5
48
102
{ACAD_REACTORS
330
47
102
}
330
47
100
AcDbScale
 70
     0
300
1:1
140
1.0
141
1.0
290
     1
  0
SCALE
  5
49
102
{ACAD_REACTORS
330
47
102
}
330
47
100
AcDbScale
 70
     0
300
1:2
140
1.0
141
2.0
290
     0
  0
SCALE
  5
4A
102
{ACAD_REACTORS
330
47
102
}
330
47
100
AcDbScale
 70
     0
300
1:4
140
1.0
141
4.0
290
     0
  0
SCALE
  5
4B
102
{ACAD_REACTORS
330
47
102
}
330
47
100
AcDbScale
 70
     0
300
1:5
140
1.0
141
5.0
290
     0
  0
SCALE
  5
4C
102
{ACAD_REACTORS
330
47
102
}
330
47
100
AcDbScale
 70
     0
300
1:8
140
1.0
141
8.0
290
     0
  0
SCALE
  5
4D
102
{ACAD_REACTORS
330
47
102
}
330
47
100
AcDbScale
 70
     0
300
1:10
140
1.0
141
10.0
290
     0
  0
SCALE
  5
4E
102
{ACAD_REACTORS
330
47
102
}
330
47
100
AcDbScale
 70
     0
300
1:16
140
1.0
141
16.0
290
     0
  0
SCALE
  5
4F
102
{ACAD_REACTORS
330
47
102
}
330
47
100
AcDbScale
 70
     0
300
1:20
140
1.0
141
20.0
290
     0
  0
SCALE
  5
50
102
{ACAD_REACTORS
330
47
102
}
330
47
100
AcDbScale
 70
     0
300
1:30
140
1.0
141
30.0
290
     0
  0
SCALE
  5
51
102
{ACAD_REACTORS
330
47
102
}
330
47
100
AcDbScale
 70
     0
300
1:40
140
1.0
141
40.0
290
     0
  0
SCALE
  5
52
102
{ACAD_REACTORS
330
47
102
}
330
47
100
AcDbScale
 70
     0
300
1:50
140
1.0
141
50.0
290
     0
  0
SCALE
  5
53
102
{ACAD_REACTORS
330
47
102
}
330
47
100
AcDbScale
 70
     0
300
1:100
140
1.0
141
100.0
290
     0
  0
SCALE
  5
54
102
{ACAD_REACTORS
330
47
102
}
330
47
100
AcDbScale
 70
     0
300
2:1
140
2.0
141
1.0
290
     0
  0
SCALE
  5
55
102
{ACAD_REACTORS
330
47
102
}
330
47
100
AcDbScale
 70
     0
300
4:1
140
4.0
141
1.0
290
     0
  0
SCALE
  5
56
102
{ACAD_REACTORS
330
47
102
}
330
47
100
AcDbScale
 70
     0
300
8:1
140
8.0
141
1.0
290
     0
  0
SCALE
  5
57
102
{ACAD_REACTORS
330
47
102
}
330
47
100
AcDbScale
 70
     0
300
10:1
140
10.0
141
1.0
290
     0
  0
SCALE
  5
58
102
{ACAD_REACTORS
330
47
102
}
330
47
100
AcDbScale
 70
     0
300
100:1
140
100.0
141
1.0
290
     0
  0
SCALE
  5
59
102
{ACAD_REACTORS
330
47
102
}
330
47
100
AcDbScale
 70
     0
300
1/128" = 1'-0"
140
0.0078125
141
12.0
290
     0
  0
SCALE
  5
5A
102
{ACAD_REACTORS
330
47
102
}
330
47
100
AcDbScale
 70
     0
300
1/64" = 1'-0"
140
0.015625
141
12.0
290
     0
  0
SCALE
  5
5B
102
{ACAD_REACTORS
330
47
102
}
330
47
100
AcDbScale
 70
     0
300
1/32" = 1'-0"
140
0.03125
141
12.0
290
     0
  0
SCALE
  5
5C
102
{ACAD_REACTORS
330
47
102
}
330
47
100
AcDbScale
 70
     0
300
1/16" = 1'-0"
140
0.0625
141
12.0
290
     0
  0
SCALE
  5
5D
102
{ACAD_REACTORS
330
47
102
}
330
47
100
AcDbScale
 70
     0
300
3/32" = 1'-0"
140
0.09375
141
12.0
290
     0
  0
SCALE
  5
5E
102
{ACAD_REACTORS
330
47
102
}
330
47
100
AcDbScale
 70
     0
300
1/8" = 1'-0"
140
0.125
141
12.0
290
     0
  0
SCALE
  5
5F
102
{ACAD_REACTORS
330
47
102
}
330
47
100
AcDbScale
 70
     0
300
3/16" = 1'-0"
140
0.1875
141
12.0
290
     0
  0
SCALE
  5
60
102
{ACAD_REACTORS
330
47
102
}
330
47
100
AcDbScale
 70
     0
300
1/4" = 1'-0"
140
0.25
141
12.0
290
     0
  0
SCALE
  5
61
102
{ACAD_REACTORS
330
47
102
}
330
47
100
AcDbScale
 70
     0
300
3/8" = 1'-0"
140
0.375
141
12.0
290
     0
  0
SCALE
  5
62
102
{ACAD_REACTORS
330
47
102
}
330
47
100
AcDbScale
 70
     0
300
1/2" = 1'-0"
140
0.5
141
12.0
290
     0
  0
SCALE
  5
63
102
{ACAD_REACTORS
330
47
102
}
330
47
100
AcDbScale
 70
     0
300
3/4" = 1'-0"
140
0.75
141
12.0
290
     0
  0
SCALE
  5
64
102
{ACAD_REACTORS
330
47
102
}
330
47
100
AcDbScale
 70
     0
300
1" = 1'-0"
140
1.0
141
12.0
290
     0
  0
SCALE
  5
65
102
{ACAD_REACTORS
330
47
102
}
330
47
100
AcDbScale
 70
     0
300
1-1/2" = 1'-0"
140
1.5
141
12.0
290
     0
  0
SCALE
  5
66
102
{ACAD_REACTORS
330
47
102
}
330
47
100
AcDbScale
 70
     0
300
3" = 1'-0"
140
3.0
141
12.0
290
     0
  0
SCALE
  5
67
102
{ACAD_REACTORS
330
47
102
}
330
47
100
AcDbScale
 70
     0
300
6" = 1'-0"
140
6.0
141
12.0
290
     0
  0
SCALE
  5
68
102
{ACAD_REACTORS
330
47
102
}
330
47
100
AcDbScale
 70
     0
300
1'-0" = 1'-0"
140
12.0
141
12.0
290
     0
  0
TABLESTYLE
  5
6A
102
{ACAD_REACTORS
330
69
102
}
102
{ACAD_XDICTIONARY
360
311
102
}
330
69
100
AcDbTableStyle
  3
Standard
 70
     0
 71
     0
 40
0.06
 41
0.06
280
     0
281
     0
  7
Standard
140
0.18
170
     2
 62
     0
 63
   257
283
     0
274
    -2
284
     1
 64
     0
275
    -2
285
     1
 65
     0
276
    -2
286
     1
 66
     0
277
    -2
287
     1
 67
     0
278
    -2
288
     1
 68
     0
279
    -2
289
     1
 69
     0
  7
Standard
140
0.25
170
     5
 62
     0
 63
   257
283
     0
274
    -2
284
     1
 64
     0
275
    -2
285
     1
 65
     0
276
    -2
286
     1
 66
     0
277
    -2
287
     1
 67
     0
278
    -2
288
     1
 68
     0
279
    -2
289
     1
 69
     0
  7
Standard
140
0.18
170
     5
 62
     0
 63
   257
283
     0
274
    -2
284
     1
 64
     0
275
    -2
285
     1
 65
     0
276
    -2
286
     1
 66
     0
277
    -2
287
     1
 67
     0
278
    -2
288
     1
 68
     0
279
    -2
289
     1
 69
     0
  0
VISUALSTYLE
  5
2F
102
{ACAD_REACTORS
330
2A
102
}
102
{ACAD_XDICTIONARY
360
2E3
102
}
330
2A
100
AcDbVisualStyle
  2
2dWireframe
 70
     4
 71
     0
 72
     2
 73
     0
 90
        0
 40
0.6
 41
30.0
 62
     5
 63
     7
421
 16777215
 74
     1
 91
        4
 64
     7
 65
   257
 75
     1
175
     1
 42
1.0
 92
        0
 66
   257
 43
1.0
 76
     1
 77
     6
 78
     2
 67
     7
 79
     5
170
     0
171
     0
290
     0
174
     0
 93
        1
 44
0.0
173
     0
291
     0
 45
0.0
1001
ACAD
1000
AcDbSavedByObjectVersion
1070
     0
  0
VISUALSTYLE
  5
32
102
{ACAD_REACTORS
330
2A
102
}
102
{ACAD_XDICTIONARY
360
2E9
102
}
330
2A
100
AcDbVisualStyle
  2
Basic
 70
     7
 71
     1
 72
     0
 73
     1
 90
        0
 40
0.6
 41
30.0
 62
     5
 63
     7
421
 16777215
 74
     0
 91
        4
 64
     7
 65
   257
 75
     1
175
     1
 42
1.0
 92
        8
 66
     7
 43
1.0
 76
     1
 77
     6
 78
     2
 67
     7
 79
     5
170
     0
171
     0
290
     0
174
     0
 93
        1
 44
0.0
173
     0
291
     1
 45
0.0
1001
ACAD
1000
AcDbSavedByObjectVersion
1070
     0
  0
VISUALSTYLE
  5
36
102
{ACAD_REACTORS
330
2A
102
}
102
{ACAD_XDICTIONARY
360
2F1
102
}
330
2A
100
AcDbVisualStyle
  2
Brighten
 70
    12
 71
     2
 72
     2
 73
     0
 90
        0
 40
0.6
 41
30.0
 62
     5
 63
     7
421
 16777215
 74
     1
 91
        4
 64
     7
 65
   257
 75
     1
175
     1
 42
1.0
 92
        8
 66
     7
 43
1.0
 76
     1
 77
     6
 78
     2
 67
     7
 79
     5
170
     0
171
     0
290
     0
174
     0
 93
        1
 44
50.0
173
     0
291
     1
 45
0.0
1001
ACAD
1000
AcDbSavedByObjectVersion
1070
     0
  0
VISUALSTYLE
  5
3A
102
{ACAD_REACTORS
330
2A
102
}
102
{ACAD_XDICTIONARY
360
2F9
102
}
330
2A
100
AcDbVisualStyle
  2
ColorChange
 70
    16
 71
     2
 72
     2
 73
     3
 90
        0
 40
0.6
 41
30.0
 62
     5
 63
     8
421
  8421504
 74
     1
 91
        4
 64
     7
 65
   257
 75
     1
175
     1
 42
1.0
 92
        8
 66
     8
424
  8421504
 43
1.0
 76
     1
 77
     6
 78
     2
 67
     7
 79
     5
170
     0
171
     0
290
     0
174
     0
 93
        1
 44
0.0
173
     0
291
     1
 45
0.0
1001
ACAD
1000
AcDbSavedByObjectVersion
1070
     0
  0
VISUALSTYLE
  5
34
102
{ACAD_REACTORS
330
2A
102
}
102
{ACAD_XDICTIONARY
360
2ED
102
}
330
2A
100
AcDbVisualStyle
  2
Conceptual
 70
     9
 71
     3
 72
     2
 73
     0
 90
        0
 40
0.6
 41
30.0
 62
     5
 63
     7
421
 16777215
 74
     2
 91
        2
 64
     7
 65
   257
 75
     1
175
     1
 42
179.0
 92
        8
 66
     7
 43
1.0
 76
     1
 77
     6
 78
     2
 67
     7
 79
     3
170
     0
171
     0
290
     0
174
     0
 93
        1
 44
0.0
173
     0
291
     0
 45
0.0
1001
ACAD
1000
AcDbSavedByObjectVersion
1070
     0
  0
VISUALSTYLE
  5
35
102
{ACAD_REACTORS
330
2A
102
}
102
{ACAD_XDICTIONARY
360
2EF
102
}
330
2A
100
AcDbVisualStyle
  2
Dim
 70
    11
 71
     2
 72
     2
 73
     0
 90
        0
 40
0.6
 41
30.0
 62
     5
 63
     7
421
 16777215
 74
     1
 91
        4
 64
     7
 65
   257
 75
     1
175
     1
 42
1.0
 92
        8
 66
     7
 43
1.0
 76
     1
 77
     6
 78
     2
 67
     7
 79
     5
170
     0
171
     0
290
     0
174
     0
 93
        1
 44
-50.0
173
     0
291
     1
 45
0.0
1001
ACAD
1000
AcDbSavedByObjectVersion
1070
     0
  0
VISUALSTYLE
  5
3D
102
{ACAD_REACTORS
330
2A
102
}
102
{ACAD_XDICTIONARY
360
2FF
102
}
330
2A
100
AcDbVisualStyle
  2
EdgeColorOff
 70
    22
 71
     2
 72
     2
 73
     0
 90
        0
 40
0.6
 41
30.0
 62
     5
 63
     7
421
 16777215
 74
     1
 91
        4
 64
     7
 65
   257
 75
     1
175
     1
 42
1.0
 92
        8
 66
     7
 43
1.0
 76
     1
 77
     6
 78
     2
 67
     7
 79
     5
170
     0
171
     0
290
     0
174
     0
 93
        1
 44
0.0
173
     0
291
     1
 45
0.0
1001
ACAD
1000
AcDbSavedByObjectVersion
1070
     0
  0
VISUALSTYLE
  5
39
102
{ACAD_REACTORS
330
2A
102
}
102
{ACAD_XDICTIONARY
360
2F7
102
}
330
2A
100
AcDbVisualStyle
  2
Facepattern
 70
    15
 71
     2
 72
     2
 73
     0
 90
        0
 40
0.6
 41
30.0
 62
     5
 63
     7
421
 16777215
 74
     1
 91
        4
 64
     7
 65
   257
 75
     1
175
     1
 42
1.0
 92
        8
 66
     7
 43
1.0
 76
     1
 77
     6
 78
     2
 67
     7
 79
     5
170
     0
171
     0
290
     0
174
     0
 93
        1
 44
0.0
173
     0
291
     1
 45
0.0
1001
ACAD
1000
AcDbSavedByObjectVersion
1070
     0
  0
VISUALSTYLE
  5
2B
102
{ACAD_REACTORS
330
2A
102
}
102
{ACAD_XDICTIONARY
360
2DB
102
}
330
2A
100
AcDbVisualStyle
  2
Flat
 70
     0
 71
     2
 72
     1
 73
     1
 90
        2
 40
0.6
 41
30.0
 62
     5
 63
     7
421
 16777215
 74
     0
 91
        0
 64
     7
 65
   257
 75
     1
175
     1
 42
1.0
 92
        8
 66
     7
 43
1.0
 76
     1
 77
     6
 78
     2
 67
     7
 79
     5
170
     0
171
     0
290
     0
174
     0
 93
       13
 44
0.0
173
     0
291
     1
 45
0.0
1001
ACAD
1000
AcDbSavedByObjectVersion
1070
     0
  0
VISUALSTYLE
  5
2C
102
{ACAD_REACTORS
330
2A
102
}
102
{ACAD_XDICTIONARY
360
2DD
102
}
330
2A
100
AcDbVisualStyle
  2
FlatWithEdges
 70
     1
 71
     2
 72
     1
 73
     1
 90
        2
 40
0.6
 41
30.0
 62
     5
 63
     7
421
 16777215
 74
     1
 91
        0
 64
     7
 65
   257
 75
     1
175
     1
 42
1.0
 92
        0
 66
   257
 43
1.0
 76
     1
 77
     6
 78
     2
 67
     7
 79
     5
170
     0
171
     0
290
     0
174
     0
 93
       13
 44
0.0
173
     0
291
     1
 45
0.0
1001
ACAD
1000
AcDbSavedByObjectVersion
1070
     0
  0
VISUALSTYLE
  5
2D
102
{ACAD_REACTORS
330
2A
102
}
102
{ACAD_XDICTIONARY
360
2DF
102
}
330
2A
100
AcDbVisualStyle
  2
Gouraud
 70
     2
 71
     2
 72
     2
 73
     1
 90
        2
 40
0.6
 41
30.0
 62
     5
 63
     7
421
 16777215
 74
     0
 91
        0
 64
     7
 65
   257
 75
     1
175
     1
 42
1.0
 92
        0
 66
     7
 43
1.0
 76
     1
 77
     6
 78
     2
 67
     7
 79
     5
170
     0
171
     0
290
     0
174
     0
 93
       13
 44
0.0
173
     0
291
     1
 45
0.0
1001
ACAD
1000
AcDbSavedByObjectVersion
1070
     0
  0
VISUALSTYLE
  5
2E
102
{ACAD_REACTORS
330
2A
102
}
102
{ACAD_XDICTIONARY
360
2E1
102
}
330
2A
100
AcDbVisualStyle
  2
GouraudWithEdges
 70
     3
 71
     2
 72
     2
 73
     1
 90
        2
 40
0.6
 41
30.0
 62
     5
 63
     7
421
 16777215
 74
     1
 91
        0
 64
     7
 65
   257
 75
     1
175
     1
 42
1.0
 92
        0
 66
   257
 43
1.0
 76
     1
 77
     6
 78
     2
 67
     7
 79
     5
170
     0
171
     0
290
     0
174
     0
 93
       13
 44
0.0
173
     0
291
     1
 45
0.0
1001
ACAD
1000
AcDbSavedByObjectVersion
1070
     0
  0
VISUALSTYLE
  5
31
102
{ACAD_REACTORS
330
2A
102
}
102
{ACAD_XDICTIONARY
360
2E7
102
}
330
2A
100
AcDbVisualStyle
  2
Hidden
 70
     6
 71
     1
 72
     2
 73
     2
 90
        0
 40
0.6
 41
30.0
 62
     5
 63
     7
421
 16777215
 74
     2
 91
        2
 64
     7
 65
   257
 75
     2
175
     1
 42
40.0
 92
        0
 66
   257
 43
1.0
 76
     1
 77
     6
 78
     2
 67
     7
 79
     3
170
     0
171
     0
290
     0
174
     0
 93
        1
 44
0.0
173
     0
291
     0
 45
0.0
1001
ACAD
1000
AcDbSavedByObjectVersion
1070
     0
  0
VISUALSTYLE
  5
3B
102
{ACAD_REACTORS
330
2A
102
}
102
{ACAD_XDICTIONARY
360
2FB
102
}
330
2A
100
AcDbVisualStyle
  2
JitterOff
 70
    20
 71
     2
 72
     2
 73
     0
 90
        0
 40
0.6
 41
30.0
 62
     5
 63
     7
421
 16777215
 74
     1
 91
        4
 64
     7
 65
   257
 75
     1
175
     1
 42
1.0
 92
       10
 66
     7
 43
1.0
 76
     1
 77
     6
 78
     2
 67
     7
 79
     5
170
     0
171
     0
290
     0
174
     0
 93
        1
 44
0.0
173
     0
291
     1
 45
0.0
1001
ACAD
1000
AcDbSavedByObjectVersion
1070
     0
  0
VISUALSTYLE
  5
38
102
{ACAD_REACTORS
330
2A
102
}
102
{ACAD_XDICTIONARY
360
2F5
102
}
330
2A
100
AcDbVisualStyle
  2
Linepattern
 70
    14
 71
     2
 72
     2
 73
     0
 90
        0
 40
0.6
 41
30.0
 62
     5
 63
     7
421
 16777215
 74
     1
 91
        4
 64
     7
 65
   257
 75
     7
175
     7
 42
1.0
 92
        8
 66
     7
 43
1.0
 76
     1
 77
     6
 78
     2
 67
     7
 79
     5
170
     0
171
     0
290
     0
174
     0
 93
        1
 44
0.0
173
     0
291
     1
 45
0.0
1001
ACAD
1000
AcDbSavedByObjectVersion
1070
     0
  0
VISUALSTYLE
  5
3C
102
{ACAD_REACTORS
330
2A
102
}
102
{ACAD_XDICTIONARY
360
2FD
102
}
330
2A
100
AcDbVisualStyle
  2
OverhangOff
 70
    21
 71
     2
 72
     2
 73
     0
 90
        0
 40
0.6
 41
30.0
 62
     5
 63
     7
421
 16777215
 74
     1
 91
        4
 64
     7
 65
   257
 75
     1
175
     1
 42
1.0
 92
        9
 66
     7
 43
1.0
 76
     1
 77
     6
 78
     2
 67
     7
 79
     5
170
     0
171
     0
290
     0
174
     0
 93
        1
 44
0.0
173
     0
291
     1
 45
0.0
1001
ACAD
1000
AcDbSavedByObjectVersion
1070
     0
  0
VISUALSTYLE
  5
33
102
{ACAD_REACTORS
330
2A
102
}
102
{ACAD_XDICTIONARY
360
2EB
102
}
330
2A
100
AcDbVisualStyle
  2
Realistic
 70
     8
 71
     2
 72
     3
 73
     0
 90
        2
 40
0.6
 41
30.0
 62
     5
 63
     7
421
 16777215
 74
     0
 91
        0
 64
     7
 65
   257
 75
     1
175
     1
 42
1.0
 92
        8
 66
   257
 43
1.0
 76
     1
 77
     6
 78
     2
 67
     7
 79
     3
170
     0
171
     0
290
     0
174
     0
 93
       13
 44
0.0
173
     0
291
     0
 45
0.0
1001
ACAD
1000
AcDbSavedByObjectVersion
1070
     0
  0
VISUALSTYLE
  5
42
102
{ACAD_REACTORS
330
2A
102
}
102
{ACAD_XDICTIONARY
360
309
102
}
330
2A
100
AcDbVisualStyle
  2
Shaded
 70
    27
 71
     2
 72
     2
 73
     1
 90
        2
 40
0.6
 41
30.0
 62
     5
 63
     7
421
 16777215
 74
     0
 91
        4
 64
     7
 65
   257
 75
     1
175
     1
 42
1.0
 92
        8
 66
   257
 43
1.0
 76
     1
 77
     6
 78
     2
 67
     8
425
  7895160
 79
     3
170
     0
171
     0
290
     0
174
     0
 93
        5
 44
0.0
173
     0
291
     0
 45
0.0
1001
ACAD
1000
AcDbSavedByObjectVersion
1070
     0
  0
VISUALSTYLE
  5
41
102
{ACAD_REACTORS
330
2A
102
}
102
{ACAD_XDICTIONARY
360
307
102
}
330
2A
100
AcDbVisualStyle
  2
Shaded with edges
 70
    26
 71
     2
 72
     2
 73
     1
 90
        2
 40
0.6
 41
30.0
 62
     5
 63
     7
421
 16777215
 74
     1
 91
       10
 64
     7
 65
   257
 75
     2
175
     1
 42
1.0
 92
        8
 66
   257
 43
1.0
 76
     1
 77
     6
 78
     2
 67
     7
 79
     3
170
     0
171
     0
290
     0
174
     0
 93
        5
 44
0.0
173
     0
291
     0
 45
0.0
1001
ACAD
1000
AcDbSavedByObjectVersion
1070
     0
  0
VISUALSTYLE
  5
3E
102
{ACAD_REACTORS
330
2A
102
}
102
{ACAD_XDICTIONARY
360
301
102
}
330
2A
100
AcDbVisualStyle
  2
Shades of Gray
 70
    23
 71
     2
 72
     2
 73
     3
 90
        0
 40
0.6
 41
30.0
 62
     5
 63
     7
421
 16777215
 74
     2
 91
        2
 64
     7
 65
     7
 75
     1
175
     1
 42
40.0
 92
        8
 66
     7
 43
1.0
 76
     1
 77
     6
 78
     2
 67
     7
 79
     3
170
     0
171
     0
290
     0
174
     0
 93
        1
 44
0.0
173
     0
291
     0
 45
0.0
1001
ACAD
1000
AcDbSavedByObjectVersion
1070
     0
  0
VISUALSTYLE
  5
3F
102
{ACAD_REACTORS
330
2A
102
}
102
{ACAD_XDICTIONARY
360
303
102
}
330
2A
100
AcDbVisualStyle
  2
Sketchy
 70
    24
 71
     1
 72
     2
 73
     2
 90
        0
 40
0.6
 41
30.0
 62
     5
 63
     7
421
 16777215
 74
     2
 91
        2
 64
     7
 65
     7
 75
     1
175
     1
 42
40.0
 92
       11
 66
     7
 43
1.0
 76
     1
 77
     6
 78
     2
 67
     7
 79
     6
170
     0
171
     0
290
     0
174
     0
 93
        1
 44
0.0
173
     0
291
     0
 45
0.0
1001
ACAD
1000
AcDbSavedByObjectVersion
1070
     0
  0
VISUALSTYLE
  5
37
102
{ACAD_REACTORS
330
2A
102
}
102
{ACAD_XDICTIONARY
360
2F3
102
}
330
2A
100
AcDbVisualStyle
  2
Thicken
 70
    13
 71
     2
 72
     2
 73
     0
 90
        0
 40
0.6
 41
30.0
 62
     5
 63
     7
421
 16777215
 74
     1
 91
        4
 64
     7
 65
   257
 75
     1
175
     1
 42
1.0
 92
       12
 66
     7
 43
1.0
 76
     1
 77
     6
 78
     2
 67
     7
 79
     5
170
     0
171
     0
290
     0
174
     0
 93
        1
 44
0.0
173
     0
291
     1
 45
0.0
1001
ACAD
1000
AcDbSavedByObjectVersion
1070
     0
  0
VISUALSTYLE
  5
30
102
{ACAD_REACTORS
330
2A
102
}
102
{ACAD_XDICTIONARY
360
2E5
102
}
330
2A
100
AcDbVisualStyle
  2
Wireframe
 70
     5
 71
     0
 72
     2
 73
     0
 90
        0
 40
0.6
 41
30.0
 62
     5
 63
     7
421
 16777215
 74
     1
 91
        4
 64
     7
 65
   257
 75
     1
175
     1
 42
1.0
 92
        0
 66
   257
 43
1.0
 76
     1
 77
     6
 78
     2
 67
     7
 79
     3
170
     0
171
     0
290
     0
174
     0
 93
        1
 44
0.0
173
     0
291
     0
 45
0.0
1001
ACAD
1000
AcDbSavedByObjectVersion
1070
     0
  0
VISUALSTYLE
  5
40
102
{ACAD_REACTORS
330
2A
102
}
102
{ACAD_XDICTIONARY
360
305
102
}
330
2A
100
AcDbVisualStyle
  2
X-Ray
 70
    25
 71
     2
 72
     2
 73
     1
 90
        1
 40
0.5
 41
30.0
 62
     5
 63
     7
421
 16777215
 74
     1
 91
        0
 64
     7
 65
   257
 75
     1
175
     1
 42
1.0
 92
        8
 66
     7
 43
1.0
 76
     1
 77
     6
 78
     2
 67
     7
 79
     3
170
     0
171
     0
290
     0
174
     0
 93
       13
 44
0.0
173
     0
291
     0
 45
0.0
1001
ACAD
1000
AcDbSavedByObjectVersion
1070
     0
  0
DICTIONARYVAR
  5
2D8
102
{ACAD_REACTORS
330
2D7
102
}
330
2D7
100
DictionaryVariables
280
     0
  1
1:1
  0
DICTIONARYVAR
  5
319
102
{ACAD_REACTORS
330
2D7
102
}
330
2D7
100
DictionaryVariables
280
     0
  1
Standard
  0
DICTIONARYVAR
  5
318
102
{ACAD_REACTORS
330
2D7
102
}
330
2D7
100
DictionaryVariables
280
     0
  1
Standard
  0
DICTIONARYVAR
  5
2D9
102
{ACAD_REACTORS
330
2D7
102
}
330
2D7
100
DictionaryVariables
280
     0
  1
1
  0
DICTIONARYVAR
  5
2DA
102
{ACAD_REACTORS
330
2D7
102
}
330
2D7
100
DictionaryVariables
280
     0
  1
2
  0
DICTIONARY
  5
30D
330
45
100
AcDbDictionary
280
     1
281
     1
  3
ACAD_XREC_ROUNDTRIP
360
30E
  0
DICTIONARY
  5
30B
330
44
100
AcDbDictionary
280
     1
281
     1
  3
ACAD_XREC_ROUNDTRIP
360
30C
  0
DICTIONARY
  5
30F
330
46
100
AcDbDictionary
280
     1
281
     1
  3
ACAD_XREC_ROUNDTRIP
360
310
  0
DICTIONARY
  5
315
330
6C
100
AcDbDictionary
280
     1
281
     1
  3
ACAD_XREC_ROUNDTRIP
360
316
  0
DICTIONARY
  5
311
330
6A
100
AcDbDictionary
280
     1
281
     1
  3
ACAD_ROUNDTRIP_2008_TABLESTYLE_CELLSTYLEMAP
360
313
  3
ACAD_XREC_ROUNDTRIP
360
312
  0
DICTIONARY
  5
2E3
330
2F
100
AcDbDictionary
280
     1
281
     1
  3
ACAD_XREC_ROUNDTRIP
360
2E4
  0
DICTIONARY
  5
2E9
330
32
100
AcDbDictionary
280
     1
281
     1
  3
ACAD_XREC_ROUNDTRIP
360
2EA
  0
DICTIONARY
  5
2F1
330
36
100
AcDbDictionary
280
     1
281
     1
  3
ACAD_XREC_ROUNDTRIP
360
2F2
  0
DICTIONARY
  5
2F9
330
3A
100
AcDbDictionary
280
     1
281
     1
  3
ACAD_XREC_ROUNDTRIP
360
2FA
  0
DICTIONARY
  5
2ED
330
34
100
AcDbDictionary
280
     1
281
     1
  3
ACAD_XREC_ROUNDTRIP
360
2EE
  0
DICTIONARY
  5
2EF
330
35
100
AcDbDictionary
280
     1
281
     1
  3
ACAD_XREC_ROUNDTRIP
360
2F0
  0
DICTIONARY
  5
2FF
330
3D
100
AcDbDictionary
280
     1
281
     1
  3
ACAD_XREC_ROUNDTRIP
360
300
  0
DICTIONARY
  5
2F7
330
39
100
AcDbDictionary
280
     1
281
     1
  3
ACAD_XREC_ROUNDTRIP
360
2F8
  0
DICTIONARY
  5
2DB
330
2B
100
AcDbDictionary
280
     1
281
     1
  3
ACAD_XREC_ROUNDTRIP
360
2DC
  0
DICTIONARY
  5
2DD
330
2C
100
AcDbDictionary
280
     1
281
     1
  3
ACAD_XREC_ROUNDTRIP
360
2DE
  0
DICTIONARY
  5
2DF
330
2D
100
AcDbDictionary
280
     1
281
     1
  3
ACAD_XREC_ROUNDTRIP
360
2E0
  0
DICTIONARY
  5
2E1
330
2E
100
AcDbDictionary
280
     1
281
     1
  3
ACAD_XREC_ROUNDTRIP
360
2E2
  0
DICTIONARY
  5
2E7
330
31
100
AcDbDictionary
280
     1
281
     1
  3
ACAD_XREC_ROUNDTRIP
360
2E8
  0
DICTIONARY
  5
2FB
330
3B
100
AcDbDictionary
280
     1
281
     1
  3
ACAD_XREC_ROUNDTRIP
360
2FC
  0
DICTIONARY
  5
2F5
330
38
100
AcDbDictionary
280
     1
281
     1
  3
ACAD_XREC_ROUNDTRIP
360
2F6
  0
DICTIONARY
  5
2FD
330
3C
100
AcDbDictionary
280
     1
281
     1
  3
ACAD_XREC_ROUNDTRIP
360
2FE
  0
DICTIONARY
  5
2EB
330
33
100
AcDbDictionary
280
     1
281
     1
  3
ACAD_XREC_ROUNDTRIP
360
2EC
  0
DICTIONARY
  5
309
330
42
100
AcDbDictionary
280
     1
281
     1
  3
ACAD_XREC_ROUNDTRIP
360
30A
  0
DICTIONARY
  5
307
330
41
100
AcDbDictionary
280
     1
281
     1
  3
ACAD_XREC_ROUNDTRIP
360
308
  0
DICTIONARY
  5
301
330
3E
100
AcDbDictionary
280
     1
281
     1
  3
ACAD_XREC_ROUNDTRIP
360
302
  0
DICTIONARY
  5
303
330
3F
100
AcDbDictionary
280
     1
281
     1
  3
ACAD_XREC_ROUNDTRIP
360
304
  0
DICTIONARY
  5
2F3
330
37
100
AcDbDictionary
280
     1
281
     1
  3
ACAD_XREC_ROUNDTRIP
360
2F4
  0
DICTIONARY
  5
2E5
330
30
100
AcDbDictionary
280
     1
281
     1
  3
ACAD_XREC_ROUNDTRIP
360
2E6
  0
DICTIONARY
  5
305
330
40
100
AcDbDictionary
280
     1
281
     1
  3
ACAD_XREC_ROUNDTRIP
360
306
  0
XRECORD
  5
30E
102
{ACAD_REACTORS
330
30D
102
}
330
30D
100
AcDbXrecord
280
     1
102
MATERIAL
148
0.0
149
0.0
149
0.0
 93
        0
 94
      127
282
     0
 72
     1
 77
     1
171
     1
175
     1
179
     1
273
     0
  0
XRECORD
  5
30C
102
{ACAD_REACTORS
330
30B
102
}
330
30B
100
AcDbXrecord
280
     1
102
MATERIAL
148
0.0
149
0.0
149
0.0
 93
        0
 94
      127
282
     0
 72
     1
 77
     1
171
     1
175
     1
179
     1
273
     0
  0
XRECORD
  5
310
102
{ACAD_REACTORS
330
30F
102
}
330
30F
100
AcDbXrecord
280
     1
102
MATERIAL
148
0.0
149
0.0
149
0.0
 93
        0
 94
      127
282
     0
 72
     1
 77
     1
171
     1
175
     1
179
     1
273
     0
  0
XRECORD
  5
316
102
{ACAD_REACTORS
330
315
102
}
330
315
100
AcDbXrecord
280
     1
102
ACAD_ROUNDTRIP_2010_MLEADER_STYLE
  0
CELLSTYLEMAP
  5
313
102
{ACAD_REACTORS
330
311
102
}
330
311
100
AcDbCellStyleMap
 90
        3
300
CELLSTYLE
  1
TABLEFORMAT_BEGIN
 90
        5
170
     1
 91
        0
 92
    32768
 62
   257
 93
        1
300
CONTENTFORMAT
  1
CONTENTFORMAT_BEGIN
 90
        0
 91
        0
 92
        4
 93
        0
300

 40
0.0
140
1.0
 94
        5
 62
     0
340
11
144
0.25
309
CONTENTFORMAT_END
171
     1
301
MARGIN
  1
CELLMARGIN_BEGIN
 40
0.06
 40
0.06
 40
0.06
 40
0.06
 40
0.06
 40
0.06
309
CELLMARGIN_END
 94
        6
 95
        1
302
GRIDFORMAT
  1
GRIDFORMAT_BEGIN
 90
        0
 91
        1
 62
     0
 92
       -2
340
14
 93
        0
 40
0.045
309
GRIDFORMAT_END
 95
        2
302
GRIDFORMAT
  1
GRIDFORMAT_BEGIN
 90
        0
 91
        1
 62
     0
 92
       -2
340
14
 93
        0
 40
0.045
309
GRIDFORMAT_END
 95
        4
302
GRIDFORMAT
  1
GRIDFORMAT_BEGIN
 90
        0
 91
        1
 62
     0
 92
       -2
340
14
 93
        0
 40
0.045
309
GRIDFORMAT_END
 95
        8
302
GRIDFORMAT
  1
GRIDFORMAT_BEGIN
 90
        0
 91
        1
 62
     0
 92
       -2
340
14
 93
        0
 40
0.045
309
GRIDFORMAT_END
 95
       16
302
GRIDFORMAT
  1
GRIDFORMAT_BEGIN
 90
        0
 91
        1
 62
     0
 92
       -2
340
14
 93
        0
 40
0.045
309
GRIDFORMAT_END
 95
       32
302
GRIDFORMAT
  1
GRIDFORMAT_BEGIN
 90
        0
 91
        1
 62
     0
 92
       -2
340
14
 93
        0
 40
0.045
309
GRIDFORMAT_END
309
TABLEFORMAT_END
  1
CELLSTYLE_BEGIN
 90
        1
 91
        1
300
_TITLE
309
CELLSTYLE_END
300
CELLSTYLE
  1
TABLEFORMAT_BEGIN
 90
        5
170
     1
 91
        0
 92
        0
 62
   257
 93
        1
300
CONTENTFORMAT
  1
CONTENTFORMAT_BEGIN
 90
        0
 91
        0
 92
        4
 93
        0
300

 40
0.0
140
1.0
 94
        5
 62
     0
340
11
144
0.18
309
CONTENTFORMAT_END
171
     1
301
MARGIN
  1
CELLMARGIN_BEGIN
 40
0.06
 40
0.06
 40
0.06
 40
0.06
 40
0.06
 40
0.06
309
CELLMARGIN_END
 94
        6
 95
        1
302
GRIDFORMAT
  1
GRIDFORMAT_BEGIN
 90
        0
 91
        1
 62
     0
 92
       -2
340
14
 93
        0
 40
0.045
309
GRIDFORMAT_END
 95
        2
302
GRIDFORMAT
  1
GRIDFORMAT_BEGIN
 90
        0
 91
        1
 62
     0
 92
       -2
340
14
 93
        0
 40
0.045
309
GRIDFORMAT_END
 95
        4
302
GRIDFORMAT
  1
GRIDFORMAT_BEGIN
 90
        0
 91
        1
 62
     0
 92
       -2
340
14
 93
        0
 40
0.045
309
GRIDFORMAT_END
 95
        8
302
GRIDFORMAT
  1
GRIDFORMAT_BEGIN
 90
        0
 91
        1
 62
     0
 92
       -2
340
14
 93
        0
 40
0.045
309
GRIDFORMAT_END
 95
       16
302
GRIDFORMAT
  1
GRIDFORMAT_BEGIN
 90
        0
 91
        1
 62
     0
 92
       -2
340
14
 93
        0
 40
0.045
309
GRIDFORMAT_END
 95
       32
302
GRIDFORMAT
  1
GRIDFORMAT_BEGIN
 90
        0
 91
        1
 62
     0
 92
       -2
340
14
 93
        0
 40
0.045
309
GRIDFORMAT_END
309
TABLEFORMAT_END
  1
CELLSTYLE_BEGIN
 90
        2
 91
        1
300
_HEADER
309
CELLSTYLE_END
300
CELLSTYLE
  1
TABLEFORMAT_BEGIN
 90
        5
170
     1
 91
        0
 92
        0
 62
   257
 93
        1
300
CONTENTFORMAT
  1
CONTENTFORMAT_BEGIN
 90
        0
 91
        0
 92
        4
 93
        0
300

 40
0.0
140
1.0
 94
        2
 62
     0
340
11
144
0.18
309
CONTENTFORMAT_END
171
     1
301
MARGIN
  1
CELLMARGIN_BEGIN
 40
0.06
 40
0.06
 40
0.06
 40
0.06
 40
0.06
 40
0.06
309
CELLMARGIN_END
 94
        6
 95
        1
302
GRIDFORMAT
  1
GRIDFORMAT_BEGIN
 90
        0
 91
        1
 62
     0
 92
       -2
340
14
 93
        0
 40
0.045
309
GRIDFORMAT_END
 95
        2
302
GRIDFORMAT
  1
GRIDFORMAT_BEGIN
 90
        0
 91
        1
 62
     0
 92
       -2
340
14
 93
        0
 40
0.045
309
GRIDFORMAT_END
 95
        4
302
GRIDFORMAT
  1
GRIDFORMAT_BEGIN
 90
        0
 91
        1
 62
     0
 92
       -2
340
14
 93
        0
 40
0.045
309
GRIDFORMAT_END
 95
        8
302
GRIDFORMAT
  1
GRIDFORMAT_BEGIN
 90
        0
 91
        1
 62
     0
 92
       -2
340
14
 93
        0
 40
0.045
309
GRIDFORMAT_END
 95
       16
302
GRIDFORMAT
  1
GRIDFORMAT_BEGIN
 90
        0
 91
        1
 62
     0
 92
       -2
340
14
 93
        0
 40
0.045
309
GRIDFORMAT_END
 95
       32
302
GRIDFORMAT
  1
GRIDFORMAT_BEGIN
 90
        0
 91
        1
 62
     0
 92
       -2
340
14
 93
        0
 40
0.045
309
GRIDFORMAT_END
309
TABLEFORMAT_END
  1
CELLSTYLE_BEGIN
 90
        3
 91
        2
300
_DATA
309
CELLSTYLE_END
  0
XRECORD
  5
312
102
{ACAD_REACTORS
330
311
102
}
330
311
100
AcDbXrecord
280
     1
102
ACAD_ROUNDTRIP_PRE2007_TABLESTYLE
 90
        4
 91
        0
  1

 92
        4
 93
        0
  2

 94
        4
 95
        0
  3

  0
XRECORD
  5
2E4
102
{ACAD_REACTORS
330
2E3
102
}
330
2E3
100
AcDbXrecord
280
     1
102
RTVSPropertyOp0
 70
     1
102
RTVSPropertyOp1
 70
     1
102
RTVSPropertyOp2
 70
     1
102
RTVSPropertyOp3
 70
     1
102
RTVSPropertyOp4
 70
     1
102
RTVSPropertyOp5
 70
     1
102
RTVSPropertyOp6
 70
     1
102
RTVSPropertyOp7
 70
     1
102
RTVSPropertyOp8
 70
     1
102
RTVSPropertyOp9
 70
     1
102
RTVSPropertyOp10
 70
     1
102
RTVSPropertyOp11
 70
     1
102
RTVSPropertyOp12
 70
     1
102
RTVSPropertyOp13
 70
     1
102
RTVSPropertyOp14
 70
     1
102
RTVSPropertyOp15
 70
     1
102
RTVSPropertyOp16
 70
     1
102
RTVSPropertyOp17
 70
     1
102
RTVSPropertyOp18
 70
     1
102
RTVSPropertyOp19
 70
     1
102
RTVSPropertyOp20
 70
     1
102
RTVSPropertyOp21
 70
     1
102
RTVSPropertyOp22
 70
     1
102
RTVSPropertyOp23
 70
     1
102
RTVSPropertyOp24
 70
     1
102
RTVSPropertyOp25
 70
     1
102
RTVSPropertyOp26
 70
     1
102
RTVSPropertyOp27
 70
     1
102
RTVSPropertyOp28
 70
     1
102
RTVSPropertyOp29
 70
     1
102
RTVSPropertyOp30
 70
     1
102
RTVSPropertyOp31
 70
     1
102
RTVSPropertyOp32
 70
     1
102
RTVSPropertyOp33
 70
     1
102
RTVSPropertyOp34
 70
     1
102
RTVSPropertyOp35
 70
     1
102
RTVSPropertyOp36
 70
     1
102
RTVSPropertyOp37
 70
     1
102
RTVSPropertyOp38
 70
     1
102
RTVSPropertyOp39
 70
     1
102
RTVSPropertyOp40
 70
     1
102
RTVSPropertyOp41
 70
     1
102
RTVSPropertyOp42
 70
     1
102
RTVSPropertyOp43
 70
     1
102
RTVSPropertyOp44
 70
     1
102
RTVSPropertyOp45
 70
     1
102
RTVSPropertyOp46
 70
     1
102
RTVSPropertyOp47
 70
     1
102
RTVSPropertyOp48
 70
     1
102
RTVSPropertyOp49
 70
     1
102
RTVSPropertyOp50
 70
     1
102
RTVSPropertyOp51
 70
     0
102
RTVSPropertyOp52
 70
     0
102
RTVSPropertyOp53
 70
     1
102
RTVSPropertyOp54
 70
     1
102
RTVSPropertyOp55
 70
     1
102
RTVSPropertyOp56
 70
     1
102
RTVSPropertyOp57
 70
     1
102
RTVSPost2010Prop28
280
     1
102
RTVSPost2010PropOp28
 70
     1
102
RTVSPost2010Prop29
280
     1
102
RTVSPost2010PropOp29
 70
     1
102
RTVSPost2010Prop30
280
     0
102
RTVSPost2010PropOp30
 70
     1
102
RTVSPost2010Prop31
280
     0
102
RTVSPost2010PropOp31
 70
     1
102
RTVSPost2010Prop32
280
     0
102
RTVSPost2010PropOp32
 70
     1
102
RTVSPost2010Prop33
280
     0
102
RTVSPost2010PropOp33
 70
     1
102
RTVSPost2010Prop34
280
     0
102
RTVSPost2010PropOp34
 70
     1
102
RTVSPost2010Prop35
280
     0
102
RTVSPost2010PropOp35
 70
     1
102
RTVSPost2010Prop36
280
     0
102
RTVSPost2010PropOp36
 70
     1
102
RTVSPost2010Prop37
 90
       50
102
RTVSPost2010PropOp37
 70
     1
102
RTVSPost2010Prop38
140
0.0
102
RTVSPost2010PropOp38
 70
     1
102
RTVSPost2010Prop39
140
1.0
102
RTVSPost2010PropOp39
 70
     1
102
RTVSPost2010Prop40
 90
        0
102
RTVSPost2010PropOp40
 70
     1
102
RTVSPost2010Prop41ColorIndex
 90
       18
102
RTVSPost2010Prop41ColorRGB
 90
        0
102
RTVSPost2010PropOp41
 70
     1
102
RTVSPost2010Prop42
 90
       50
102
RTVSPost2010PropOp42
 70
     1
102
RTVSPost2010Prop43
 90
        3
102
RTVSPost2010PropOp43
 70
     1
102
RTVSPost2010Prop44ColorIndex
 90
        5
102
RTVSPost2010Prop44ColorRGB
 90
      255
102
RTVSPost2010PropOp44
 70
     1
102
RTVSPost2010Prop45
280
     0
102
RTVSPost2010PropOp45
 70
     1
102
RTVSPost2010Prop46
 90
       50
102
RTVSPost2010PropOp46
 70
     1
102
RTVSPost2010Prop47
 90
       50
102
RTVSPost2010PropOp47
 70
     1
102
RTVSPost2010Prop48
 90
       50
102
RTVSPost2010PropOp48
 70
     1
102
RTVSPost2010Prop49
280
     0
102
RTVSPost2010PropOp49
 70
     1
102
RTVSPost2010Prop50
 90
       50
102
RTVSPost2010PropOp50
 70
     1
102
RTVSPost2010Prop51ColorIndex
 90
      256
102
RTVSPost2010Prop51ColorRGB
 90
-16777216
102
RTVSPost2010PropOp51
 70
     0
102
RTVSPost2010Prop52
140
1.0
102
RTVSPost2010PropOp52
 70
     0
102
RTVSPost2010Prop53
 90
        2
102
RTVSPost2010PropOp53
 70
     1
102
RTVSPost2010Prop54
  1
strokes_ogs.tif
102
RTVSPost2010PropOp54
 70
     1
102
RTVSPost2010Prop55
280
     0
102
RTVSPost2010PropOp55
 70
     1
102
RTVSPost2010Prop56
140
1.0
102
RTVSPost2010PropOp56
 70
     1
102
RTVSPost2010Prop57
140
1.0
102
RTVSPost2010PropOp57
 70
     1
  0
XRECORD
  5
2EA
102
{ACAD_REACTORS
330
2E9
102
}
330
2E9
100
AcDbXrecord
280
     1
102
RTVSPropertyOp0
 70
     1
102
RTVSPropertyOp1
 70
     1
102
RTVSPropertyOp2
 70
     1
102
RTVSPropertyOp3
 70
     1
102
RTVSPropertyOp4
 70
     1
102
RTVSPropertyOp5
 70
     1
102
RTVSPropertyOp6
 70
     1
102
RTVSPropertyOp7
 70
     1
102
RTVSPropertyOp8
 70
     1
102
RTVSPropertyOp9
 70
     1
102
RTVSPropertyOp10
 70
     1
102
RTVSPropertyOp11
 70
     1
102
RTVSPropertyOp12
 70
     1
102
RTVSPropertyOp13
 70
     1
102
RTVSPropertyOp14
 70
     1
102
RTVSPropertyOp15
 70
     1
102
RTVSPropertyOp16
 70
     1
102
RTVSPropertyOp17
 70
     1
102
RTVSPropertyOp18
 70
     1
102
RTVSPropertyOp19
 70
     1
102
RTVSPropertyOp20
 70
     1
102
RTVSPropertyOp21
 70
     1
102
RTVSPropertyOp22
 70
     1
102
RTVSPropertyOp23
 70
     1
102
RTVSPropertyOp24
 70
     1
102
RTVSPropertyOp25
 70
     1
102
RTVSPropertyOp26
 70
     1
102
RTVSPropertyOp27
 70
     1
102
RTVSPropertyOp28
 70
     1
102
RTVSPropertyOp29
 70
     1
102
RTVSPropertyOp30
 70
     1
102
RTVSPropertyOp31
 70
     1
102
RTVSPropertyOp32
 70
     1
102
RTVSPropertyOp33
 70
     1
102
RTVSPropertyOp34
 70
     1
102
RTVSPropertyOp35
 70
     1
102
RTVSPropertyOp36
 70
     1
102
RTVSPropertyOp37
 70
     1
102
RTVSPropertyOp38
 70
     1
102
RTVSPropertyOp39
 70
     1
102
RTVSPropertyOp40
 70
     1
102
RTVSPropertyOp41
 70
     1
102
RTVSPropertyOp42
 70
     1
102
RTVSPropertyOp43
 70
     1
102
RTVSPropertyOp44
 70
     1
102
RTVSPropertyOp45
 70
     1
102
RTVSPropertyOp46
 70
     1
102
RTVSPropertyOp47
 70
     1
102
RTVSPropertyOp48
 70
     1
102
RTVSPropertyOp49
 70
     1
102
RTVSPropertyOp50
 70
     1
102
RTVSPropertyOp51
 70
     0
102
RTVSPropertyOp52
 70
     0
102
RTVSPropertyOp53
 70
     1
102
RTVSPropertyOp54
 70
     1
102
RTVSPropertyOp55
 70
     1
102
RTVSPropertyOp56
 70
     1
102
RTVSPropertyOp57
 70
     1
102
RTVSPost2010Prop28
280
     0
102
RTVSPost2010PropOp28
 70
     1
102
RTVSPost2010Prop29
280
     1
102
RTVSPost2010PropOp29
 70
     1
102
RTVSPost2010Prop30
280
     1
102
RTVSPost2010PropOp30
 70
     1
102
RTVSPost2010Prop31
280
     0
102
RTVSPost2010PropOp31
 70
     1
102
RTVSPost2010Prop32
280
     0
102
RTVSPost2010PropOp32
 70
     1
102
RTVSPost2010Prop33
280
     0
102
RTVSPost2010PropOp33
 70
     1
102
RTVSPost2010Prop34
280
     0
102
RTVSPost2010PropOp34
 70
     1
102
RTVSPost2010Prop35
280
     0
102
RTVSPost2010PropOp35
 70
     1
102
RTVSPost2010Prop36
280
     0
102
RTVSPost2010PropOp36
 70
     1
102
RTVSPost2010Prop37
 90
       50
102
RTVSPost2010PropOp37
 70
     1
102
RTVSPost2010Prop38
140
0.0
102
RTVSPost2010PropOp38
 70
     1
102
RTVSPost2010Prop39
140
1.0
102
RTVSPost2010PropOp39
 70
     1
102
RTVSPost2010Prop40
 90
        0
102
RTVSPost2010PropOp40
 70
     1
102
RTVSPost2010Prop41ColorIndex
 90
       18
102
RTVSPost2010Prop41ColorRGB
 90
        0
102
RTVSPost2010PropOp41
 70
     1
102
RTVSPost2010Prop42
 90
       50
102
RTVSPost2010PropOp42
 70
     1
102
RTVSPost2010Prop43
 90
        3
102
RTVSPost2010PropOp43
 70
     1
102
RTVSPost2010Prop44ColorIndex
 90
        5
102
RTVSPost2010Prop44ColorRGB
 90
      255
102
RTVSPost2010PropOp44
 70
     1
102
RTVSPost2010Prop45
280
     0
102
RTVSPost2010PropOp45
 70
     1
102
RTVSPost2010Prop46
 90
       50
102
RTVSPost2010PropOp46
 70
     1
102
RTVSPost2010Prop47
 90
       50
102
RTVSPost2010PropOp47
 70
     1
102
RTVSPost2010Prop48
 90
       50
102
RTVSPost2010PropOp48
 70
     1
102
RTVSPost2010Prop49
280
     0
102
RTVSPost2010PropOp49
 70
     1
102
RTVSPost2010Prop50
 90
       50
102
RTVSPost2010PropOp50
 70
     1
102
RTVSPost2010Prop51ColorIndex
 90
      256
102
RTVSPost2010Prop51ColorRGB
 90
-16777216
102
RTVSPost2010PropOp51
 70
     0
102
RTVSPost2010Prop52
140
1.0
102
RTVSPost2010PropOp52
 70
     0
102
RTVSPost2010Prop53
 90
        2
102
RTVSPost2010PropOp53
 70
     1
102
RTVSPost2010Prop54
  1
strokes_ogs.tif
102
RTVSPost2010PropOp54
 70
     1
102
RTVSPost2010Prop55
280
     0
102
RTVSPost2010PropOp55
 70
     1
102
RTVSPost2010Prop56
140
1.0
102
RTVSPost2010PropOp56
 70
     1
102
RTVSPost2010Prop57
140
1.0
102
RTVSPost2010PropOp57
 70
     1
  0
XRECORD
  5
2F2
102
{ACAD_REACTORS
330
2F1
102
}
330
2F1
100
AcDbXrecord
280
     1
102
RTVSPropertyOp0
 70
     1
102
RTVSPropertyOp1
 70
     1
102
RTVSPropertyOp2
 70
     1
102
RTVSPropertyOp3
 70
     1
102
RTVSPropertyOp4
 70
     1
102
RTVSPropertyOp5
 70
     1
102
RTVSPropertyOp6
 70
     1
102
RTVSPropertyOp7
 70
     1
102
RTVSPropertyOp8
 70
     1
102
RTVSPropertyOp9
 70
     1
102
RTVSPropertyOp10
 70
     1
102
RTVSPropertyOp11
 70
     1
102
RTVSPropertyOp12
 70
     1
102
RTVSPropertyOp13
 70
     1
102
RTVSPropertyOp14
 70
     1
102
RTVSPropertyOp15
 70
     1
102
RTVSPropertyOp16
 70
     1
102
RTVSPropertyOp17
 70
     1
102
RTVSPropertyOp18
 70
     1
102
RTVSPropertyOp19
 70
     1
102
RTVSPropertyOp20
 70
     1
102
RTVSPropertyOp21
 70
     1
102
RTVSPropertyOp22
 70
     1
102
RTVSPropertyOp23
 70
     1
102
RTVSPropertyOp24
 70
     1
102
RTVSPropertyOp25
 70
     1
102
RTVSPropertyOp26
 70
     1
102
RTVSPropertyOp27
 70
     1
102
RTVSPropertyOp28
 70
     1
102
RTVSPropertyOp29
 70
     1
102
RTVSPropertyOp30
 70
     1
102
RTVSPropertyOp31
 70
     1
102
RTVSPropertyOp32
 70
     1
102
RTVSPropertyOp33
 70
     1
102
RTVSPropertyOp34
 70
     1
102
RTVSPropertyOp35
 70
     1
102
RTVSPropertyOp36
 70
     1
102
RTVSPropertyOp37
 70
     1
102
RTVSPropertyOp38
 70
     1
102
RTVSPropertyOp39
 70
     1
102
RTVSPropertyOp40
 70
     1
102
RTVSPropertyOp41
 70
     1
102
RTVSPropertyOp42
 70
     1
102
RTVSPropertyOp43
 70
     1
102
RTVSPropertyOp44
 70
     1
102
RTVSPropertyOp45
 70
     1
102
RTVSPropertyOp46
 70
     1
102
RTVSPropertyOp47
 70
     1
102
RTVSPropertyOp48
 70
     1
102
RTVSPropertyOp49
 70
     1
102
RTVSPropertyOp50
 70
     1
102
RTVSPropertyOp51
 70
     0
102
RTVSPropertyOp52
 70
     0
102
RTVSPropertyOp53
 70
     1
102
RTVSPropertyOp54
 70
     1
102
RTVSPropertyOp55
 70
     1
102
RTVSPropertyOp56
 70
     1
102
RTVSPropertyOp57
 70
     1
102
RTVSPost2010Prop28
280
     0
102
RTVSPost2010PropOp28
 70
     1
102
RTVSPost2010Prop29
280
     1
102
RTVSPost2010PropOp29
 70
     1
102
RTVSPost2010Prop30
280
     1
102
RTVSPost2010PropOp30
 70
     1
102
RTVSPost2010Prop31
280
     0
102
RTVSPost2010PropOp31
 70
     1
102
RTVSPost2010Prop32
280
     0
102
RTVSPost2010PropOp32
 70
     1
102
RTVSPost2010Prop33
280
     0
102
RTVSPost2010PropOp33
 70
     1
102
RTVSPost2010Prop34
280
     0
102
RTVSPost2010PropOp34
 70
     1
102
RTVSPost2010Prop35
280
     0
102
RTVSPost2010PropOp35
 70
     1
102
RTVSPost2010Prop36
280
     0
102
RTVSPost2010PropOp36
 70
     1
102
RTVSPost2010Prop37
 90
       50
102
RTVSPost2010PropOp37
 70
     1
102
RTVSPost2010Prop38
140
0.0
102
RTVSPost2010PropOp38
 70
     1
102
RTVSPost2010Prop39
140
1.0
102
RTVSPost2010PropOp39
 70
     1
102
RTVSPost2010Prop40
 90
        0
102
RTVSPost2010PropOp40
 70
     1
102
RTVSPost2010Prop41ColorIndex
 90
       18
102
RTVSPost2010Prop41ColorRGB
 90
        0
102
RTVSPost2010PropOp41
 70
     1
102
RTVSPost2010Prop42
 90
       50
102
RTVSPost2010PropOp42
 70
     1
102
RTVSPost2010Prop43
 90
        3
102
RTVSPost2010PropOp43
 70
     1
102
RTVSPost2010Prop44ColorIndex
 90
        5
102
RTVSPost2010Prop44ColorRGB
 90
      255
102
RTVSPost2010PropOp44
 70
     1
102
RTVSPost2010Prop45
280
     0
102
RTVSPost2010PropOp45
 70
     1
102
RTVSPost2010Prop46
 90
       50
102
RTVSPost2010PropOp46
 70
     1
102
RTVSPost2010Prop47
 90
       50
102
RTVSPost2010PropOp47
 70
     1
102
RTVSPost2010Prop48
 90
       50
102
RTVSPost2010PropOp48
 70
     1
102
RTVSPost2010Prop49
280
     0
102
RTVSPost2010PropOp49
 70
     1
102
RTVSPost2010Prop50
 90
       50
102
RTVSPost2010PropOp50
 70
     1
102
RTVSPost2010Prop51ColorIndex
 90
      256
102
RTVSPost2010Prop51ColorRGB
 90
-16777216
102
RTVSPost2010PropOp51
 70
     0
102
RTVSPost2010Prop52
140
1.0
102
RTVSPost2010PropOp52
 70
     0
102
RTVSPost2010Prop53
 90
        2
102
RTVSPost2010PropOp53
 70
     1
102
RTVSPost2010Prop54
  1
strokes_ogs.tif
102
RTVSPost2010PropOp54
 70
     1
102
RTVSPost2010Prop55
280
     0
102
RTVSPost2010PropOp55
 70
     1
102
RTVSPost2010Prop56
140
1.0
102
RTVSPost2010PropOp56
 70
     1
102
RTVSPost2010Prop57
140
1.0
102
RTVSPost2010PropOp57
 70
     1
  0
XRECORD
  5
2FA
102
{ACAD_REACTORS
330
2F9
102
}
330
2F9
100
AcDbXrecord
280
     1
102
RTVSPropertyOp0
 70
     1
102
RTVSPropertyOp1
 70
     1
102
RTVSPropertyOp2
 70
     1
102
RTVSPropertyOp3
 70
     1
102
RTVSPropertyOp4
 70
     1
102
RTVSPropertyOp5
 70
     1
102
RTVSPropertyOp6
 70
     1
102
RTVSPropertyOp7
 70
     1
102
RTVSPropertyOp8
 70
     1
102
RTVSPropertyOp9
 70
     1
102
RTVSPropertyOp10
 70
     1
102
RTVSPropertyOp11
 70
     1
102
RTVSPropertyOp12
 70
     1
102
RTVSPropertyOp13
 70
     1
102
RTVSPropertyOp14
 70
     1
102
RTVSPropertyOp15
 70
     1
102
RTVSPropertyOp16
 70
     1
102
RTVSPropertyOp17
 70
     1
102
RTVSPropertyOp18
 70
     1
102
RTVSPropertyOp19
 70
     1
102
RTVSPropertyOp20
 70
     1
102
RTVSPropertyOp21
 70
     1
102
RTVSPropertyOp22
 70
     1
102
RTVSPropertyOp23
 70
     1
102
RTVSPropertyOp24
 70
     1
102
RTVSPropertyOp25
 70
     1
102
RTVSPropertyOp26
 70
     1
102
RTVSPropertyOp27
 70
     1
102
RTVSPropertyOp28
 70
     1
102
RTVSPropertyOp29
 70
     1
102
RTVSPropertyOp30
 70
     1
102
RTVSPropertyOp31
 70
     1
102
RTVSPropertyOp32
 70
     1
102
RTVSPropertyOp33
 70
     1
102
RTVSPropertyOp34
 70
     1
102
RTVSPropertyOp35
 70
     1
102
RTVSPropertyOp36
 70
     1
102
RTVSPropertyOp37
 70
     1
102
RTVSPropertyOp38
 70
     1
102
RTVSPropertyOp39
 70
     1
102
RTVSPropertyOp40
 70
     1
102
RTVSPropertyOp41
 70
     1
102
RTVSPropertyOp42
 70
     1
102
RTVSPropertyOp43
 70
     1
102
RTVSPropertyOp44
 70
     1
102
RTVSPropertyOp45
 70
     1
102
RTVSPropertyOp46
 70
     1
102
RTVSPropertyOp47
 70
     1
102
RTVSPropertyOp48
 70
     1
102
RTVSPropertyOp49
 70
     1
102
RTVSPropertyOp50
 70
     1
102
RTVSPropertyOp51
 70
     0
102
RTVSPropertyOp52
 70
     0
102
RTVSPropertyOp53
 70
     1
102
RTVSPropertyOp54
 70
     1
102
RTVSPropertyOp55
 70
     1
102
RTVSPropertyOp56
 70
     1
102
RTVSPropertyOp57
 70
     1
102
RTVSPost2010Prop28
280
     0
102
RTVSPost2010PropOp28
 70
     1
102
RTVSPost2010Prop29
280
     1
102
RTVSPost2010PropOp29
 70
     1
102
RTVSPost2010Prop30
280
     1
102
RTVSPost2010PropOp30
 70
     1
102
RTVSPost2010Prop31
280
     0
102
RTVSPost2010PropOp31
 70
     1
102
RTVSPost2010Prop32
280
     0
102
RTVSPost2010PropOp32
 70
     1
102
RTVSPost2010Prop33
280
     0
102
RTVSPost2010PropOp33
 70
     1
102
RTVSPost2010Prop34
280
     0
102
RTVSPost2010PropOp34
 70
     1
102
RTVSPost2010Prop35
280
     0
102
RTVSPost2010PropOp35
 70
     1
102
RTVSPost2010Prop36
280
     0
102
RTVSPost2010PropOp36
 70
     1
102
RTVSPost2010Prop37
 90
       50
102
RTVSPost2010PropOp37
 70
     1
102
RTVSPost2010Prop38
140
0.0
102
RTVSPost2010PropOp38
 70
     1
102
RTVSPost2010Prop39
140
1.0
102
RTVSPost2010PropOp39
 70
     1
102
RTVSPost2010Prop40
 90
        0
102
RTVSPost2010PropOp40
 70
     1
102
RTVSPost2010Prop41ColorIndex
 90
       18
102
RTVSPost2010Prop41ColorRGB
 90
        0
102
RTVSPost2010PropOp41
 70
     1
102
RTVSPost2010Prop42
 90
       50
102
RTVSPost2010PropOp42
 70
     1
102
RTVSPost2010Prop43
 90
        3
102
RTVSPost2010PropOp43
 70
     1
102
RTVSPost2010Prop44ColorIndex
 90
        5
102
RTVSPost2010Prop44ColorRGB
 90
      255
102
RTVSPost2010PropOp44
 70
     1
102
RTVSPost2010Prop45
280
     0
102
RTVSPost2010PropOp45
 70
     1
102
RTVSPost2010Prop46
 90
       50
102
RTVSPost2010PropOp46
 70
     1
102
RTVSPost2010Prop47
 90
       50
102
RTVSPost2010PropOp47
 70
     1
102
RTVSPost2010Prop48
 90
       50
102
RTVSPost2010PropOp48
 70
     1
102
RTVSPost2010Prop49
280
     0
102
RTVSPost2010PropOp49
 70
     1
102
RTVSPost2010Prop50
 90
       50
102
RTVSPost2010PropOp50
 70
     1
102
RTVSPost2010Prop51ColorIndex
 90
      256
102
RTVSPost2010Prop51ColorRGB
 90
-16777216
102
RTVSPost2010PropOp51
 70
     0
102
RTVSPost2010Prop52
140
1.0
102
RTVSPost2010PropOp52
 70
     0
102
RTVSPost2010Prop53
 90
        2
102
RTVSPost2010PropOp53
 70
     1
102
RTVSPost2010Prop54
  1
strokes_ogs.tif
102
RTVSPost2010PropOp54
 70
     1
102
RTVSPost2010Prop55
280
     0
102
RTVSPost2010PropOp55
 70
     1
102
RTVSPost2010Prop56
140
1.0
102
RTVSPost2010PropOp56
 70
     1
102
RTVSPost2010Prop57
140
1.0
102
RTVSPost2010PropOp57
 70
     1
  0
XRECORD
  5
2EE
102
{ACAD_REACTORS
330
2ED
102
}
330
2ED
100
AcDbXrecord
280
     1
102
RTVSPropertyOp0
 70
     1
102
RTVSPropertyOp1
 70
     1
102
RTVSPropertyOp2
 70
     1
102
RTVSPropertyOp3
 70
     1
102
RTVSPropertyOp4
 70
     1
102
RTVSPropertyOp5
 70
     1
102
RTVSPropertyOp6
 70
     1
102
RTVSPropertyOp7
 70
     1
102
RTVSPropertyOp8
 70
     1
102
RTVSPropertyOp9
 70
     1
102
RTVSPropertyOp10
 70
     1
102
RTVSPropertyOp11
 70
     1
102
RTVSPropertyOp12
 70
     1
102
RTVSPropertyOp13
 70
     1
102
RTVSPropertyOp14
 70
     1
102
RTVSPropertyOp15
 70
     1
102
RTVSPropertyOp16
 70
     1
102
RTVSPropertyOp17
 70
     1
102
RTVSPropertyOp18
 70
     1
102
RTVSPropertyOp19
 70
     1
102
RTVSPropertyOp20
 70
     1
102
RTVSPropertyOp21
 70
     1
102
RTVSPropertyOp22
 70
     1
102
RTVSPropertyOp23
 70
     1
102
RTVSPropertyOp24
 70
     1
102
RTVSPropertyOp25
 70
     1
102
RTVSPropertyOp26
 70
     1
102
RTVSPropertyOp27
 70
     1
102
RTVSPropertyOp28
 70
     1
102
RTVSPropertyOp29
 70
     1
102
RTVSPropertyOp30
 70
     1
102
RTVSPropertyOp31
 70
     1
102
RTVSPropertyOp32
 70
     1
102
RTVSPropertyOp33
 70
     1
102
RTVSPropertyOp34
 70
     1
102
RTVSPropertyOp35
 70
     1
102
RTVSPropertyOp36
 70
     1
102
RTVSPropertyOp37
 70
     1
102
RTVSPropertyOp38
 70
     1
102
RTVSPropertyOp39
 70
     1
102
RTVSPropertyOp40
 70
     1
102
RTVSPropertyOp41
 70
     1
102
RTVSPropertyOp42
 70
     1
102
RTVSPropertyOp43
 70
     1
102
RTVSPropertyOp44
 70
     1
102
RTVSPropertyOp45
 70
     1
102
RTVSPropertyOp46
 70
     1
102
RTVSPropertyOp47
 70
     1
102
RTVSPropertyOp48
 70
     1
102
RTVSPropertyOp49
 70
     1
102
RTVSPropertyOp50
 70
     1
102
RTVSPropertyOp51
 70
     0
102
RTVSPropertyOp52
 70
     0
102
RTVSPropertyOp53
 70
     1
102
RTVSPropertyOp54
 70
     1
102
RTVSPropertyOp55
 70
     1
102
RTVSPropertyOp56
 70
     1
102
RTVSPropertyOp57
 70
     1
102
RTVSPost2010Prop28
280
     0
102
RTVSPost2010PropOp28
 70
     1
102
RTVSPost2010Prop29
280
     1
102
RTVSPost2010PropOp29
 70
     1
102
RTVSPost2010Prop30
280
     1
102
RTVSPost2010PropOp30
 70
     1
102
RTVSPost2010Prop31
280
     0
102
RTVSPost2010PropOp31
 70
     1
102
RTVSPost2010Prop32
280
     0
102
RTVSPost2010PropOp32
 70
     1
102
RTVSPost2010Prop33
280
     0
102
RTVSPost2010PropOp33
 70
     1
102
RTVSPost2010Prop34
280
     0
102
RTVSPost2010PropOp34
 70
     1
102
RTVSPost2010Prop35
280
     0
102
RTVSPost2010PropOp35
 70
     1
102
RTVSPost2010Prop36
280
     0
102
RTVSPost2010PropOp36
 70
     1
102
RTVSPost2010Prop37
 90
       50
102
RTVSPost2010PropOp37
 70
     1
102
RTVSPost2010Prop38
140
0.0
102
RTVSPost2010PropOp38
 70
     1
102
RTVSPost2010Prop39
140
1.0
102
RTVSPost2010PropOp39
 70
     1
102
RTVSPost2010Prop40
 90
        0
102
RTVSPost2010PropOp40
 70
     1
102
RTVSPost2010Prop41ColorIndex
 90
       18
102
RTVSPost2010Prop41ColorRGB
 90
        0
102
RTVSPost2010PropOp41
 70
     1
102
RTVSPost2010Prop42
 90
       50
102
RTVSPost2010PropOp42
 70
     1
102
RTVSPost2010Prop43
 90
        3
102
RTVSPost2010PropOp43
 70
     1
102
RTVSPost2010Prop44ColorIndex
 90
        5
102
RTVSPost2010Prop44ColorRGB
 90
      255
102
RTVSPost2010PropOp44
 70
     1
102
RTVSPost2010Prop45
280
     0
102
RTVSPost2010PropOp45
 70
     1
102
RTVSPost2010Prop46
 90
       50
102
RTVSPost2010PropOp46
 70
     1
102
RTVSPost2010Prop47
 90
       50
102
RTVSPost2010PropOp47
 70
     1
102
RTVSPost2010Prop48
 90
       50
102
RTVSPost2010PropOp48
 70
     1
102
RTVSPost2010Prop49
280
     0
102
RTVSPost2010PropOp49
 70
     1
102
RTVSPost2010Prop50
 90
       50
102
RTVSPost2010PropOp50
 70
     1
102
RTVSPost2010Prop51ColorIndex
 90
      256
102
RTVSPost2010Prop51ColorRGB
 90
-16777216
102
RTVSPost2010PropOp51
 70
     0
102
RTVSPost2010Prop52
140
1.0
102
RTVSPost2010PropOp52
 70
     0
102
RTVSPost2010Prop53
 90
        2
102
RTVSPost2010PropOp53
 70
     1
102
RTVSPost2010Prop54
  1
strokes_ogs.tif
102
RTVSPost2010PropOp54
 70
     1
102
RTVSPost2010Prop55
280
     0
102
RTVSPost2010PropOp55
 70
     1
102
RTVSPost2010Prop56
140
1.0
102
RTVSPost2010PropOp56
 70
     1
102
RTVSPost2010Prop57
140
1.0
102
RTVSPost2010PropOp57
 70
     1
  0
XRECORD
  5
2F0
102
{ACAD_REACTORS
330
2EF
102
}
330
2EF
100
AcDbXrecord
280
     1
102
RTVSPropertyOp0
 70
     1
102
RTVSPropertyOp1
 70
     1
102
RTVSPropertyOp2
 70
     1
102
RTVSPropertyOp3
 70
     1
102
RTVSPropertyOp4
 70
     1
102
RTVSPropertyOp5
 70
     1
102
RTVSPropertyOp6
 70
     1
102
RTVSPropertyOp7
 70
     1
102
RTVSPropertyOp8
 70
     1
102
RTVSPropertyOp9
 70
     1
102
RTVSPropertyOp10
 70
     1
102
RTVSPropertyOp11
 70
     1
102
RTVSPropertyOp12
 70
     1
102
RTVSPropertyOp13
 70
     1
102
RTVSPropertyOp14
 70
     1
102
RTVSPropertyOp15
 70
     1
102
RTVSPropertyOp16
 70
     1
102
RTVSPropertyOp17
 70
     1
102
RTVSPropertyOp18
 70
     1
102
RTVSPropertyOp19
 70
     1
102
RTVSPropertyOp20
 70
     1
102
RTVSPropertyOp21
 70
     1
102
RTVSPropertyOp22
 70
     1
102
RTVSPropertyOp23
 70
     1
102
RTVSPropertyOp24
 70
     1
102
RTVSPropertyOp25
 70
     1
102
RTVSPropertyOp26
 70
     1
102
RTVSPropertyOp27
 70
     1
102
RTVSPropertyOp28
 70
     1
102
RTVSPropertyOp29
 70
     1
102
RTVSPropertyOp30
 70
     1
102
RTVSPropertyOp31
 70
     1
102
RTVSPropertyOp32
 70
     1
102
RTVSPropertyOp33
 70
     1
102
RTVSPropertyOp34
 70
     1
102
RTVSPropertyOp35
 70
     1
102
RTVSPropertyOp36
 70
     1
102
RTVSPropertyOp37
 70
     1
102
RTVSPropertyOp38
 70
     1
102
RTVSPropertyOp39
 70
     1
102
RTVSPropertyOp40
 70
     1
102
RTVSPropertyOp41
 70
     1
102
RTVSPropertyOp42
 70
     1
102
RTVSPropertyOp43
 70
     1
102
RTVSPropertyOp44
 70
     1
102
RTVSPropertyOp45
 70
     1
102
RTVSPropertyOp46
 70
     1
102
RTVSPropertyOp47
 70
     1
102
RTVSPropertyOp48
 70
     1
102
RTVSPropertyOp49
 70
     1
102
RTVSPropertyOp50
 70
     1
102
RTVSPropertyOp51
 70
     0
102
RTVSPropertyOp52
 70
     0
102
RTVSPropertyOp53
 70
     1
102
RTVSPropertyOp54
 70
     1
102
RTVSPropertyOp55
 70
     1
102
RTVSPropertyOp56
 70
     1
102
RTVSPropertyOp57
 70
     1
102
RTVSPost2010Prop28
280
     0
102
RTVSPost2010PropOp28
 70
     1
102
RTVSPost2010Prop29
280
     1
102
RTVSPost2010PropOp29
 70
     1
102
RTVSPost2010Prop30
280
     1
102
RTVSPost2010PropOp30
 70
     1
102
RTVSPost2010Prop31
280
     0
102
RTVSPost2010PropOp31
 70
     1
102
RTVSPost2010Prop32
280
     0
102
RTVSPost2010PropOp32
 70
     1
102
RTVSPost2010Prop33
280
     0
102
RTVSPost2010PropOp33
 70
     1
102
RTVSPost2010Prop34
280
     0
102
RTVSPost2010PropOp34
 70
     1
102
RTVSPost2010Prop35
280
     0
102
RTVSPost2010PropOp35
 70
     1
102
RTVSPost2010Prop36
280
     0
102
RTVSPost2010PropOp36
 70
     1
102
RTVSPost2010Prop37
 90
       50
102
RTVSPost2010PropOp37
 70
     1
102
RTVSPost2010Prop38
140
0.0
102
RTVSPost2010PropOp38
 70
     1
102
RTVSPost2010Prop39
140
1.0
102
RTVSPost2010PropOp39
 70
     1
102
RTVSPost2010Prop40
 90
        0
102
RTVSPost2010PropOp40
 70
     1
102
RTVSPost2010Prop41ColorIndex
 90
       18
102
RTVSPost2010Prop41ColorRGB
 90
        0
102
RTVSPost2010PropOp41
 70
     1
102
RTVSPost2010Prop42
 90
       50
102
RTVSPost2010PropOp42
 70
     1
102
RTVSPost2010Prop43
 90
        3
102
RTVSPost2010PropOp43
 70
     1
102
RTVSPost2010Prop44ColorIndex
 90
        5
102
RTVSPost2010Prop44ColorRGB
 90
      255
102
RTVSPost2010PropOp44
 70
     1
102
RTVSPost2010Prop45
280
     0
102
RTVSPost2010PropOp45
 70
     1
102
RTVSPost2010Prop46
 90
       50
102
RTVSPost2010PropOp46
 70
     1
102
RTVSPost2010Prop47
 90
       50
102
RTVSPost2010PropOp47
 70
     1
102
RTVSPost2010Prop48
 90
       50
102
RTVSPost2010PropOp48
 70
     1
102
RTVSPost2010Prop49
280
     0
102
RTVSPost2010PropOp49
 70
     1
102
RTVSPost2010Prop50
 90
       50
102
RTVSPost2010PropOp50
 70
     1
102
RTVSPost2010Prop51ColorIndex
 90
      256
102
RTVSPost2010Prop51ColorRGB
 90
-16777216
102
RTVSPost2010PropOp51
 70
     0
102
RTVSPost2010Prop52
140
1.0
102
RTVSPost2010PropOp52
 70
     0
102
RTVSPost2010Prop53
 90
        2
102
RTVSPost2010PropOp53
 70
     1
102
RTVSPost2010Prop54
  1
strokes_ogs.tif
102
RTVSPost2010PropOp54
 70
     1
102
RTVSPost2010Prop55
280
     0
102
RTVSPost2010PropOp55
 70
     1
102
RTVSPost2010Prop56
140
1.0
102
RTVSPost2010PropOp56
 70
     1
102
RTVSPost2010Prop57
140
1.0
102
RTVSPost2010PropOp57
 70
     1
  0
XRECORD
  5
300
102
{ACAD_REACTORS
330
2FF
102
}
330
2FF
100
AcDbXrecord
280
     1
102
RTVSPropertyOp0
 70
     0
102
RTVSPropertyOp1
 70
     0
102
RTVSPropertyOp2
 70
     0
102
RTVSPropertyOp3
 70
     0
102
RTVSPropertyOp4
 70
     0
102
RTVSPropertyOp5
 70
     0
102
RTVSPropertyOp6
 70
     0
102
RTVSPropertyOp7
 70
     0
102
RTVSPropertyOp8
 70
     0
102
RTVSPropertyOp9
 70
     0
102
RTVSPropertyOp10
 70
     0
102
RTVSPropertyOp11
 70
     0
102
RTVSPropertyOp12
 70
     0
102
RTVSPropertyOp13
 70
     0
102
RTVSPropertyOp14
 70
     2
102
RTVSPropertyOp15
 70
     0
102
RTVSPropertyOp16
 70
     0
102
RTVSPropertyOp17
 70
     0
102
RTVSPropertyOp18
 70
     0
102
RTVSPropertyOp19
 70
     0
102
RTVSPropertyOp20
 70
     0
102
RTVSPropertyOp21
 70
     0
102
RTVSPropertyOp22
 70
     0
102
RTVSPropertyOp23
 70
     0
102
RTVSPropertyOp24
 70
     0
102
RTVSPropertyOp25
 70
     0
102
RTVSPropertyOp26
 70
     0
102
RTVSPropertyOp27
 70
     0
102
RTVSPropertyOp28
 70
     0
102
RTVSPropertyOp29
 70
     0
102
RTVSPropertyOp30
 70
     0
102
RTVSPropertyOp31
 70
     0
102
RTVSPropertyOp32
 70
     0
102
RTVSPropertyOp33
 70
     0
102
RTVSPropertyOp34
 70
     0
102
RTVSPropertyOp35
 70
     0
102
RTVSPropertyOp36
 70
     0
102
RTVSPropertyOp37
 70
     0
102
RTVSPropertyOp38
 70
     0
102
RTVSPropertyOp39
 70
     0
102
RTVSPropertyOp40
 70
     0
102
RTVSPropertyOp41
 70
     0
102
RTVSPropertyOp42
 70
     0
102
RTVSPropertyOp43
 70
     0
102
RTVSPropertyOp44
 70
     0
102
RTVSPropertyOp45
 70
     0
102
RTVSPropertyOp46
 70
     0
102
RTVSPropertyOp47
 70
     0
102
RTVSPropertyOp48
 70
     0
102
RTVSPropertyOp49
 70
     0
102
RTVSPropertyOp50
 70
     0
102
RTVSPropertyOp51
 70
     0
102
RTVSPropertyOp52
 70
     0
102
RTVSPropertyOp53
 70
     0
102
RTVSPropertyOp54
 70
     0
102
RTVSPropertyOp55
 70
     0
102
RTVSPropertyOp56
 70
     0
102
RTVSPropertyOp57
 70
     0
102
RTVSPost2010Prop28
280
     0
102
RTVSPost2010PropOp28
 70
     0
102
RTVSPost2010Prop29
280
     1
102
RTVSPost2010PropOp29
 70
     0
102
RTVSPost2010Prop30
280
     1
102
RTVSPost2010PropOp30
 70
     0
102
RTVSPost2010Prop31
280
     0
102
RTVSPost2010PropOp31
 70
     0
102
RTVSPost2010Prop32
280
     0
102
RTVSPost2010PropOp32
 70
     0
102
RTVSPost2010Prop33
280
     0
102
RTVSPost2010PropOp33
 70
     0
102
RTVSPost2010Prop34
280
     0
102
RTVSPost2010PropOp34
 70
     0
102
RTVSPost2010Prop35
280
     0
102
RTVSPost2010PropOp35
 70
     0
102
RTVSPost2010Prop36
280
     0
102
RTVSPost2010PropOp36
 70
     0
102
RTVSPost2010Prop37
 90
       50
102
RTVSPost2010PropOp37
 70
     0
102
RTVSPost2010Prop38
140
0.0
102
RTVSPost2010PropOp38
 70
     0
102
RTVSPost2010Prop39
140
1.0
102
RTVSPost2010PropOp39
 70
     0
102
RTVSPost2010Prop40
 90
        0
102
RTVSPost2010PropOp40
 70
     0
102
RTVSPost2010Prop41ColorIndex
 90
       18
102
RTVSPost2010Prop41ColorRGB
 90
        0
102
RTVSPost2010PropOp41
 70
     0
102
RTVSPost2010Prop42
 90
       50
102
RTVSPost2010PropOp42
 70
     0
102
RTVSPost2010Prop43
 90
        3
102
RTVSPost2010PropOp43
 70
     0
102
RTVSPost2010Prop44ColorIndex
 90
        5
102
RTVSPost2010Prop44ColorRGB
 90
      255
102
RTVSPost2010PropOp44
 70
     0
102
RTVSPost2010Prop45
280
     0
102
RTVSPost2010PropOp45
 70
     0
102
RTVSPost2010Prop46
 90
       50
102
RTVSPost2010PropOp46
 70
     0
102
RTVSPost2010Prop47
 90
       50
102
RTVSPost2010PropOp47
 70
     0
102
RTVSPost2010Prop48
 90
       50
102
RTVSPost2010PropOp48
 70
     0
102
RTVSPost2010Prop49
280
     0
102
RTVSPost2010PropOp49
 70
     0
102
RTVSPost2010Prop50
 90
       50
102
RTVSPost2010PropOp50
 70
     0
102
RTVSPost2010Prop51ColorIndex
 90
      256
102
RTVSPost2010Prop51ColorRGB
 90
-16777216
102
RTVSPost2010PropOp51
 70
     0
102
RTVSPost2010Prop52
140
1.0
102
RTVSPost2010PropOp52
 70
     0
102
RTVSPost2010Prop53
 90
        2
102
RTVSPost2010PropOp53
 70
     0
102
RTVSPost2010Prop54
  1
strokes_ogs.tif
102
RTVSPost2010PropOp54
 70
     0
102
RTVSPost2010Prop55
280
     0
102
RTVSPost2010PropOp55
 70
     0
102
RTVSPost2010Prop56
140
1.0
102
RTVSPost2010PropOp56
 70
     0
102
RTVSPost2010Prop57
140
1.0
102
RTVSPost2010PropOp57
 70
     0
  0
XRECORD
  5
2F8
102
{ACAD_REACTORS
330
2F7
102
}
330
2F7
100
AcDbXrecord
280
     1
102
RTVSPropertyOp0
 70
     1
102
RTVSPropertyOp1
 70
     1
102
RTVSPropertyOp2
 70
     1
102
RTVSPropertyOp3
 70
     1
102
RTVSPropertyOp4
 70
     1
102
RTVSPropertyOp5
 70
     1
102
RTVSPropertyOp6
 70
     1
102
RTVSPropertyOp7
 70
     1
102
RTVSPropertyOp8
 70
     1
102
RTVSPropertyOp9
 70
     1
102
RTVSPropertyOp10
 70
     1
102
RTVSPropertyOp11
 70
     1
102
RTVSPropertyOp12
 70
     1
102
RTVSPropertyOp13
 70
     1
102
RTVSPropertyOp14
 70
     1
102
RTVSPropertyOp15
 70
     1
102
RTVSPropertyOp16
 70
     1
102
RTVSPropertyOp17
 70
     1
102
RTVSPropertyOp18
 70
     1
102
RTVSPropertyOp19
 70
     1
102
RTVSPropertyOp20
 70
     1
102
RTVSPropertyOp21
 70
     1
102
RTVSPropertyOp22
 70
     1
102
RTVSPropertyOp23
 70
     1
102
RTVSPropertyOp24
 70
     1
102
RTVSPropertyOp25
 70
     1
102
RTVSPropertyOp26
 70
     1
102
RTVSPropertyOp27
 70
     1
102
RTVSPropertyOp28
 70
     1
102
RTVSPropertyOp29
 70
     1
102
RTVSPropertyOp30
 70
     1
102
RTVSPropertyOp31
 70
     1
102
RTVSPropertyOp32
 70
     1
102
RTVSPropertyOp33
 70
     1
102
RTVSPropertyOp34
 70
     1
102
RTVSPropertyOp35
 70
     1
102
RTVSPropertyOp36
 70
     1
102
RTVSPropertyOp37
 70
     1
102
RTVSPropertyOp38
 70
     1
102
RTVSPropertyOp39
 70
     1
102
RTVSPropertyOp40
 70
     1
102
RTVSPropertyOp41
 70
     1
102
RTVSPropertyOp42
 70
     1
102
RTVSPropertyOp43
 70
     1
102
RTVSPropertyOp44
 70
     1
102
RTVSPropertyOp45
 70
     1
102
RTVSPropertyOp46
 70
     1
102
RTVSPropertyOp47
 70
     1
102
RTVSPropertyOp48
 70
     1
102
RTVSPropertyOp49
 70
     1
102
RTVSPropertyOp50
 70
     1
102
RTVSPropertyOp51
 70
     0
102
RTVSPropertyOp52
 70
     0
102
RTVSPropertyOp53
 70
     1
102
RTVSPropertyOp54
 70
     1
102
RTVSPropertyOp55
 70
     1
102
RTVSPropertyOp56
 70
     1
102
RTVSPropertyOp57
 70
     1
102
RTVSPost2010Prop28
280
     0
102
RTVSPost2010PropOp28
 70
     1
102
RTVSPost2010Prop29
280
     1
102
RTVSPost2010PropOp29
 70
     1
102
RTVSPost2010Prop30
280
     1
102
RTVSPost2010PropOp30
 70
     1
102
RTVSPost2010Prop31
280
     0
102
RTVSPost2010PropOp31
 70
     1
102
RTVSPost2010Prop32
280
     0
102
RTVSPost2010PropOp32
 70
     1
102
RTVSPost2010Prop33
280
     0
102
RTVSPost2010PropOp33
 70
     1
102
RTVSPost2010Prop34
280
     0
102
RTVSPost2010PropOp34
 70
     1
102
RTVSPost2010Prop35
280
     0
102
RTVSPost2010PropOp35
 70
     1
102
RTVSPost2010Prop36
280
     0
102
RTVSPost2010PropOp36
 70
     1
102
RTVSPost2010Prop37
 90
       50
102
RTVSPost2010PropOp37
 70
     1
102
RTVSPost2010Prop38
140
0.0
102
RTVSPost2010PropOp38
 70
     1
102
RTVSPost2010Prop39
140
1.0
102
RTVSPost2010PropOp39
 70
     1
102
RTVSPost2010Prop40
 90
        0
102
RTVSPost2010PropOp40
 70
     1
102
RTVSPost2010Prop41ColorIndex
 90
       18
102
RTVSPost2010Prop41ColorRGB
 90
        0
102
RTVSPost2010PropOp41
 70
     1
102
RTVSPost2010Prop42
 90
       50
102
RTVSPost2010PropOp42
 70
     1
102
RTVSPost2010Prop43
 90
        3
102
RTVSPost2010PropOp43
 70
     1
102
RTVSPost2010Prop44ColorIndex
 90
        5
102
RTVSPost2010Prop44ColorRGB
 90
      255
102
RTVSPost2010PropOp44
 70
     1
102
RTVSPost2010Prop45
280
     0
102
RTVSPost2010PropOp45
 70
     1
102
RTVSPost2010Prop46
 90
       50
102
RTVSPost2010PropOp46
 70
     1
102
RTVSPost2010Prop47
 90
       50
102
RTVSPost2010PropOp47
 70
     1
102
RTVSPost2010Prop48
 90
       50
102
RTVSPost2010PropOp48
 70
     1
102
RTVSPost2010Prop49
280
     0
102
RTVSPost2010PropOp49
 70
     1
102
RTVSPost2010Prop50
 90
       50
102
RTVSPost2010PropOp50
 70
     1
102
RTVSPost2010Prop51ColorIndex
 90
      256
102
RTVSPost2010Prop51ColorRGB
 90
-16777216
102
RTVSPost2010PropOp51
 70
     0
102
RTVSPost2010Prop52
140
1.0
102
RTVSPost2010PropOp52
 70
     0
102
RTVSPost2010Prop53
 90
        2
102
RTVSPost2010PropOp53
 70
     1
102
RTVSPost2010Prop54
  1
strokes_ogs.tif
102
RTVSPost2010PropOp54
 70
     1
102
RTVSPost2010Prop55
280
     0
102
RTVSPost2010PropOp55
 70
     1
102
RTVSPost2010Prop56
140
1.0
102
RTVSPost2010PropOp56
 70
     1
102
RTVSPost2010Prop57
140
1.0
102
RTVSPost2010PropOp57
 70
     1
  0
XRECORD
  5
2DC
102
{ACAD_REACTORS
330
2DB
102
}
330
2DB
100
AcDbXrecord
280
     1
102
RTVSPropertyOp0
 70
     1
102
RTVSPropertyOp1
 70
     1
102
RTVSPropertyOp2
 70
     1
102
RTVSPropertyOp3
 70
     1
102
RTVSPropertyOp4
 70
     1
102
RTVSPropertyOp5
 70
     1
102
RTVSPropertyOp6
 70
     1
102
RTVSPropertyOp7
 70
     1
102
RTVSPropertyOp8
 70
     1
102
RTVSPropertyOp9
 70
     1
102
RTVSPropertyOp10
 70
     1
102
RTVSPropertyOp11
 70
     1
102
RTVSPropertyOp12
 70
     1
102
RTVSPropertyOp13
 70
     1
102
RTVSPropertyOp14
 70
     1
102
RTVSPropertyOp15
 70
     1
102
RTVSPropertyOp16
 70
     1
102
RTVSPropertyOp17
 70
     1
102
RTVSPropertyOp18
 70
     1
102
RTVSPropertyOp19
 70
     1
102
RTVSPropertyOp20
 70
     1
102
RTVSPropertyOp21
 70
     1
102
RTVSPropertyOp22
 70
     1
102
RTVSPropertyOp23
 70
     1
102
RTVSPropertyOp24
 70
     1
102
RTVSPropertyOp25
 70
     1
102
RTVSPropertyOp26
 70
     1
102
RTVSPropertyOp27
 70
     1
102
RTVSPropertyOp28
 70
     1
102
RTVSPropertyOp29
 70
     1
102
RTVSPropertyOp30
 70
     1
102
RTVSPropertyOp31
 70
     1
102
RTVSPropertyOp32
 70
     1
102
RTVSPropertyOp33
 70
     1
102
RTVSPropertyOp34
 70
     1
102
RTVSPropertyOp35
 70
     1
102
RTVSPropertyOp36
 70
     1
102
RTVSPropertyOp37
 70
     1
102
RTVSPropertyOp38
 70
     1
102
RTVSPropertyOp39
 70
     1
102
RTVSPropertyOp40
 70
     1
102
RTVSPropertyOp41
 70
     1
102
RTVSPropertyOp42
 70
     1
102
RTVSPropertyOp43
 70
     1
102
RTVSPropertyOp44
 70
     1
102
RTVSPropertyOp45
 70
     1
102
RTVSPropertyOp46
 70
     1
102
RTVSPropertyOp47
 70
     1
102
RTVSPropertyOp48
 70
     1
102
RTVSPropertyOp49
 70
     1
102
RTVSPropertyOp50
 70
     1
102
RTVSPropertyOp51
 70
     0
102
RTVSPropertyOp52
 70
     0
102
RTVSPropertyOp53
 70
     1
102
RTVSPropertyOp54
 70
     1
102
RTVSPropertyOp55
 70
     1
102
RTVSPropertyOp56
 70
     1
102
RTVSPropertyOp57
 70
     1
102
RTVSPost2010Prop28
280
     0
102
RTVSPost2010PropOp28
 70
     1
102
RTVSPost2010Prop29
280
     1
102
RTVSPost2010PropOp29
 70
     1
102
RTVSPost2010Prop30
280
     1
102
RTVSPost2010PropOp30
 70
     1
102
RTVSPost2010Prop31
280
     0
102
RTVSPost2010PropOp31
 70
     1
102
RTVSPost2010Prop32
280
     0
102
RTVSPost2010PropOp32
 70
     1
102
RTVSPost2010Prop33
280
     0
102
RTVSPost2010PropOp33
 70
     1
102
RTVSPost2010Prop34
280
     0
102
RTVSPost2010PropOp34
 70
     1
102
RTVSPost2010Prop35
280
     0
102
RTVSPost2010PropOp35
 70
     1
102
RTVSPost2010Prop36
280
     0
102
RTVSPost2010PropOp36
 70
     1
102
RTVSPost2010Prop37
 90
       50
102
RTVSPost2010PropOp37
 70
     1
102
RTVSPost2010Prop38
140
0.0
102
RTVSPost2010PropOp38
 70
     1
102
RTVSPost2010Prop39
140
1.0
102
RTVSPost2010PropOp39
 70
     1
102
RTVSPost2010Prop40
 90
        0
102
RTVSPost2010PropOp40
 70
     1
102
RTVSPost2010Prop41ColorIndex
 90
       18
102
RTVSPost2010Prop41ColorRGB
 90
        0
102
RTVSPost2010PropOp41
 70
     1
102
RTVSPost2010Prop42
 90
       50
102
RTVSPost2010PropOp42
 70
     1
102
RTVSPost2010Prop43
 90
        3
102
RTVSPost2010PropOp43
 70
     1
102
RTVSPost2010Prop44ColorIndex
 90
        5
102
RTVSPost2010Prop44ColorRGB
 90
      255
102
RTVSPost2010PropOp44
 70
     1
102
RTVSPost2010Prop45
280
     0
102
RTVSPost2010PropOp45
 70
     1
102
RTVSPost2010Prop46
 90
       50
102
RTVSPost2010PropOp46
 70
     1
102
RTVSPost2010Prop47
 90
       50
102
RTVSPost2010PropOp47
 70
     1
102
RTVSPost2010Prop48
 90
       50
102
RTVSPost2010PropOp48
 70
     1
102
RTVSPost2010Prop49
280
     0
102
RTVSPost2010PropOp49
 70
     1
102
RTVSPost2010Prop50
 90
       50
102
RTVSPost2010PropOp50
 70
     1
102
RTVSPost2010Prop51ColorIndex
 90
      256
102
RTVSPost2010Prop51ColorRGB
 90
-16777216
102
RTVSPost2010PropOp51
 70
     0
102
RTVSPost2010Prop52
140
1.0
102
RTVSPost2010PropOp52
 70
     0
102
RTVSPost2010Prop53
 90
        2
102
RTVSPost2010PropOp53
 70
     1
102
RTVSPost2010Prop54
  1
strokes_ogs.tif
102
RTVSPost2010PropOp54
 70
     1
102
RTVSPost2010Prop55
280
     0
102
RTVSPost2010PropOp55
 70
     1
102
RTVSPost2010Prop56
140
1.0
102
RTVSPost2010PropOp56
 70
     1
102
RTVSPost2010Prop57
140
1.0
102
RTVSPost2010PropOp57
 70
     1
  0
XRECORD
  5
2DE
102
{ACAD_REACTORS
330
2DD
102
}
330
2DD
100
AcDbXrecord
280
     1
102
RTVSPropertyOp0
 70
     1
102
RTVSPropertyOp1
 70
     1
102
RTVSPropertyOp2
 70
     1
102
RTVSPropertyOp3
 70
     1
102
RTVSPropertyOp4
 70
     1
102
RTVSPropertyOp5
 70
     1
102
RTVSPropertyOp6
 70
     1
102
RTVSPropertyOp7
 70
     1
102
RTVSPropertyOp8
 70
     1
102
RTVSPropertyOp9
 70
     1
102
RTVSPropertyOp10
 70
     1
102
RTVSPropertyOp11
 70
     1
102
RTVSPropertyOp12
 70
     1
102
RTVSPropertyOp13
 70
     1
102
RTVSPropertyOp14
 70
     1
102
RTVSPropertyOp15
 70
     1
102
RTVSPropertyOp16
 70
     1
102
RTVSPropertyOp17
 70
     1
102
RTVSPropertyOp18
 70
     1
102
RTVSPropertyOp19
 70
     1
102
RTVSPropertyOp20
 70
     1
102
RTVSPropertyOp21
 70
     1
102
RTVSPropertyOp22
 70
     1
102
RTVSPropertyOp23
 70
     1
102
RTVSPropertyOp24
 70
     1
102
RTVSPropertyOp25
 70
     1
102
RTVSPropertyOp26
 70
     1
102
RTVSPropertyOp27
 70
     1
102
RTVSPropertyOp28
 70
     1
102
RTVSPropertyOp29
 70
     1
102
RTVSPropertyOp30
 70
     1
102
RTVSPropertyOp31
 70
     1
102
RTVSPropertyOp32
 70
     1
102
RTVSPropertyOp33
 70
     1
102
RTVSPropertyOp34
 70
     1
102
RTVSPropertyOp35
 70
     1
102
RTVSPropertyOp36
 70
     1
102
RTVSPropertyOp37
 70
     1
102
RTVSPropertyOp38
 70
     1
102
RTVSPropertyOp39
 70
     1
102
RTVSPropertyOp40
 70
     1
102
RTVSPropertyOp41
 70
     1
102
RTVSPropertyOp42
 70
     1
102
RTVSPropertyOp43
 70
     1
102
RTVSPropertyOp44
 70
     1
102
RTVSPropertyOp45
 70
     1
102
RTVSPropertyOp46
 70
     1
102
RTVSPropertyOp47
 70
     1
102
RTVSPropertyOp48
 70
     1
102
RTVSPropertyOp49
 70
     1
102
RTVSPropertyOp50
 70
     1
102
RTVSPropertyOp51
 70
     0
102
RTVSPropertyOp52
 70
     0
102
RTVSPropertyOp53
 70
     1
102
RTVSPropertyOp54
 70
     1
102
RTVSPropertyOp55
 70
     1
102
RTVSPropertyOp56
 70
     1
102
RTVSPropertyOp57
 70
     1
102
RTVSPost2010Prop28
280
     0
102
RTVSPost2010PropOp28
 70
     1
102
RTVSPost2010Prop29
280
     1
102
RTVSPost2010PropOp29
 70
     1
102
RTVSPost2010Prop30
280
     1
102
RTVSPost2010PropOp30
 70
     1
102
RTVSPost2010Prop31
280
     0
102
RTVSPost2010PropOp31
 70
     1
102
RTVSPost2010Prop32
280
     0
102
RTVSPost2010PropOp32
 70
     1
102
RTVSPost2010Prop33
280
     0
102
RTVSPost2010PropOp33
 70
     1
102
RTVSPost2010Prop34
280
     0
102
RTVSPost2010PropOp34
 70
     1
102
RTVSPost2010Prop35
280
     0
102
RTVSPost2010PropOp35
 70
     1
102
RTVSPost2010Prop36
280
     0
102
RTVSPost2010PropOp36
 70
     1
102
RTVSPost2010Prop37
 90
       50
102
RTVSPost2010PropOp37
 70
     1
102
RTVSPost2010Prop38
140
0.0
102
RTVSPost2010PropOp38
 70
     1
102
RTVSPost2010Prop39
140
1.0
102
RTVSPost2010PropOp39
 70
     1
102
RTVSPost2010Prop40
 90
        0
102
RTVSPost2010PropOp40
 70
     1
102
RTVSPost2010Prop41ColorIndex
 90
       18
102
RTVSPost2010Prop41ColorRGB
 90
        0
102
RTVSPost2010PropOp41
 70
     1
102
RTVSPost2010Prop42
 90
       50
102
RTVSPost2010PropOp42
 70
     1
102
RTVSPost2010Prop43
 90
        3
102
RTVSPost2010PropOp43
 70
     1
102
RTVSPost2010Prop44ColorIndex
 90
        5
102
RTVSPost2010Prop44ColorRGB
 90
      255
102
RTVSPost2010PropOp44
 70
     1
102
RTVSPost2010Prop45
280
     0
102
RTVSPost2010PropOp45
 70
     1
102
RTVSPost2010Prop46
 90
       50
102
RTVSPost2010PropOp46
 70
     1
102
RTVSPost2010Prop47
 90
       50
102
RTVSPost2010PropOp47
 70
     1
102
RTVSPost2010Prop48
 90
       50
102
RTVSPost2010PropOp48
 70
     1
102
RTVSPost2010Prop49
280
     0
102
RTVSPost2010PropOp49
 70
     1
102
RTVSPost2010Prop50
 90
       50
102
RTVSPost2010PropOp50
 70
     1
102
RTVSPost2010Prop51ColorIndex
 90
      256
102
RTVSPost2010Prop51ColorRGB
 90
-16777216
102
RTVSPost2010PropOp51
 70
     0
102
RTVSPost2010Prop52
140
1.0
102
RTVSPost2010PropOp52
 70
     0
102
RTVSPost2010Prop53
 90
        2
102
RTVSPost2010PropOp53
 70
     1
102
RTVSPost2010Prop54
  1
strokes_ogs.tif
102
RTVSPost2010PropOp54
 70
     1
102
RTVSPost2010Prop55
280
     0
102
RTVSPost2010PropOp55
 70
     1
102
RTVSPost2010Prop56
140
1.0
102
RTVSPost2010PropOp56
 70
     1
102
RTVSPost2010Prop57
140
1.0
102
RTVSPost2010PropOp57
 70
     1
  0
XRECORD
  5
2E0
102
{ACAD_REACTORS
330
2DF
102
}
330
2DF
100
AcDbXrecord
280
     1
102
RTVSPropertyOp0
 70
     1
102
RTVSPropertyOp1
 70
     1
102
RTVSPropertyOp2
 70
     1
102
RTVSPropertyOp3
 70
     1
102
RTVSPropertyOp4
 70
     1
102
RTVSPropertyOp5
 70
     1
102
RTVSPropertyOp6
 70
     1
102
RTVSPropertyOp7
 70
     1
102
RTVSPropertyOp8
 70
     1
102
RTVSPropertyOp9
 70
     1
102
RTVSPropertyOp10
 70
     1
102
RTVSPropertyOp11
 70
     1
102
RTVSPropertyOp12
 70
     1
102
RTVSPropertyOp13
 70
     1
102
RTVSPropertyOp14
 70
     1
102
RTVSPropertyOp15
 70
     1
102
RTVSPropertyOp16
 70
     1
102
RTVSPropertyOp17
 70
     1
102
RTVSPropertyOp18
 70
     1
102
RTVSPropertyOp19
 70
     1
102
RTVSPropertyOp20
 70
     1
102
RTVSPropertyOp21
 70
     1
102
RTVSPropertyOp22
 70
     1
102
RTVSPropertyOp23
 70
     1
102
RTVSPropertyOp24
 70
     1
102
RTVSPropertyOp25
 70
     1
102
RTVSPropertyOp26
 70
     1
102
RTVSPropertyOp27
 70
     1
102
RTVSPropertyOp28
 70
     1
102
RTVSPropertyOp29
 70
     1
102
RTVSPropertyOp30
 70
     1
102
RTVSPropertyOp31
 70
     1
102
RTVSPropertyOp32
 70
     1
102
RTVSPropertyOp33
 70
     1
102
RTVSPropertyOp34
 70
     1
102
RTVSPropertyOp35
 70
     1
102
RTVSPropertyOp36
 70
     1
102
RTVSPropertyOp37
 70
     1
102
RTVSPropertyOp38
 70
     1
102
RTVSPropertyOp39
 70
     1
102
RTVSPropertyOp40
 70
     1
102
RTVSPropertyOp41
 70
     1
102
RTVSPropertyOp42
 70
     1
102
RTVSPropertyOp43
 70
     1
102
RTVSPropertyOp44
 70
     1
102
RTVSPropertyOp45
 70
     1
102
RTVSPropertyOp46
 70
     1
102
RTVSPropertyOp47
 70
     1
102
RTVSPropertyOp48
 70
     1
102
RTVSPropertyOp49
 70
     1
102
RTVSPropertyOp50
 70
     1
102
RTVSPropertyOp51
 70
     0
102
RTVSPropertyOp52
 70
     0
102
RTVSPropertyOp53
 70
     1
102
RTVSPropertyOp54
 70
     1
102
RTVSPropertyOp55
 70
     1
102
RTVSPropertyOp56
 70
     1
102
RTVSPropertyOp57
 70
     1
102
RTVSPost2010Prop28
280
     0
102
RTVSPost2010PropOp28
 70
     1
102
RTVSPost2010Prop29
280
     1
102
RTVSPost2010PropOp29
 70
     1
102
RTVSPost2010Prop30
280
     1
102
RTVSPost2010PropOp30
 70
     1
102
RTVSPost2010Prop31
280
     0
102
RTVSPost2010PropOp31
 70
     1
102
RTVSPost2010Prop32
280
     0
102
RTVSPost2010PropOp32
 70
     1
102
RTVSPost2010Prop33
280
     0
102
RTVSPost2010PropOp33
 70
     1
102
RTVSPost2010Prop34
280
     0
102
RTVSPost2010PropOp34
 70
     1
102
RTVSPost2010Prop35
280
     0
102
RTVSPost2010PropOp35
 70
     1
102
RTVSPost2010Prop36
280
     0
102
RTVSPost2010PropOp36
 70
     1
102
RTVSPost2010Prop37
 90
       50
102
RTVSPost2010PropOp37
 70
     1
102
RTVSPost2010Prop38
140
0.0
102
RTVSPost2010PropOp38
 70
     1
102
RTVSPost2010Prop39
140
1.0
102
RTVSPost2010PropOp39
 70
     1
102
RTVSPost2010Prop40
 90
        0
102
RTVSPost2010PropOp40
 70
     1
102
RTVSPost2010Prop41ColorIndex
 90
       18
102
RTVSPost2010Prop41ColorRGB
 90
        0
102
RTVSPost2010PropOp41
 70
     1
102
RTVSPost2010Prop42
 90
       50
102
RTVSPost2010PropOp42
 70
     1
102
RTVSPost2010Prop43
 90
        3
102
RTVSPost2010PropOp43
 70
     1
102
RTVSPost2010Prop44ColorIndex
 90
        5
102
RTVSPost2010Prop44ColorRGB
 90
      255
102
RTVSPost2010PropOp44
 70
     1
102
RTVSPost2010Prop45
280
     0
102
RTVSPost2010PropOp45
 70
     1
102
RTVSPost2010Prop46
 90
       50
102
RTVSPost2010PropOp46
 70
     1
102
RTVSPost2010Prop47
 90
       50
102
RTVSPost2010PropOp47
 70
     1
102
RTVSPost2010Prop48
 90
       50
102
RTVSPost2010PropOp48
 70
     1
102
RTVSPost2010Prop49
280
     0
102
RTVSPost2010PropOp49
 70
     1
102
RTVSPost2010Prop50
 90
       50
102
RTVSPost2010PropOp50
 70
     1
102
RTVSPost2010Prop51ColorIndex
 90
      256
102
RTVSPost2010Prop51ColorRGB
 90
-16777216
102
RTVSPost2010PropOp51
 70
     0
102
RTVSPost2010Prop52
140
1.0
102
RTVSPost2010PropOp52
 70
     0
102
RTVSPost2010Prop53
 90
        2
102
RTVSPost2010PropOp53
 70
     1
102
RTVSPost2010Prop54
  1
strokes_ogs.tif
102
RTVSPost2010PropOp54
 70
     1
102
RTVSPost2010Prop55
280
     0
102
RTVSPost2010PropOp55
 70
     1
102
RTVSPost2010Prop56
140
1.0
102
RTVSPost2010PropOp56
 70
     1
102
RTVSPost2010Prop57
140
1.0
102
RTVSPost2010PropOp57
 70
     1
  0
XRECORD
  5
2E2
102
{ACAD_REACTORS
330
2E1
102
}
330
2E1
100
AcDbXrecord
280
     1
102
RTVSPropertyOp0
 70
     1
102
RTVSPropertyOp1
 70
     1
102
RTVSPropertyOp2
 70
     1
102
RTVSPropertyOp3
 70
     1
102
RTVSPropertyOp4
 70
     1
102
RTVSPropertyOp5
 70
     1
102
RTVSPropertyOp6
 70
     1
102
RTVSPropertyOp7
 70
     1
102
RTVSPropertyOp8
 70
     1
102
RTVSPropertyOp9
 70
     1
102
RTVSPropertyOp10
 70
     1
102
RTVSPropertyOp11
 70
     1
102
RTVSPropertyOp12
 70
     1
102
RTVSPropertyOp13
 70
     1
102
RTVSPropertyOp14
 70
     1
102
RTVSPropertyOp15
 70
     1
102
RTVSPropertyOp16
 70
     1
102
RTVSPropertyOp17
 70
     1
102
RTVSPropertyOp18
 70
     1
102
RTVSPropertyOp19
 70
     1
102
RTVSPropertyOp20
 70
     1
102
RTVSPropertyOp21
 70
     1
102
RTVSPropertyOp22
 70
     1
102
RTVSPropertyOp23
 70
     1
102
RTVSPropertyOp24
 70
     1
102
RTVSPropertyOp25
 70
     1
102
RTVSPropertyOp26
 70
     1
102
RTVSPropertyOp27
 70
     1
102
RTVSPropertyOp28
 70
     1
102
RTVSPropertyOp29
 70
     1
102
RTVSPropertyOp30
 70
     1
102
RTVSPropertyOp31
 70
     1
102
RTVSPropertyOp32
 70
     1
102
RTVSPropertyOp33
 70
     1
102
RTVSPropertyOp34
 70
     1
102
RTVSPropertyOp35
 70
     1
102
RTVSPropertyOp36
 70
     1
102
RTVSPropertyOp37
 70
     1
102
RTVSPropertyOp38
 70
     1
102
RTVSPropertyOp39
 70
     1
102
RTVSPropertyOp40
 70
     1
102
RTVSPropertyOp41
 70
     1
102
RTVSPropertyOp42
 70
     1
102
RTVSPropertyOp43
 70
     1
102
RTVSPropertyOp44
 70
     1
102
RTVSPropertyOp45
 70
     1
102
RTVSPropertyOp46
 70
     1
102
RTVSPropertyOp47
 70
     1
102
RTVSPropertyOp48
 70
     1
102
RTVSPropertyOp49
 70
     1
102
RTVSPropertyOp50
 70
     1
102
RTVSPropertyOp51
 70
     0
102
RTVSPropertyOp52
 70
     0
102
RTVSPropertyOp53
 70
     1
102
RTVSPropertyOp54
 70
     1
102
RTVSPropertyOp55
 70
     1
102
RTVSPropertyOp56
 70
     1
102
RTVSPropertyOp57
 70
     1
102
RTVSPost2010Prop28
280
     0
102
RTVSPost2010PropOp28
 70
     1
102
RTVSPost2010Prop29
280
     1
102
RTVSPost2010PropOp29
 70
     1
102
RTVSPost2010Prop30
280
     1
102
RTVSPost2010PropOp30
 70
     1
102
RTVSPost2010Prop31
280
     0
102
RTVSPost2010PropOp31
 70
     1
102
RTVSPost2010Prop32
280
     0
102
RTVSPost2010PropOp32
 70
     1
102
RTVSPost2010Prop33
280
     0
102
RTVSPost2010PropOp33
 70
     1
102
RTVSPost2010Prop34
280
     0
102
RTVSPost2010PropOp34
 70
     1
102
RTVSPost2010Prop35
280
     0
102
RTVSPost2010PropOp35
 70
     1
102
RTVSPost2010Prop36
280
     0
102
RTVSPost2010PropOp36
 70
     1
102
RTVSPost2010Prop37
 90
       50
102
RTVSPost2010PropOp37
 70
     1
102
RTVSPost2010Prop38
140
0.0
102
RTVSPost2010PropOp38
 70
     1
102
RTVSPost2010Prop39
140
1.0
102
RTVSPost2010PropOp39
 70
     1
102
RTVSPost2010Prop40
 90
        0
102
RTVSPost2010PropOp40
 70
     1
102
RTVSPost2010Prop41ColorIndex
 90
       18
102
RTVSPost2010Prop41ColorRGB
 90
        0
102
RTVSPost2010PropOp41
 70
     1
102
RTVSPost2010Prop42
 90
       50
102
RTVSPost2010PropOp42
 70
     1
102
RTVSPost2010Prop43
 90
        3
102
RTVSPost2010PropOp43
 70
     1
102
RTVSPost2010Prop44ColorIndex
 90
        5
102
RTVSPost2010Prop44ColorRGB
 90
      255
102
RTVSPost2010PropOp44
 70
     1
102
RTVSPost2010Prop45
280
     0
102
RTVSPost2010PropOp45
 70
     1
102
RTVSPost2010Prop46
 90
       50
102
RTVSPost2010PropOp46
 70
     1
102
RTVSPost2010Prop47
 90
       50
102
RTVSPost2010PropOp47
 70
     1
102
RTVSPost2010Prop48
 90
       50
102
RTVSPost2010PropOp48
 70
     1
102
RTVSPost2010Prop49
280
     0
102
RTVSPost2010PropOp49
 70
     1
102
RTVSPost2010Prop50
 90
       50
102
RTVSPost2010PropOp50
 70
     1
102
RTVSPost2010Prop51ColorIndex
 90
      256
102
RTVSPost2010Prop51ColorRGB
 90
-16777216
102
RTVSPost2010PropOp51
 70
     0
102
RTVSPost2010Prop52
140
1.0
102
RTVSPost2010PropOp52
 70
     0
102
RTVSPost2010Prop53
 90
        2
102
RTVSPost2010PropOp53
 70
     1
102
RTVSPost2010Prop54
  1
strokes_ogs.tif
102
RTVSPost2010PropOp54
 70
     1
102
RTVSPost2010Prop55
280
     0
102
RTVSPost2010PropOp55
 70
     1
102
RTVSPost2010Prop56
140
1.0
102
RTVSPost2010PropOp56
 70
     1
102
RTVSPost2010Prop57
140
1.0
102
RTVSPost2010PropOp57
 70
     1
  0
XRECORD
  5
2E8
102
{ACAD_REACTORS
330
2E7
102
}
330
2E7
100
AcDbXrecord
280
     1
102
RTVSPropertyOp0
 70
     1
102
RTVSPropertyOp1
 70
     1
102
RTVSPropertyOp2
 70
     1
102
RTVSPropertyOp3
 70
     1
102
RTVSPropertyOp4
 70
     1
102
RTVSPropertyOp5
 70
     1
102
RTVSPropertyOp6
 70
     1
102
RTVSPropertyOp7
 70
     1
102
RTVSPropertyOp8
 70
     1
102
RTVSPropertyOp9
 70
     1
102
RTVSPropertyOp10
 70
     1
102
RTVSPropertyOp11
 70
     1
102
RTVSPropertyOp12
 70
     1
102
RTVSPropertyOp13
 70
     1
102
RTVSPropertyOp14
 70
     1
102
RTVSPropertyOp15
 70
     1
102
RTVSPropertyOp16
 70
     1
102
RTVSPropertyOp17
 70
     1
102
RTVSPropertyOp18
 70
     1
102
RTVSPropertyOp19
 70
     1
102
RTVSPropertyOp20
 70
     1
102
RTVSPropertyOp21
 70
     1
102
RTVSPropertyOp22
 70
     1
102
RTVSPropertyOp23
 70
     1
102
RTVSPropertyOp24
 70
     1
102
RTVSPropertyOp25
 70
     1
102
RTVSPropertyOp26
 70
     1
102
RTVSPropertyOp27
 70
     1
102
RTVSPropertyOp28
 70
     1
102
RTVSPropertyOp29
 70
     1
102
RTVSPropertyOp30
 70
     1
102
RTVSPropertyOp31
 70
     1
102
RTVSPropertyOp32
 70
     1
102
RTVSPropertyOp33
 70
     1
102
RTVSPropertyOp34
 70
     1
102
RTVSPropertyOp35
 70
     1
102
RTVSPropertyOp36
 70
     1
102
RTVSPropertyOp37
 70
     1
102
RTVSPropertyOp38
 70
     1
102
RTVSPropertyOp39
 70
     1
102
RTVSPropertyOp40
 70
     1
102
RTVSPropertyOp41
 70
     1
102
RTVSPropertyOp42
 70
     1
102
RTVSPropertyOp43
 70
     1
102
RTVSPropertyOp44
 70
     1
102
RTVSPropertyOp45
 70
     1
102
RTVSPropertyOp46
 70
     1
102
RTVSPropertyOp47
 70
     1
102
RTVSPropertyOp48
 70
     1
102
RTVSPropertyOp49
 70
     1
102
RTVSPropertyOp50
 70
     1
102
RTVSPropertyOp51
 70
     0
102
RTVSPropertyOp52
 70
     0
102
RTVSPropertyOp53
 70
     1
102
RTVSPropertyOp54
 70
     1
102
RTVSPropertyOp55
 70
     1
102
RTVSPropertyOp56
 70
     1
102
RTVSPropertyOp57
 70
     1
102
RTVSPost2010Prop28
280
     0
102
RTVSPost2010PropOp28
 70
     1
102
RTVSPost2010Prop29
280
     1
102
RTVSPost2010PropOp29
 70
     1
102
RTVSPost2010Prop30
280
     1
102
RTVSPost2010PropOp30
 70
     1
102
RTVSPost2010Prop31
280
     0
102
RTVSPost2010PropOp31
 70
     1
102
RTVSPost2010Prop32
280
     0
102
RTVSPost2010PropOp32
 70
     1
102
RTVSPost2010Prop33
280
     0
102
RTVSPost2010PropOp33
 70
     1
102
RTVSPost2010Prop34
280
     0
102
RTVSPost2010PropOp34
 70
     1
102
RTVSPost2010Prop35
280
     0
102
RTVSPost2010PropOp35
 70
     1
102
RTVSPost2010Prop36
280
     0
102
RTVSPost2010PropOp36
 70
     1
102
RTVSPost2010Prop37
 90
       50
102
RTVSPost2010PropOp37
 70
     1
102
RTVSPost2010Prop38
140
0.0
102
RTVSPost2010PropOp38
 70
     1
102
RTVSPost2010Prop39
140
1.0
102
RTVSPost2010PropOp39
 70
     1
102
RTVSPost2010Prop40
 90
        0
102
RTVSPost2010PropOp40
 70
     1
102
RTVSPost2010Prop41ColorIndex
 90
       18
102
RTVSPost2010Prop41ColorRGB
 90
        0
102
RTVSPost2010PropOp41
 70
     1
102
RTVSPost2010Prop42
 90
       50
102
RTVSPost2010PropOp42
 70
     1
102
RTVSPost2010Prop43
 90
        3
102
RTVSPost2010PropOp43
 70
     1
102
RTVSPost2010Prop44ColorIndex
 90
        5
102
RTVSPost2010Prop44ColorRGB
 90
      255
102
RTVSPost2010PropOp44
 70
     1
102
RTVSPost2010Prop45
280
     0
102
RTVSPost2010PropOp45
 70
     1
102
RTVSPost2010Prop46
 90
       50
102
RTVSPost2010PropOp46
 70
     1
102
RTVSPost2010Prop47
 90
       50
102
RTVSPost2010PropOp47
 70
     1
102
RTVSPost2010Prop48
 90
       50
102
RTVSPost2010PropOp48
 70
     1
102
RTVSPost2010Prop49
280
     0
102
RTVSPost2010PropOp49
 70
     1
102
RTVSPost2010Prop50
 90
       50
102
RTVSPost2010PropOp50
 70
     1
102
RTVSPost2010Prop51ColorIndex
 90
      256
102
RTVSPost2010Prop51ColorRGB
 90
-16777216
102
RTVSPost2010PropOp51
 70
     0
102
RTVSPost2010Prop52
140
1.0
102
RTVSPost2010PropOp52
 70
     0
102
RTVSPost2010Prop53
 90
        2
102
RTVSPost2010PropOp53
 70
     1
102
RTVSPost2010Prop54
  1
strokes_ogs.tif
102
RTVSPost2010PropOp54
 70
     1
102
RTVSPost2010Prop55
280
     0
102
RTVSPost2010PropOp55
 70
     1
102
RTVSPost2010Prop56
140
1.0
102
RTVSPost2010PropOp56
 70
     1
102
RTVSPost2010Prop57
140
1.0
102
RTVSPost2010PropOp57
 70
     1
  0
XRECORD
  5
2FC
102
{ACAD_REACTORS
330
2FB
102
}
330
2FB
100
AcDbXrecord
280
     1
102
RTVSPropertyOp0
 70
     0
102
RTVSPropertyOp1
 70
     0
102
RTVSPropertyOp2
 70
     0
102
RTVSPropertyOp3
 70
     0
102
RTVSPropertyOp4
 70
     0
102
RTVSPropertyOp5
 70
     0
102
RTVSPropertyOp6
 70
     0
102
RTVSPropertyOp7
 70
     0
102
RTVSPropertyOp8
 70
     0
102
RTVSPropertyOp9
 70
     0
102
RTVSPropertyOp10
 70
     0
102
RTVSPropertyOp11
 70
     0
102
RTVSPropertyOp12
 70
     0
102
RTVSPropertyOp13
 70
     0
102
RTVSPropertyOp14
 70
     2
102
RTVSPropertyOp15
 70
     0
102
RTVSPropertyOp16
 70
     0
102
RTVSPropertyOp17
 70
     0
102
RTVSPropertyOp18
 70
     0
102
RTVSPropertyOp19
 70
     0
102
RTVSPropertyOp20
 70
     0
102
RTVSPropertyOp21
 70
     0
102
RTVSPropertyOp22
 70
     0
102
RTVSPropertyOp23
 70
     0
102
RTVSPropertyOp24
 70
     0
102
RTVSPropertyOp25
 70
     0
102
RTVSPropertyOp26
 70
     0
102
RTVSPropertyOp27
 70
     0
102
RTVSPropertyOp28
 70
     0
102
RTVSPropertyOp29
 70
     0
102
RTVSPropertyOp30
 70
     0
102
RTVSPropertyOp31
 70
     0
102
RTVSPropertyOp32
 70
     0
102
RTVSPropertyOp33
 70
     0
102
RTVSPropertyOp34
 70
     0
102
RTVSPropertyOp35
 70
     0
102
RTVSPropertyOp36
 70
     0
102
RTVSPropertyOp37
 70
     0
102
RTVSPropertyOp38
 70
     0
102
RTVSPropertyOp39
 70
     0
102
RTVSPropertyOp40
 70
     0
102
RTVSPropertyOp41
 70
     0
102
RTVSPropertyOp42
 70
     0
102
RTVSPropertyOp43
 70
     0
102
RTVSPropertyOp44
 70
     0
102
RTVSPropertyOp45
 70
     0
102
RTVSPropertyOp46
 70
     0
102
RTVSPropertyOp47
 70
     0
102
RTVSPropertyOp48
 70
     0
102
RTVSPropertyOp49
 70
     0
102
RTVSPropertyOp50
 70
     0
102
RTVSPropertyOp51
 70
     0
102
RTVSPropertyOp52
 70
     0
102
RTVSPropertyOp53
 70
     0
102
RTVSPropertyOp54
 70
     0
102
RTVSPropertyOp55
 70
     0
102
RTVSPropertyOp56
 70
     0
102
RTVSPropertyOp57
 70
     0
102
RTVSPost2010Prop28
280
     0
102
RTVSPost2010PropOp28
 70
     0
102
RTVSPost2010Prop29
280
     1
102
RTVSPost2010PropOp29
 70
     0
102
RTVSPost2010Prop30
280
     1
102
RTVSPost2010PropOp30
 70
     0
102
RTVSPost2010Prop31
280
     0
102
RTVSPost2010PropOp31
 70
     0
102
RTVSPost2010Prop32
280
     0
102
RTVSPost2010PropOp32
 70
     0
102
RTVSPost2010Prop33
280
     0
102
RTVSPost2010PropOp33
 70
     0
102
RTVSPost2010Prop34
280
     0
102
RTVSPost2010PropOp34
 70
     0
102
RTVSPost2010Prop35
280
     0
102
RTVSPost2010PropOp35
 70
     0
102
RTVSPost2010Prop36
280
     0
102
RTVSPost2010PropOp36
 70
     0
102
RTVSPost2010Prop37
 90
       50
102
RTVSPost2010PropOp37
 70
     0
102
RTVSPost2010Prop38
140
0.0
102
RTVSPost2010PropOp38
 70
     0
102
RTVSPost2010Prop39
140
1.0
102
RTVSPost2010PropOp39
 70
     0
102
RTVSPost2010Prop40
 90
        0
102
RTVSPost2010PropOp40
 70
     0
102
RTVSPost2010Prop41ColorIndex
 90
       18
102
RTVSPost2010Prop41ColorRGB
 90
        0
102
RTVSPost2010PropOp41
 70
     0
102
RTVSPost2010Prop42
 90
       50
102
RTVSPost2010PropOp42
 70
     0
102
RTVSPost2010Prop43
 90
        3
102
RTVSPost2010PropOp43
 70
     0
102
RTVSPost2010Prop44ColorIndex
 90
        5
102
RTVSPost2010Prop44ColorRGB
 90
      255
102
RTVSPost2010PropOp44
 70
     0
102
RTVSPost2010Prop45
280
     0
102
RTVSPost2010PropOp45
 70
     0
102
RTVSPost2010Prop46
 90
       50
102
RTVSPost2010PropOp46
 70
     0
102
RTVSPost2010Prop47
 90
       50
102
RTVSPost2010PropOp47
 70
     0
102
RTVSPost2010Prop48
 90
       50
102
RTVSPost2010PropOp48
 70
     0
102
RTVSPost2010Prop49
280
     0
102
RTVSPost2010PropOp49
 70
     0
102
RTVSPost2010Prop50
 90
       50
102
RTVSPost2010PropOp50
 70
     0
102
RTVSPost2010Prop51ColorIndex
 90
      256
102
RTVSPost2010Prop51ColorRGB
 90
-16777216
102
RTVSPost2010PropOp51
 70
     0
102
RTVSPost2010Prop52
140
1.0
102
RTVSPost2010PropOp52
 70
     0
102
RTVSPost2010Prop53
 90
        2
102
RTVSPost2010PropOp53
 70
     0
102
RTVSPost2010Prop54
  1
strokes_ogs.tif
102
RTVSPost2010PropOp54
 70
     0
102
RTVSPost2010Prop55
280
     0
102
RTVSPost2010PropOp55
 70
     0
102
RTVSPost2010Prop56
140
1.0
102
RTVSPost2010PropOp56
 70
     0
102
RTVSPost2010Prop57
140
1.0
102
RTVSPost2010PropOp57
 70
     0
  0
XRECORD
  5
2F6
102
{ACAD_REACTORS
330
2F5
102
}
330
2F5
100
AcDbXrecord
280
     1
102
RTVSPropertyOp0
 70
     1
102
RTVSPropertyOp1
 70
     1
102
RTVSPropertyOp2
 70
     1
102
RTVSPropertyOp3
 70
     1
102
RTVSPropertyOp4
 70
     1
102
RTVSPropertyOp5
 70
     1
102
RTVSPropertyOp6
 70
     1
102
RTVSPropertyOp7
 70
     1
102
RTVSPropertyOp8
 70
     1
102
RTVSPropertyOp9
 70
     1
102
RTVSPropertyOp10
 70
     1
102
RTVSPropertyOp11
 70
     1
102
RTVSPropertyOp12
 70
     1
102
RTVSPropertyOp13
 70
     1
102
RTVSPropertyOp14
 70
     1
102
RTVSPropertyOp15
 70
     1
102
RTVSPropertyOp16
 70
     1
102
RTVSPropertyOp17
 70
     1
102
RTVSPropertyOp18
 70
     1
102
RTVSPropertyOp19
 70
     1
102
RTVSPropertyOp20
 70
     1
102
RTVSPropertyOp21
 70
     1
102
RTVSPropertyOp22
 70
     1
102
RTVSPropertyOp23
 70
     1
102
RTVSPropertyOp24
 70
     1
102
RTVSPropertyOp25
 70
     1
102
RTVSPropertyOp26
 70
     1
102
RTVSPropertyOp27
 70
     1
102
RTVSPropertyOp28
 70
     1
102
RTVSPropertyOp29
 70
     1
102
RTVSPropertyOp30
 70
     1
102
RTVSPropertyOp31
 70
     1
102
RTVSPropertyOp32
 70
     1
102
RTVSPropertyOp33
 70
     1
102
RTVSPropertyOp34
 70
     1
102
RTVSPropertyOp35
 70
     1
102
RTVSPropertyOp36
 70
     1
102
RTVSPropertyOp37
 70
     1
102
RTVSPropertyOp38
 70
     1
102
RTVSPropertyOp39
 70
     1
102
RTVSPropertyOp40
 70
     1
102
RTVSPropertyOp41
 70
     1
102
RTVSPropertyOp42
 70
     1
102
RTVSPropertyOp43
 70
     1
102
RTVSPropertyOp44
 70
     1
102
RTVSPropertyOp45
 70
     1
102
RTVSPropertyOp46
 70
     1
102
RTVSPropertyOp47
 70
     1
102
RTVSPropertyOp48
 70
     1
102
RTVSPropertyOp49
 70
     1
102
RTVSPropertyOp50
 70
     1
102
RTVSPropertyOp51
 70
     0
102
RTVSPropertyOp52
 70
     0
102
RTVSPropertyOp53
 70
     1
102
RTVSPropertyOp54
 70
     1
102
RTVSPropertyOp55
 70
     1
102
RTVSPropertyOp56
 70
     1
102
RTVSPropertyOp57
 70
     1
102
RTVSPost2010Prop28
280
     0
102
RTVSPost2010PropOp28
 70
     1
102
RTVSPost2010Prop29
280
     1
102
RTVSPost2010PropOp29
 70
     1
102
RTVSPost2010Prop30
280
     1
102
RTVSPost2010PropOp30
 70
     1
102
RTVSPost2010Prop31
280
     0
102
RTVSPost2010PropOp31
 70
     1
102
RTVSPost2010Prop32
280
     0
102
RTVSPost2010PropOp32
 70
     1
102
RTVSPost2010Prop33
280
     0
102
RTVSPost2010PropOp33
 70
     1
102
RTVSPost2010Prop34
280
     0
102
RTVSPost2010PropOp34
 70
     1
102
RTVSPost2010Prop35
280
     0
102
RTVSPost2010PropOp35
 70
     1
102
RTVSPost2010Prop36
280
     0
102
RTVSPost2010PropOp36
 70
     1
102
RTVSPost2010Prop37
 90
       50
102
RTVSPost2010PropOp37
 70
     1
102
RTVSPost2010Prop38
140
0.0
102
RTVSPost2010PropOp38
 70
     1
102
RTVSPost2010Prop39
140
1.0
102
RTVSPost2010PropOp39
 70
     1
102
RTVSPost2010Prop40
 90
        0
102
RTVSPost2010PropOp40
 70
     1
102
RTVSPost2010Prop41ColorIndex
 90
       18
102
RTVSPost2010Prop41ColorRGB
 90
        0
102
RTVSPost2010PropOp41
 70
     1
102
RTVSPost2010Prop42
 90
       50
102
RTVSPost2010PropOp42
 70
     1
102
RTVSPost2010Prop43
 90
        3
102
RTVSPost2010PropOp43
 70
     1
102
RTVSPost2010Prop44ColorIndex
 90
        5
102
RTVSPost2010Prop44ColorRGB
 90
      255
102
RTVSPost2010PropOp44
 70
     1
102
RTVSPost2010Prop45
280
     0
102
RTVSPost2010PropOp45
 70
     1
102
RTVSPost2010Prop46
 90
       50
102
RTVSPost2010PropOp46
 70
     1
102
RTVSPost2010Prop47
 90
       50
102
RTVSPost2010PropOp47
 70
     1
102
RTVSPost2010Prop48
 90
       50
102
RTVSPost2010PropOp48
 70
     1
102
RTVSPost2010Prop49
280
     0
102
RTVSPost2010PropOp49
 70
     1
102
RTVSPost2010Prop50
 90
       50
102
RTVSPost2010PropOp50
 70
     1
102
RTVSPost2010Prop51ColorIndex
 90
      256
102
RTVSPost2010Prop51ColorRGB
 90
-16777216
102
RTVSPost2010PropOp51
 70
     0
102
RTVSPost2010Prop52
140
1.0
102
RTVSPost2010PropOp52
 70
     0
102
RTVSPost2010Prop53
 90
        2
102
RTVSPost2010PropOp53
 70
     1
102
RTVSPost2010Prop54
  1
strokes_ogs.tif
102
RTVSPost2010PropOp54
 70
     1
102
RTVSPost2010Prop55
280
     0
102
RTVSPost2010PropOp55
 70
     1
102
RTVSPost2010Prop56
140
1.0
102
RTVSPost2010PropOp56
 70
     1
102
RTVSPost2010Prop57
140
1.0
102
RTVSPost2010PropOp57
 70
     1
  0
XRECORD
  5
2FE
102
{ACAD_REACTORS
330
2FD
102
}
330
2FD
100
AcDbXrecord
280
     1
102
RTVSPropertyOp0
 70
     0
102
RTVSPropertyOp1
 70
     0
102
RTVSPropertyOp2
 70
     0
102
RTVSPropertyOp3
 70
     0
102
RTVSPropertyOp4
 70
     0
102
RTVSPropertyOp5
 70
     0
102
RTVSPropertyOp6
 70
     0
102
RTVSPropertyOp7
 70
     0
102
RTVSPropertyOp8
 70
     0
102
RTVSPropertyOp9
 70
     0
102
RTVSPropertyOp10
 70
     0
102
RTVSPropertyOp11
 70
     0
102
RTVSPropertyOp12
 70
     0
102
RTVSPropertyOp13
 70
     0
102
RTVSPropertyOp14
 70
     2
102
RTVSPropertyOp15
 70
     0
102
RTVSPropertyOp16
 70
     0
102
RTVSPropertyOp17
 70
     0
102
RTVSPropertyOp18
 70
     0
102
RTVSPropertyOp19
 70
     0
102
RTVSPropertyOp20
 70
     0
102
RTVSPropertyOp21
 70
     0
102
RTVSPropertyOp22
 70
     0
102
RTVSPropertyOp23
 70
     0
102
RTVSPropertyOp24
 70
     0
102
RTVSPropertyOp25
 70
     0
102
RTVSPropertyOp26
 70
     0
102
RTVSPropertyOp27
 70
     0
102
RTVSPropertyOp28
 70
     0
102
RTVSPropertyOp29
 70
     0
102
RTVSPropertyOp30
 70
     0
102
RTVSPropertyOp31
 70
     0
102
RTVSPropertyOp32
 70
     0
102
RTVSPropertyOp33
 70
     0
102
RTVSPropertyOp34
 70
     0
102
RTVSPropertyOp35
 70
     0
102
RTVSPropertyOp36
 70
     0
102
RTVSPropertyOp37
 70
     0
102
RTVSPropertyOp38
 70
     0
102
RTVSPropertyOp39
 70
     0
102
RTVSPropertyOp40
 70
     0
102
RTVSPropertyOp41
 70
     0
102
RTVSPropertyOp42
 70
     0
102
RTVSPropertyOp43
 70
     0
102
RTVSPropertyOp44
 70
     0
102
RTVSPropertyOp45
 70
     0
102
RTVSPropertyOp46
 70
     0
102
RTVSPropertyOp47
 70
     0
102
RTVSPropertyOp48
 70
     0
102
RTVSPropertyOp49
 70
     0
102
RTVSPropertyOp50
 70
     0
102
RTVSPropertyOp51
 70
     0
102
RTVSPropertyOp52
 70
     0
102
RTVSPropertyOp53
 70
     0
102
RTVSPropertyOp54
 70
     0
102
RTVSPropertyOp55
 70
     0
102
RTVSPropertyOp56
 70
     0
102
RTVSPropertyOp57
 70
     0
102
RTVSPost2010Prop28
280
     0
102
RTVSPost2010PropOp28
 70
     0
102
RTVSPost2010Prop29
280
     1
102
RTVSPost2010PropOp29
 70
     0
102
RTVSPost2010Prop30
280
     1
102
RTVSPost2010PropOp30
 70
     0
102
RTVSPost2010Prop31
280
     0
102
RTVSPost2010PropOp31
 70
     0
102
RTVSPost2010Prop32
280
     0
102
RTVSPost2010PropOp32
 70
     0
102
RTVSPost2010Prop33
280
     0
102
RTVSPost2010PropOp33
 70
     0
102
RTVSPost2010Prop34
280
     0
102
RTVSPost2010PropOp34
 70
     0
102
RTVSPost2010Prop35
280
     0
102
RTVSPost2010PropOp35
 70
     0
102
RTVSPost2010Prop36
280
     0
102
RTVSPost2010PropOp36
 70
     0
102
RTVSPost2010Prop37
 90
       50
102
RTVSPost2010PropOp37
 70
     0
102
RTVSPost2010Prop38
140
0.0
102
RTVSPost2010PropOp38
 70
     0
102
RTVSPost2010Prop39
140
1.0
102
RTVSPost2010PropOp39
 70
     0
102
RTVSPost2010Prop40
 90
        0
102
RTVSPost2010PropOp40
 70
     0
102
RTVSPost2010Prop41ColorIndex
 90
       18
102
RTVSPost2010Prop41ColorRGB
 90
        0
102
RTVSPost2010PropOp41
 70
     0
102
RTVSPost2010Prop42
 90
       50
102
RTVSPost2010PropOp42
 70
     0
102
RTVSPost2010Prop43
 90
        3
102
RTVSPost2010PropOp43
 70
     0
102
RTVSPost2010Prop44ColorIndex
 90
        5
102
RTVSPost2010Prop44ColorRGB
 90
      255
102
RTVSPost2010PropOp44
 70
     0
102
RTVSPost2010Prop45
280
     0
102
RTVSPost2010PropOp45
 70
     0
102
RTVSPost2010Prop46
 90
       50
102
RTVSPost2010PropOp46
 70
     0
102
RTVSPost2010Prop47
 90
       50
102
RTVSPost2010PropOp47
 70
     0
102
RTVSPost2010Prop48
 90
       50
102
RTVSPost2010PropOp48
 70
     0
102
RTVSPost2010Prop49
280
     0
102
RTVSPost2010PropOp49
 70
     0
102
RTVSPost2010Prop50
 90
       50
102
RTVSPost2010PropOp50
 70
     0
102
RTVSPost2010Prop51ColorIndex
 90
      256
102
RTVSPost2010Prop51ColorRGB
 90
-16777216
102
RTVSPost2010PropOp51
 70
     0
102
RTVSPost2010Prop52
140
1.0
102
RTVSPost2010PropOp52
 70
     0
102
RTVSPost2010Prop53
 90
        2
102
RTVSPost2010PropOp53
 70
     0
102
RTVSPost2010Prop54
  1
strokes_ogs.tif
102
RTVSPost2010PropOp54
 70
     0
102
RTVSPost2010Prop55
280
     0
102
RTVSPost2010PropOp55
 70
     0
102
RTVSPost2010Prop56
140
1.0
102
RTVSPost2010PropOp56
 70
     0
102
RTVSPost2010Prop57
140
1.0
102
RTVSPost2010PropOp57
 70
     0
  0
XRECORD
  5
2EC
102
{ACAD_REACTORS
330
2EB
102
}
330
2EB
100
AcDbXrecord
280
     1
102
RTVSPropertyOp0
 70
     1
102
RTVSPropertyOp1
 70
     1
102
RTVSPropertyOp2
 70
     1
102
RTVSPropertyOp3
 70
     1
102
RTVSPropertyOp4
 70
     1
102
RTVSPropertyOp5
 70
     1
102
RTVSPropertyOp6
 70
     1
102
RTVSPropertyOp7
 70
     1
102
RTVSPropertyOp8
 70
     1
102
RTVSPropertyOp9
 70
     1
102
RTVSPropertyOp10
 70
     1
102
RTVSPropertyOp11
 70
     1
102
RTVSPropertyOp12
 70
     1
102
RTVSPropertyOp13
 70
     1
102
RTVSPropertyOp14
 70
     1
102
RTVSPropertyOp15
 70
     1
102
RTVSPropertyOp16
 70
     1
102
RTVSPropertyOp17
 70
     1
102
RTVSPropertyOp18
 70
     1
102
RTVSPropertyOp19
 70
     1
102
RTVSPropertyOp20
 70
     1
102
RTVSPropertyOp21
 70
     1
102
RTVSPropertyOp22
 70
     1
102
RTVSPropertyOp23
 70
     1
102
RTVSPropertyOp24
 70
     1
102
RTVSPropertyOp25
 70
     1
102
RTVSPropertyOp26
 70
     1
102
RTVSPropertyOp27
 70
     1
102
RTVSPropertyOp28
 70
     1
102
RTVSPropertyOp29
 70
     1
102
RTVSPropertyOp30
 70
     1
102
RTVSPropertyOp31
 70
     1
102
RTVSPropertyOp32
 70
     1
102
RTVSPropertyOp33
 70
     1
102
RTVSPropertyOp34
 70
     1
102
RTVSPropertyOp35
 70
     1
102
RTVSPropertyOp36
 70
     1
102
RTVSPropertyOp37
 70
     1
102
RTVSPropertyOp38
 70
     1
102
RTVSPropertyOp39
 70
     1
102
RTVSPropertyOp40
 70
     1
102
RTVSPropertyOp41
 70
     1
102
RTVSPropertyOp42
 70
     1
102
RTVSPropertyOp43
 70
     1
102
RTVSPropertyOp44
 70
     1
102
RTVSPropertyOp45
 70
     1
102
RTVSPropertyOp46
 70
     1
102
RTVSPropertyOp47
 70
     1
102
RTVSPropertyOp48
 70
     1
102
RTVSPropertyOp49
 70
     1
102
RTVSPropertyOp50
 70
     1
102
RTVSPropertyOp51
 70
     0
102
RTVSPropertyOp52
 70
     0
102
RTVSPropertyOp53
 70
     1
102
RTVSPropertyOp54
 70
     1
102
RTVSPropertyOp55
 70
     1
102
RTVSPropertyOp56
 70
     1
102
RTVSPropertyOp57
 70
     1
102
RTVSPost2010Prop28
280
     0
102
RTVSPost2010PropOp28
 70
     1
102
RTVSPost2010Prop29
280
     1
102
RTVSPost2010PropOp29
 70
     1
102
RTVSPost2010Prop30
280
     1
102
RTVSPost2010PropOp30
 70
     1
102
RTVSPost2010Prop31
280
     0
102
RTVSPost2010PropOp31
 70
     1
102
RTVSPost2010Prop32
280
     0
102
RTVSPost2010PropOp32
 70
     1
102
RTVSPost2010Prop33
280
     0
102
RTVSPost2010PropOp33
 70
     1
102
RTVSPost2010Prop34
280
     0
102
RTVSPost2010PropOp34
 70
     1
102
RTVSPost2010Prop35
280
     0
102
RTVSPost2010PropOp35
 70
     1
102
RTVSPost2010Prop36
280
     0
102
RTVSPost2010PropOp36
 70
     1
102
RTVSPost2010Prop37
 90
       50
102
RTVSPost2010PropOp37
 70
     1
102
RTVSPost2010Prop38
140
0.0
102
RTVSPost2010PropOp38
 70
     1
102
RTVSPost2010Prop39
140
1.0
102
RTVSPost2010PropOp39
 70
     1
102
RTVSPost2010Prop40
 90
        0
102
RTVSPost2010PropOp40
 70
     1
102
RTVSPost2010Prop41ColorIndex
 90
       18
102
RTVSPost2010Prop41ColorRGB
 90
        0
102
RTVSPost2010PropOp41
 70
     1
102
RTVSPost2010Prop42
 90
       50
102
RTVSPost2010PropOp42
 70
     1
102
RTVSPost2010Prop43
 90
        3
102
RTVSPost2010PropOp43
 70
     1
102
RTVSPost2010Prop44ColorIndex
 90
        5
102
RTVSPost2010Prop44ColorRGB
 90
      255
102
RTVSPost2010PropOp44
 70
     1
102
RTVSPost2010Prop45
280
     0
102
RTVSPost2010PropOp45
 70
     1
102
RTVSPost2010Prop46
 90
       50
102
RTVSPost2010PropOp46
 70
     1
102
RTVSPost2010Prop47
 90
       50
102
RTVSPost2010PropOp47
 70
     1
102
RTVSPost2010Prop48
 90
       50
102
RTVSPost2010PropOp48
 70
     1
102
RTVSPost2010Prop49
280
     0
102
RTVSPost2010PropOp49
 70
     1
102
RTVSPost2010Prop50
 90
       50
102
RTVSPost2010PropOp50
 70
     1
102
RTVSPost2010Prop51ColorIndex
 90
      256
102
RTVSPost2010Prop51ColorRGB
 90
-16777216
102
RTVSPost2010PropOp51
 70
     0
102
RTVSPost2010Prop52
140
1.0
102
RTVSPost2010PropOp52
 70
     0
102
RTVSPost2010Prop53
 90
        2
102
RTVSPost2010PropOp53
 70
     1
102
RTVSPost2010Prop54
  1
strokes_ogs.tif
102
RTVSPost2010PropOp54
 70
     1
102
RTVSPost2010Prop55
280
     0
102
RTVSPost2010PropOp55
 70
     1
102
RTVSPost2010Prop56
140
1.0
102
RTVSPost2010PropOp56
 70
     1
102
RTVSPost2010Prop57
140
1.0
102
RTVSPost2010PropOp57
 70
     1
  0
XRECORD
  5
30A
102
{ACAD_REACTORS
330
309
102
}
330
309
100
AcDbXrecord
280
     1
102
RTVSPropertyOp0
 70
     1
102
RTVSPropertyOp1
 70
     1
102
RTVSPropertyOp2
 70
     1
102
RTVSPropertyOp3
 70
     1
102
RTVSPropertyOp4
 70
     1
102
RTVSPropertyOp5
 70
     1
102
RTVSPropertyOp6
 70
     1
102
RTVSPropertyOp7
 70
     1
102
RTVSPropertyOp8
 70
     1
102
RTVSPropertyOp9
 70
     1
102
RTVSPropertyOp10
 70
     1
102
RTVSPropertyOp11
 70
     1
102
RTVSPropertyOp12
 70
     1
102
RTVSPropertyOp13
 70
     1
102
RTVSPropertyOp14
 70
     1
102
RTVSPropertyOp15
 70
     1
102
RTVSPropertyOp16
 70
     1
102
RTVSPropertyOp17
 70
     1
102
RTVSPropertyOp18
 70
     1
102
RTVSPropertyOp19
 70
     1
102
RTVSPropertyOp20
 70
     1
102
RTVSPropertyOp21
 70
     1
102
RTVSPropertyOp22
 70
     1
102
RTVSPropertyOp23
 70
     1
102
RTVSPropertyOp24
 70
     1
102
RTVSPropertyOp25
 70
     1
102
RTVSPropertyOp26
 70
     1
102
RTVSPropertyOp27
 70
     1
102
RTVSPropertyOp28
 70
     1
102
RTVSPropertyOp29
 70
     1
102
RTVSPropertyOp30
 70
     1
102
RTVSPropertyOp31
 70
     1
102
RTVSPropertyOp32
 70
     1
102
RTVSPropertyOp33
 70
     1
102
RTVSPropertyOp34
 70
     1
102
RTVSPropertyOp35
 70
     1
102
RTVSPropertyOp36
 70
     1
102
RTVSPropertyOp37
 70
     1
102
RTVSPropertyOp38
 70
     1
102
RTVSPropertyOp39
 70
     1
102
RTVSPropertyOp40
 70
     1
102
RTVSPropertyOp41
 70
     1
102
RTVSPropertyOp42
 70
     1
102
RTVSPropertyOp43
 70
     1
102
RTVSPropertyOp44
 70
     1
102
RTVSPropertyOp45
 70
     1
102
RTVSPropertyOp46
 70
     1
102
RTVSPropertyOp47
 70
     1
102
RTVSPropertyOp48
 70
     1
102
RTVSPropertyOp49
 70
     1
102
RTVSPropertyOp50
 70
     1
102
RTVSPropertyOp51
 70
     0
102
RTVSPropertyOp52
 70
     0
102
RTVSPropertyOp53
 70
     1
102
RTVSPropertyOp54
 70
     1
102
RTVSPropertyOp55
 70
     1
102
RTVSPropertyOp56
 70
     1
102
RTVSPropertyOp57
 70
     1
102
RTVSPost2010Prop28
280
     0
102
RTVSPost2010PropOp28
 70
     1
102
RTVSPost2010Prop29
280
     1
102
RTVSPost2010PropOp29
 70
     1
102
RTVSPost2010Prop30
280
     1
102
RTVSPost2010PropOp30
 70
     1
102
RTVSPost2010Prop31
280
     0
102
RTVSPost2010PropOp31
 70
     1
102
RTVSPost2010Prop32
280
     0
102
RTVSPost2010PropOp32
 70
     1
102
RTVSPost2010Prop33
280
     0
102
RTVSPost2010PropOp33
 70
     1
102
RTVSPost2010Prop34
280
     0
102
RTVSPost2010PropOp34
 70
     1
102
RTVSPost2010Prop35
280
     0
102
RTVSPost2010PropOp35
 70
     1
102
RTVSPost2010Prop36
280
     0
102
RTVSPost2010PropOp36
 70
     1
102
RTVSPost2010Prop37
 90
       50
102
RTVSPost2010PropOp37
 70
     1
102
RTVSPost2010Prop38
140
0.0
102
RTVSPost2010PropOp38
 70
     1
102
RTVSPost2010Prop39
140
1.0
102
RTVSPost2010PropOp39
 70
     1
102
RTVSPost2010Prop40
 90
        0
102
RTVSPost2010PropOp40
 70
     1
102
RTVSPost2010Prop41ColorIndex
 90
       18
102
RTVSPost2010Prop41ColorRGB
 90
        0
102
RTVSPost2010PropOp41
 70
     1
102
RTVSPost2010Prop42
 90
       50
102
RTVSPost2010PropOp42
 70
     1
102
RTVSPost2010Prop43
 90
        3
102
RTVSPost2010PropOp43
 70
     1
102
RTVSPost2010Prop44ColorIndex
 90
        5
102
RTVSPost2010Prop44ColorRGB
 90
      255
102
RTVSPost2010PropOp44
 70
     1
102
RTVSPost2010Prop45
280
     0
102
RTVSPost2010PropOp45
 70
     1
102
RTVSPost2010Prop46
 90
       50
102
RTVSPost2010PropOp46
 70
     1
102
RTVSPost2010Prop47
 90
       50
102
RTVSPost2010PropOp47
 70
     1
102
RTVSPost2010Prop48
 90
       50
102
RTVSPost2010PropOp48
 70
     1
102
RTVSPost2010Prop49
280
     0
102
RTVSPost2010PropOp49
 70
     1
102
RTVSPost2010Prop50
 90
       50
102
RTVSPost2010PropOp50
 70
     1
102
RTVSPost2010Prop51ColorIndex
 90
      256
102
RTVSPost2010Prop51ColorRGB
 90
-16777216
102
RTVSPost2010PropOp51
 70
     0
102
RTVSPost2010Prop52
140
1.0
102
RTVSPost2010PropOp52
 70
     0
102
RTVSPost2010Prop53
 90
        2
102
RTVSPost2010PropOp53
 70
     1
102
RTVSPost2010Prop54
  1
strokes_ogs.tif
102
RTVSPost2010PropOp54
 70
     1
102
RTVSPost2010Prop55
280
     0
102
RTVSPost2010PropOp55
 70
     1
102
RTVSPost2010Prop56
140
1.0
102
RTVSPost2010PropOp56
 70
     1
102
RTVSPost2010Prop57
140
1.0
102
RTVSPost2010PropOp57
 70
     1
  0
XRECORD
  5
308
102
{ACAD_REACTORS
330
307
102
}
330
307
100
AcDbXrecord
280
     1
102
RTVSPropertyOp0
 70
     1
102
RTVSPropertyOp1
 70
     1
102
RTVSPropertyOp2
 70
     1
102
RTVSPropertyOp3
 70
     1
102
RTVSPropertyOp4
 70
     1
102
RTVSPropertyOp5
 70
     1
102
RTVSPropertyOp6
 70
     1
102
RTVSPropertyOp7
 70
     1
102
RTVSPropertyOp8
 70
     1
102
RTVSPropertyOp9
 70
     1
102
RTVSPropertyOp10
 70
     1
102
RTVSPropertyOp11
 70
     1
102
RTVSPropertyOp12
 70
     1
102
RTVSPropertyOp13
 70
     1
102
RTVSPropertyOp14
 70
     1
102
RTVSPropertyOp15
 70
     1
102
RTVSPropertyOp16
 70
     1
102
RTVSPropertyOp17
 70
     1
102
RTVSPropertyOp18
 70
     1
102
RTVSPropertyOp19
 70
     1
102
RTVSPropertyOp20
 70
     1
102
RTVSPropertyOp21
 70
     1
102
RTVSPropertyOp22
 70
     1
102
RTVSPropertyOp23
 70
     1
102
RTVSPropertyOp24
 70
     1
102
RTVSPropertyOp25
 70
     1
102
RTVSPropertyOp26
 70
     1
102
RTVSPropertyOp27
 70
     1
102
RTVSPropertyOp28
 70
     1
102
RTVSPropertyOp29
 70
     1
102
RTVSPropertyOp30
 70
     1
102
RTVSPropertyOp31
 70
     1
102
RTVSPropertyOp32
 70
     1
102
RTVSPropertyOp33
 70
     1
102
RTVSPropertyOp34
 70
     1
102
RTVSPropertyOp35
 70
     1
102
RTVSPropertyOp36
 70
     1
102
RTVSPropertyOp37
 70
     1
102
RTVSPropertyOp38
 70
     1
102
RTVSPropertyOp39
 70
     1
102
RTVSPropertyOp40
 70
     1
102
RTVSPropertyOp41
 70
     1
102
RTVSPropertyOp42
 70
     1
102
RTVSPropertyOp43
 70
     1
102
RTVSPropertyOp44
 70
     1
102
RTVSPropertyOp45
 70
     1
102
RTVSPropertyOp46
 70
     1
102
RTVSPropertyOp47
 70
     1
102
RTVSPropertyOp48
 70
     1
102
RTVSPropertyOp49
 70
     1
102
RTVSPropertyOp50
 70
     1
102
RTVSPropertyOp51
 70
     0
102
RTVSPropertyOp52
 70
     0
102
RTVSPropertyOp53
 70
     1
102
RTVSPropertyOp54
 70
     1
102
RTVSPropertyOp55
 70
     1
102
RTVSPropertyOp56
 70
     1
102
RTVSPropertyOp57
 70
     1
102
RTVSPost2010Prop28
280
     0
102
RTVSPost2010PropOp28
 70
     1
102
RTVSPost2010Prop29
280
     1
102
RTVSPost2010PropOp29
 70
     1
102
RTVSPost2010Prop30
280
     1
102
RTVSPost2010PropOp30
 70
     1
102
RTVSPost2010Prop31
280
     0
102
RTVSPost2010PropOp31
 70
     1
102
RTVSPost2010Prop32
280
     0
102
RTVSPost2010PropOp32
 70
     1
102
RTVSPost2010Prop33
280
     0
102
RTVSPost2010PropOp33
 70
     1
102
RTVSPost2010Prop34
280
     0
102
RTVSPost2010PropOp34
 70
     1
102
RTVSPost2010Prop35
280
     0
102
RTVSPost2010PropOp35
 70
     1
102
RTVSPost2010Prop36
280
     0
102
RTVSPost2010PropOp36
 70
     1
102
RTVSPost2010Prop37
 90
       50
102
RTVSPost2010PropOp37
 70
     1
102
RTVSPost2010Prop38
140
0.0
102
RTVSPost2010PropOp38
 70
     1
102
RTVSPost2010Prop39
140
1.0
102
RTVSPost2010PropOp39
 70
     1
102
RTVSPost2010Prop40
 90
        0
102
RTVSPost2010PropOp40
 70
     1
102
RTVSPost2010Prop41ColorIndex
 90
       18
102
RTVSPost2010Prop41ColorRGB
 90
        0
102
RTVSPost2010PropOp41
 70
     1
102
RTVSPost2010Prop42
 90
       50
102
RTVSPost2010PropOp42
 70
     1
102
RTVSPost2010Prop43
 90
        3
102
RTVSPost2010PropOp43
 70
     1
102
RTVSPost2010Prop44ColorIndex
 90
        5
102
RTVSPost2010Prop44ColorRGB
 90
      255
102
RTVSPost2010PropOp44
 70
     1
102
RTVSPost2010Prop45
280
     0
102
RTVSPost2010PropOp45
 70
     1
102
RTVSPost2010Prop46
 90
       50
102
RTVSPost2010PropOp46
 70
     1
102
RTVSPost2010Prop47
 90
       50
102
RTVSPost2010PropOp47
 70
     1
102
RTVSPost2010Prop48
 90
       50
102
RTVSPost2010PropOp48
 70
     1
102
RTVSPost2010Prop49
280
     0
102
RTVSPost2010PropOp49
 70
     1
102
RTVSPost2010Prop50
 90
       50
102
RTVSPost2010PropOp50
 70
     1
102
RTVSPost2010Prop51ColorIndex
 90
      256
102
RTVSPost2010Prop51ColorRGB
 90
-16777216
102
RTVSPost2010PropOp51
 70
     0
102
RTVSPost2010Prop52
140
1.0
102
RTVSPost2010PropOp52
 70
     0
102
RTVSPost2010Prop53
 90
        2
102
RTVSPost2010PropOp53
 70
     1
102
RTVSPost2010Prop54
  1
strokes_ogs.tif
102
RTVSPost2010PropOp54
 70
     1
102
RTVSPost2010Prop55
280
     0
102
RTVSPost2010PropOp55
 70
     1
102
RTVSPost2010Prop56
140
1.0
102
RTVSPost2010PropOp56
 70
     1
102
RTVSPost2010Prop57
140
1.0
102
RTVSPost2010PropOp57
 70
     1
  0
XRECORD
  5
302
102
{ACAD_REACTORS
330
301
102
}
330
301
100
AcDbXrecord
280
     1
102
RTVSPropertyOp0
 70
     1
102
RTVSPropertyOp1
 70
     1
102
RTVSPropertyOp2
 70
     1
102
RTVSPropertyOp3
 70
     1
102
RTVSPropertyOp4
 70
     1
102
RTVSPropertyOp5
 70
     1
102
RTVSPropertyOp6
 70
     1
102
RTVSPropertyOp7
 70
     1
102
RTVSPropertyOp8
 70
     1
102
RTVSPropertyOp9
 70
     1
102
RTVSPropertyOp10
 70
     1
102
RTVSPropertyOp11
 70
     1
102
RTVSPropertyOp12
 70
     1
102
RTVSPropertyOp13
 70
     1
102
RTVSPropertyOp14
 70
     1
102
RTVSPropertyOp15
 70
     1
102
RTVSPropertyOp16
 70
     1
102
RTVSPropertyOp17
 70
     1
102
RTVSPropertyOp18
 70
     1
102
RTVSPropertyOp19
 70
     1
102
RTVSPropertyOp20
 70
     1
102
RTVSPropertyOp21
 70
     1
102
RTVSPropertyOp22
 70
     1
102
RTVSPropertyOp23
 70
     1
102
RTVSPropertyOp24
 70
     1
102
RTVSPropertyOp25
 70
     1
102
RTVSPropertyOp26
 70
     1
102
RTVSPropertyOp27
 70
     1
102
RTVSPropertyOp28
 70
     1
102
RTVSPropertyOp29
 70
     1
102
RTVSPropertyOp30
 70
     1
102
RTVSPropertyOp31
 70
     1
102
RTVSPropertyOp32
 70
     1
102
RTVSPropertyOp33
 70
     1
102
RTVSPropertyOp34
 70
     1
102
RTVSPropertyOp35
 70
     1
102
RTVSPropertyOp36
 70
     1
102
RTVSPropertyOp37
 70
     1
102
RTVSPropertyOp38
 70
     1
102
RTVSPropertyOp39
 70
     1
102
RTVSPropertyOp40
 70
     1
102
RTVSPropertyOp41
 70
     1
102
RTVSPropertyOp42
 70
     1
102
RTVSPropertyOp43
 70
     1
102
RTVSPropertyOp44
 70
     1
102
RTVSPropertyOp45
 70
     1
102
RTVSPropertyOp46
 70
     1
102
RTVSPropertyOp47
 70
     1
102
RTVSPropertyOp48
 70
     1
102
RTVSPropertyOp49
 70
     1
102
RTVSPropertyOp50
 70
     1
102
RTVSPropertyOp51
 70
     0
102
RTVSPropertyOp52
 70
     0
102
RTVSPropertyOp53
 70
     1
102
RTVSPropertyOp54
 70
     1
102
RTVSPropertyOp55
 70
     1
102
RTVSPropertyOp56
 70
     1
102
RTVSPropertyOp57
 70
     1
102
RTVSPost2010Prop28
280
     0
102
RTVSPost2010PropOp28
 70
     1
102
RTVSPost2010Prop29
280
     1
102
RTVSPost2010PropOp29
 70
     1
102
RTVSPost2010Prop30
280
     1
102
RTVSPost2010PropOp30
 70
     1
102
RTVSPost2010Prop31
280
     0
102
RTVSPost2010PropOp31
 70
     1
102
RTVSPost2010Prop32
280
     0
102
RTVSPost2010PropOp32
 70
     1
102
RTVSPost2010Prop33
280
     0
102
RTVSPost2010PropOp33
 70
     1
102
RTVSPost2010Prop34
280
     0
102
RTVSPost2010PropOp34
 70
     1
102
RTVSPost2010Prop35
280
     0
102
RTVSPost2010PropOp35
 70
     1
102
RTVSPost2010Prop36
280
     0
102
RTVSPost2010PropOp36
 70
     1
102
RTVSPost2010Prop37
 90
       50
102
RTVSPost2010PropOp37
 70
     1
102
RTVSPost2010Prop38
140
0.0
102
RTVSPost2010PropOp38
 70
     1
102
RTVSPost2010Prop39
140
1.0
102
RTVSPost2010PropOp39
 70
     1
102
RTVSPost2010Prop40
 90
        0
102
RTVSPost2010PropOp40
 70
     1
102
RTVSPost2010Prop41ColorIndex
 90
       18
102
RTVSPost2010Prop41ColorRGB
 90
        0
102
RTVSPost2010PropOp41
 70
     1
102
RTVSPost2010Prop42
 90
       50
102
RTVSPost2010PropOp42
 70
     1
102
RTVSPost2010Prop43
 90
        3
102
RTVSPost2010PropOp43
 70
     1
102
RTVSPost2010Prop44ColorIndex
 90
        5
102
RTVSPost2010Prop44ColorRGB
 90
      255
102
RTVSPost2010PropOp44
 70
     1
102
RTVSPost2010Prop45
280
     0
102
RTVSPost2010PropOp45
 70
     1
102
RTVSPost2010Prop46
 90
       50
102
RTVSPost2010PropOp46
 70
     1
102
RTVSPost2010Prop47
 90
       50
102
RTVSPost2010PropOp47
 70
     1
102
RTVSPost2010Prop48
 90
       50
102
RTVSPost2010PropOp48
 70
     1
102
RTVSPost2010Prop49
280
     0
102
RTVSPost2010PropOp49
 70
     1
102
RTVSPost2010Prop50
 90
       50
102
RTVSPost2010PropOp50
 70
     1
102
RTVSPost2010Prop51ColorIndex
 90
      256
102
RTVSPost2010Prop51ColorRGB
 90
-16777216
102
RTVSPost2010PropOp51
 70
     0
102
RTVSPost2010Prop52
140
1.0
102
RTVSPost2010PropOp52
 70
     0
102
RTVSPost2010Prop53
 90
        2
102
RTVSPost2010PropOp53
 70
     1
102
RTVSPost2010Prop54
  1
strokes_ogs.tif
102
RTVSPost2010PropOp54
 70
     1
102
RTVSPost2010Prop55
280
     0
102
RTVSPost2010PropOp55
 70
     1
102
RTVSPost2010Prop56
140
1.0
102
RTVSPost2010PropOp56
 70
     1
102
RTVSPost2010Prop57
140
1.0
102
RTVSPost2010PropOp57
 70
     1
  0
XRECORD
  5
304
102
{ACAD_REACTORS
330
303
102
}
330
303
100
AcDbXrecord
280
     1
102
RTVSPropertyOp0
 70
     1
102
RTVSPropertyOp1
 70
     1
102
RTVSPropertyOp2
 70
     1
102
RTVSPropertyOp3
 70
     1
102
RTVSPropertyOp4
 70
     1
102
RTVSPropertyOp5
 70
     1
102
RTVSPropertyOp6
 70
     1
102
RTVSPropertyOp7
 70
     1
102
RTVSPropertyOp8
 70
     1
102
RTVSPropertyOp9
 70
     1
102
RTVSPropertyOp10
 70
     1
102
RTVSPropertyOp11
 70
     1
102
RTVSPropertyOp12
 70
     1
102
RTVSPropertyOp13
 70
     1
102
RTVSPropertyOp14
 70
     1
102
RTVSPropertyOp15
 70
     1
102
RTVSPropertyOp16
 70
     1
102
RTVSPropertyOp17
 70
     1
102
RTVSPropertyOp18
 70
     1
102
RTVSPropertyOp19
 70
     1
102
RTVSPropertyOp20
 70
     1
102
RTVSPropertyOp21
 70
     1
102
RTVSPropertyOp22
 70
     1
102
RTVSPropertyOp23
 70
     1
102
RTVSPropertyOp24
 70
     1
102
RTVSPropertyOp25
 70
     1
102
RTVSPropertyOp26
 70
     1
102
RTVSPropertyOp27
 70
     1
102
RTVSPropertyOp28
 70
     1
102
RTVSPropertyOp29
 70
     1
102
RTVSPropertyOp30
 70
     1
102
RTVSPropertyOp31
 70
     1
102
RTVSPropertyOp32
 70
     1
102
RTVSPropertyOp33
 70
     1
102
RTVSPropertyOp34
 70
     1
102
RTVSPropertyOp35
 70
     1
102
RTVSPropertyOp36
 70
     1
102
RTVSPropertyOp37
 70
     1
102
RTVSPropertyOp38
 70
     1
102
RTVSPropertyOp39
 70
     1
102
RTVSPropertyOp40
 70
     1
102
RTVSPropertyOp41
 70
     1
102
RTVSPropertyOp42
 70
     1
102
RTVSPropertyOp43
 70
     1
102
RTVSPropertyOp44
 70
     1
102
RTVSPropertyOp45
 70
     1
102
RTVSPropertyOp46
 70
     1
102
RTVSPropertyOp47
 70
     1
102
RTVSPropertyOp48
 70
     1
102
RTVSPropertyOp49
 70
     1
102
RTVSPropertyOp50
 70
     1
102
RTVSPropertyOp51
 70
     0
102
RTVSPropertyOp52
 70
     0
102
RTVSPropertyOp53
 70
     1
102
RTVSPropertyOp54
 70
     1
102
RTVSPropertyOp55
 70
     1
102
RTVSPropertyOp56
 70
     1
102
RTVSPropertyOp57
 70
     1
102
RTVSPost2010Prop28
280
     0
102
RTVSPost2010PropOp28
 70
     1
102
RTVSPost2010Prop29
280
     1
102
RTVSPost2010PropOp29
 70
     1
102
RTVSPost2010Prop30
280
     1
102
RTVSPost2010PropOp30
 70
     1
102
RTVSPost2010Prop31
280
     0
102
RTVSPost2010PropOp31
 70
     1
102
RTVSPost2010Prop32
280
     0
102
RTVSPost2010PropOp32
 70
     1
102
RTVSPost2010Prop33
280
     0
102
RTVSPost2010PropOp33
 70
     1
102
RTVSPost2010Prop34
280
     0
102
RTVSPost2010PropOp34
 70
     1
102
RTVSPost2010Prop35
280
     0
102
RTVSPost2010PropOp35
 70
     1
102
RTVSPost2010Prop36
280
     0
102
RTVSPost2010PropOp36
 70
     1
102
RTVSPost2010Prop37
 90
       50
102
RTVSPost2010PropOp37
 70
     1
102
RTVSPost2010Prop38
140
0.0
102
RTVSPost2010PropOp38
 70
     1
102
RTVSPost2010Prop39
140
1.0
102
RTVSPost2010PropOp39
 70
     1
102
RTVSPost2010Prop40
 90
        0
102
RTVSPost2010PropOp40
 70
     1
102
RTVSPost2010Prop41ColorIndex
 90
       18
102
RTVSPost2010Prop41ColorRGB
 90
        0
102
RTVSPost2010PropOp41
 70
     1
102
RTVSPost2010Prop42
 90
       50
102
RTVSPost2010PropOp42
 70
     1
102
RTVSPost2010Prop43
 90
        3
102
RTVSPost2010PropOp43
 70
     1
102
RTVSPost2010Prop44ColorIndex
 90
        5
102
RTVSPost2010Prop44ColorRGB
 90
      255
102
RTVSPost2010PropOp44
 70
     1
102
RTVSPost2010Prop45
280
     0
102
RTVSPost2010PropOp45
 70
     1
102
RTVSPost2010Prop46
 90
       50
102
RTVSPost2010PropOp46
 70
     1
102
RTVSPost2010Prop47
 90
       50
102
RTVSPost2010PropOp47
 70
     1
102
RTVSPost2010Prop48
 90
       50
102
RTVSPost2010PropOp48
 70
     1
102
RTVSPost2010Prop49
280
     0
102
RTVSPost2010PropOp49
 70
     1
102
RTVSPost2010Prop50
 90
       50
102
RTVSPost2010PropOp50
 70
     1
102
RTVSPost2010Prop51ColorIndex
 90
      256
102
RTVSPost2010Prop51ColorRGB
 90
-16777216
102
RTVSPost2010PropOp51
 70
     0
102
RTVSPost2010Prop52
140
1.0
102
RTVSPost2010PropOp52
 70
     0
102
RTVSPost2010Prop53
 90
        2
102
RTVSPost2010PropOp53
 70
     1
102
RTVSPost2010Prop54
  1
strokes_ogs.tif
102
RTVSPost2010PropOp54
 70
     1
102
RTVSPost2010Prop55
280
     0
102
RTVSPost2010PropOp55
 70
     1
102
RTVSPost2010Prop56
140
1.0
102
RTVSPost2010PropOp56
 70
     1
102
RTVSPost2010Prop57
140
1.0
102
RTVSPost2010PropOp57
 70
     1
  0
XRECORD
  5
2F4
102
{ACAD_REACTORS
330
2F3
102
}
330
2F3
100
AcDbXrecord
280
     1
102
RTVSPropertyOp0
 70
     1
102
RTVSPropertyOp1
 70
     1
102
RTVSPropertyOp2
 70
     1
102
RTVSPropertyOp3
 70
     1
102
RTVSPropertyOp4
 70
     1
102
RTVSPropertyOp5
 70
     1
102
RTVSPropertyOp6
 70
     1
102
RTVSPropertyOp7
 70
     1
102
RTVSPropertyOp8
 70
     1
102
RTVSPropertyOp9
 70
     1
102
RTVSPropertyOp10
 70
     1
102
RTVSPropertyOp11
 70
     1
102
RTVSPropertyOp12
 70
     1
102
RTVSPropertyOp13
 70
     1
102
RTVSPropertyOp14
 70
     1
102
RTVSPropertyOp15
 70
     1
102
RTVSPropertyOp16
 70
     1
102
RTVSPropertyOp17
 70
     1
102
RTVSPropertyOp18
 70
     1
102
RTVSPropertyOp19
 70
     1
102
RTVSPropertyOp20
 70
     1
102
RTVSPropertyOp21
 70
     1
102
RTVSPropertyOp22
 70
     1
102
RTVSPropertyOp23
 70
     1
102
RTVSPropertyOp24
 70
     1
102
RTVSPropertyOp25
 70
     1
102
RTVSPropertyOp26
 70
     1
102
RTVSPropertyOp27
 70
     1
102
RTVSPropertyOp28
 70
     1
102
RTVSPropertyOp29
 70
     1
102
RTVSPropertyOp30
 70
     1
102
RTVSPropertyOp31
 70
     1
102
RTVSPropertyOp32
 70
     1
102
RTVSPropertyOp33
 70
     1
102
RTVSPropertyOp34
 70
     1
102
RTVSPropertyOp35
 70
     1
102
RTVSPropertyOp36
 70
     1
102
RTVSPropertyOp37
 70
     1
102
RTVSPropertyOp38
 70
     1
102
RTVSPropertyOp39
 70
     1
102
RTVSPropertyOp40
 70
     1
102
RTVSPropertyOp41
 70
     1
102
RTVSPropertyOp42
 70
     1
102
RTVSPropertyOp43
 70
     1
102
RTVSPropertyOp44
 70
     1
102
RTVSPropertyOp45
 70
     1
102
RTVSPropertyOp46
 70
     1
102
RTVSPropertyOp47
 70
     1
102
RTVSPropertyOp48
 70
     1
102
RTVSPropertyOp49
 70
     1
102
RTVSPropertyOp50
 70
     1
102
RTVSPropertyOp51
 70
     0
102
RTVSPropertyOp52
 70
     0
102
RTVSPropertyOp53
 70
     1
102
RTVSPropertyOp54
 70
     1
102
RTVSPropertyOp55
 70
     1
102
RTVSPropertyOp56
 70
     1
102
RTVSPropertyOp57
 70
     1
102
RTVSPost2010Prop28
280
     0
102
RTVSPost2010PropOp28
 70
     1
102
RTVSPost2010Prop29
280
     1
102
RTVSPost2010PropOp29
 70
     1
102
RTVSPost2010Prop30
280
     1
102
RTVSPost2010PropOp30
 70
     1
102
RTVSPost2010Prop31
280
     0
102
RTVSPost2010PropOp31
 70
     1
102
RTVSPost2010Prop32
280
     0
102
RTVSPost2010PropOp32
 70
     1
102
RTVSPost2010Prop33
280
     0
102
RTVSPost2010PropOp33
 70
     1
102
RTVSPost2010Prop34
280
     0
102
RTVSPost2010PropOp34
 70
     1
102
RTVSPost2010Prop35
280
     0
102
RTVSPost2010PropOp35
 70
     1
102
RTVSPost2010Prop36
280
     0
102
RTVSPost2010PropOp36
 70
     1
102
RTVSPost2010Prop37
 90
       50
102
RTVSPost2010PropOp37
 70
     1
102
RTVSPost2010Prop38
140
0.0
102
RTVSPost2010PropOp38
 70
     1
102
RTVSPost2010Prop39
140
1.0
102
RTVSPost2010PropOp39
 70
     1
102
RTVSPost2010Prop40
 90
        0
102
RTVSPost2010PropOp40
 70
     1
102
RTVSPost2010Prop41ColorIndex
 90
       18
102
RTVSPost2010Prop41ColorRGB
 90
        0
102
RTVSPost2010PropOp41
 70
     1
102
RTVSPost2010Prop42
 90
       50
102
RTVSPost2010PropOp42
 70
     1
102
RTVSPost2010Prop43
 90
        3
102
RTVSPost2010PropOp43
 70
     1
102
RTVSPost2010Prop44ColorIndex
 90
        5
102
RTVSPost2010Prop44ColorRGB
 90
      255
102
RTVSPost2010PropOp44
 70
     1
102
RTVSPost2010Prop45
280
     0
102
RTVSPost2010PropOp45
 70
     1
102
RTVSPost2010Prop46
 90
       50
102
RTVSPost2010PropOp46
 70
     1
102
RTVSPost2010Prop47
 90
       50
102
RTVSPost2010PropOp47
 70
     1
102
RTVSPost2010Prop48
 90
       50
102
RTVSPost2010PropOp48
 70
     1
102
RTVSPost2010Prop49
280
     0
102
RTVSPost2010PropOp49
 70
     1
102
RTVSPost2010Prop50
 90
       50
102
RTVSPost2010PropOp50
 70
     1
102
RTVSPost2010Prop51ColorIndex
 90
      256
102
RTVSPost2010Prop51ColorRGB
 90
-16777216
102
RTVSPost2010PropOp51
 70
     0
102
RTVSPost2010Prop52
140
1.0
102
RTVSPost2010PropOp52
 70
     0
102
RTVSPost2010Prop53
 90
        2
102
RTVSPost2010PropOp53
 70
     1
102
RTVSPost2010Prop54
  1
strokes_ogs.tif
102
RTVSPost2010PropOp54
 70
     1
102
RTVSPost2010Prop55
280
     0
102
RTVSPost2010PropOp55
 70
     1
102
RTVSPost2010Prop56
140
1.0
102
RTVSPost2010PropOp56
 70
     1
102
RTVSPost2010Prop57
140
1.0
102
RTVSPost2010PropOp57
 70
     1
  0
XRECORD
  5
2E6
102
{ACAD_REACTORS
330
2E5
102
}
330
2E5
100
AcDbXrecord
280
     1
102
RTVSPropertyOp0
 70
     1
102
RTVSPropertyOp1
 70
     1
102
RTVSPropertyOp2
 70
     1
102
RTVSPropertyOp3
 70
     1
102
RTVSPropertyOp4
 70
     1
102
RTVSPropertyOp5
 70
     1
102
RTVSPropertyOp6
 70
     1
102
RTVSPropertyOp7
 70
     1
102
RTVSPropertyOp8
 70
     1
102
RTVSPropertyOp9
 70
     1
102
RTVSPropertyOp10
 70
     1
102
RTVSPropertyOp11
 70
     1
102
RTVSPropertyOp12
 70
     1
102
RTVSPropertyOp13
 70
     1
102
RTVSPropertyOp14
 70
     1
102
RTVSPropertyOp15
 70
     1
102
RTVSPropertyOp16
 70
     1
102
RTVSPropertyOp17
 70
     1
102
RTVSPropertyOp18
 70
     1
102
RTVSPropertyOp19
 70
     1
102
RTVSPropertyOp20
 70
     1
102
RTVSPropertyOp21
 70
     1
102
RTVSPropertyOp22
 70
     1
102
RTVSPropertyOp23
 70
     1
102
RTVSPropertyOp24
 70
     1
102
RTVSPropertyOp25
 70
     1
102
RTVSPropertyOp26
 70
     1
102
RTVSPropertyOp27
 70
     1
102
RTVSPropertyOp28
 70
     1
102
RTVSPropertyOp29
 70
     1
102
RTVSPropertyOp30
 70
     1
102
RTVSPropertyOp31
 70
     1
102
RTVSPropertyOp32
 70
     1
102
RTVSPropertyOp33
 70
     1
102
RTVSPropertyOp34
 70
     1
102
RTVSPropertyOp35
 70
     1
102
RTVSPropertyOp36
 70
     1
102
RTVSPropertyOp37
 70
     1
102
RTVSPropertyOp38
 70
     1
102
RTVSPropertyOp39
 70
     1
102
RTVSPropertyOp40
 70
     1
102
RTVSPropertyOp41
 70
     1
102
RTVSPropertyOp42
 70
     1
102
RTVSPropertyOp43
 70
     1
102
RTVSPropertyOp44
 70
     1
102
RTVSPropertyOp45
 70
     1
102
RTVSPropertyOp46
 70
     1
102
RTVSPropertyOp47
 70
     1
102
RTVSPropertyOp48
 70
     1
102
RTVSPropertyOp49
 70
     1
102
RTVSPropertyOp50
 70
     1
102
RTVSPropertyOp51
 70
     0
102
RTVSPropertyOp52
 70
     0
102
RTVSPropertyOp53
 70
     1
102
RTVSPropertyOp54
 70
     1
102
RTVSPropertyOp55
 70
     1
102
RTVSPropertyOp56
 70
     1
102
RTVSPropertyOp57
 70
     1
102
RTVSPost2010Prop28
280
     0
102
RTVSPost2010PropOp28
 70
     1
102
RTVSPost2010Prop29
280
     1
102
RTVSPost2010PropOp29
 70
     1
102
RTVSPost2010Prop30
280
     1
102
RTVSPost2010PropOp30
 70
     1
102
RTVSPost2010Prop31
280
     0
102
RTVSPost2010PropOp31
 70
     1
102
RTVSPost2010Prop32
280
     0
102
RTVSPost2010PropOp32
 70
     1
102
RTVSPost2010Prop33
280
     0
102
RTVSPost2010PropOp33
 70
     1
102
RTVSPost2010Prop34
280
     0
102
RTVSPost2010PropOp34
 70
     1
102
RTVSPost2010Prop35
280
     0
102
RTVSPost2010PropOp35
 70
     1
102
RTVSPost2010Prop36
280
     0
102
RTVSPost2010PropOp36
 70
     1
102
RTVSPost2010Prop37
 90
       50
102
RTVSPost2010PropOp37
 70
     1
102
RTVSPost2010Prop38
140
0.0
102
RTVSPost2010PropOp38
 70
     1
102
RTVSPost2010Prop39
140
1.0
102
RTVSPost2010PropOp39
 70
     1
102
RTVSPost2010Prop40
 90
        0
102
RTVSPost2010PropOp40
 70
     1
102
RTVSPost2010Prop41ColorIndex
 90
       18
102
RTVSPost2010Prop41ColorRGB
 90
        0
102
RTVSPost2010PropOp41
 70
     1
102
RTVSPost2010Prop42
 90
       50
102
RTVSPost2010PropOp42
 70
     1
102
RTVSPost2010Prop43
 90
        3
102
RTVSPost2010PropOp43
 70
     1
102
RTVSPost2010Prop44ColorIndex
 90
        5
102
RTVSPost2010Prop44ColorRGB
 90
      255
102
RTVSPost2010PropOp44
 70
     1
102
RTVSPost2010Prop45
280
     0
102
RTVSPost2010PropOp45
 70
     1
102
RTVSPost2010Prop46
 90
       50
102
RTVSPost2010PropOp46
 70
     1
102
RTVSPost2010Prop47
 90
       50
102
RTVSPost2010PropOp47
 70
     1
102
RTVSPost2010Prop48
 90
       50
102
RTVSPost2010PropOp48
 70
     1
102
RTVSPost2010Prop49
280
     0
102
RTVSPost2010PropOp49
 70
     1
102
RTVSPost2010Prop50
 90
       50
102
RTVSPost2010PropOp50
 70
     1
102
RTVSPost2010Prop51ColorIndex
 90
      256
102
RTVSPost2010Prop51ColorRGB
 90
-16777216
102
RTVSPost2010PropOp51
 70
     0
102
RTVSPost2010Prop52
140
1.0
102
RTVSPost2010PropOp52
 70
     0
102
RTVSPost2010Prop53
 90
        2
102
RTVSPost2010PropOp53
 70
     1
102
RTVSPost2010Prop54
  1
strokes_ogs.tif
102
RTVSPost2010PropOp54
 70
     1
102
RTVSPost2010Prop55
280
     0
102
RTVSPost2010PropOp55
 70
     1
102
RTVSPost2010Prop56
140
1.0
102
RTVSPost2010PropOp56
 70
     1
102
RTVSPost2010Prop57
140
1.0
102
RTVSPost2010PropOp57
 70
     1
  0
XRECORD
  5
306
102
{ACAD_REACTORS
330
305
102
}
330
305
100
AcDbXrecord
280
     1
102
RTVSPropertyOp0
 70
     1
102
RTVSPropertyOp1
 70
     1
102
RTVSPropertyOp2
 70
     1
102
RTVSPropertyOp3
 70
     1
102
RTVSPropertyOp4
 70
     1
102
RTVSPropertyOp5
 70
     1
102
RTVSPropertyOp6
 70
     1
102
RTVSPropertyOp7
 70
     1
102
RTVSPropertyOp8
 70
     1
102
RTVSPropertyOp9
 70
     1
102
RTVSPropertyOp10
 70
     1
102
RTVSPropertyOp11
 70
     1
102
RTVSPropertyOp12
 70
     1
102
RTVSPropertyOp13
 70
     1
102
RTVSPropertyOp14
 70
     1
102
RTVSPropertyOp15
 70
     1
102
RTVSPropertyOp16
 70
     1
102
RTVSPropertyOp17
 70
     1
102
RTVSPropertyOp18
 70
     1
102
RTVSPropertyOp19
 70
     1
102
RTVSPropertyOp20
 70
     1
102
RTVSPropertyOp21
 70
     1
102
RTVSPropertyOp22
 70
     1
102
RTVSPropertyOp23
 70
     1
102
RTVSPropertyOp24
 70
     1
102
RTVSPropertyOp25
 70
     1
102
RTVSPropertyOp26
 70
     1
102
RTVSPropertyOp27
 70
     1
102
RTVSPropertyOp28
 70
     1
102
RTVSPropertyOp29
 70
     1
102
RTVSPropertyOp30
 70
     1
102
RTVSPropertyOp31
 70
     1
102
RTVSPropertyOp32
 70
     1
102
RTVSPropertyOp33
 70
     1
102
RTVSPropertyOp34
 70
     1
102
RTVSPropertyOp35
 70
     1
102
RTVSPropertyOp36
 70
     1
102
RTVSPropertyOp37
 70
     1
102
RTVSPropertyOp38
 70
     1
102
RTVSPropertyOp39
 70
     1
102
RTVSPropertyOp40
 70
     1
102
RTVSPropertyOp41
 70
     1
102
RTVSPropertyOp42
 70
     1
102
RTVSPropertyOp43
 70
     1
102
RTVSPropertyOp44
 70
     1
102
RTVSPropertyOp45
 70
     1
102
RTVSPropertyOp46
 70
     1
102
RTVSPropertyOp47
 70
     1
102
RTVSPropertyOp48
 70
     1
102
RTVSPropertyOp49
 70
     1
102
RTVSPropertyOp50
 70
     1
102
RTVSPropertyOp51
 70
     0
102
RTVSPropertyOp52
 70
     0
102
RTVSPropertyOp53
 70
     1
102
RTVSPropertyOp54
 70
     1
102
RTVSPropertyOp55
 70
     1
102
RTVSPropertyOp56
 70
     1
102
RTVSPropertyOp57
 70
     1
102
RTVSPost2010Prop28
280
     0
102
RTVSPost2010PropOp28
 70
     1
102
RTVSPost2010Prop29
280
     1
102
RTVSPost2010PropOp29
 70
     1
102
RTVSPost2010Prop30
280
     1
102
RTVSPost2010PropOp30
 70
     1
102
RTVSPost2010Prop31
280
     0
102
RTVSPost2010PropOp31
 70
     1
102
RTVSPost2010Prop32
280
     0
102
RTVSPost2010PropOp32
 70
     1
102
RTVSPost2010Prop33
280
     0
102
RTVSPost2010PropOp33
 70
     1
102
RTVSPost2010Prop34
280
     0
102
RTVSPost2010PropOp34
 70
     1
102
RTVSPost2010Prop35
280
     0
102
RTVSPost2010PropOp35
 70
     1
102
RTVSPost2010Prop36
280
     0
102
RTVSPost2010PropOp36
 70
     1
102
RTVSPost2010Prop37
 90
       50
102
RTVSPost2010PropOp37
 70
     1
102
RTVSPost2010Prop38
140
0.0
102
RTVSPost2010PropOp38
 70
     1
102
RTVSPost2010Prop39
140
1.0
102
RTVSPost2010PropOp39
 70
     1
102
RTVSPost2010Prop40
 90
        0
102
RTVSPost2010PropOp40
 70
     1
102
RTVSPost2010Prop41ColorIndex
 90
       18
102
RTVSPost2010Prop41ColorRGB
 90
        0
102
RTVSPost2010PropOp41
 70
     1
102
RTVSPost2010Prop42
 90
       50
102
RTVSPost2010PropOp42
 70
     1
102
RTVSPost2010Prop43
 90
        3
102
RTVSPost2010PropOp43
 70
     1
102
RTVSPost2010Prop44ColorIndex
 90
        5
102
RTVSPost2010Prop44ColorRGB
 90
      255
102
RTVSPost2010PropOp44
 70
     1
102
RTVSPost2010Prop45
280
     0
102
RTVSPost2010PropOp45
 70
     1
102
RTVSPost2010Prop46
 90
       50
102
RTVSPost2010PropOp46
 70
     1
102
RTVSPost2010Prop47
 90
       50
102
RTVSPost2010PropOp47
 70
     1
102
RTVSPost2010Prop48
 90
       50
102
RTVSPost2010PropOp48
 70
     1
102
RTVSPost2010Prop49
280
     0
102
RTVSPost2010PropOp49
 70
     1
102
RTVSPost2010Prop50
 90
       50
102
RTVSPost2010PropOp50
 70
     1
102
RTVSPost2010Prop51ColorIndex
 90
      256
102
RTVSPost2010Prop51ColorRGB
 90
-16777216
102
RTVSPost2010PropOp51
 70
     0
102
RTVSPost2010Prop52
140
1.0
102
RTVSPost2010PropOp52
 70
     0
102
RTVSPost2010Prop53
 90
        2
102
RTVSPost2010PropOp53
 70
     1
102
RTVSPost2010Prop54
  1
strokes_ogs.tif
102
RTVSPost2010PropOp54
 70
     1
102
RTVSPost2010Prop55
280
     0
102
RTVSPost2010PropOp55
 70
     1
102
RTVSPost2010Prop56
140
1.0
102
RTVSPost2010PropOp56
 70
     1
102
RTVSPost2010Prop57
140
1.0
102
RTVSPost2010PropOp57
 70
     1
  0
ENDSEC
  0
EOF
