  0
SECTION
  2
HEADER
  9
$ACADVER
  1
AC1018
  9
$ACADMAINTVER
 70
     0
  9
$DWGCODEPAGE
  3
ANSI_1252
  9
$COMMENTS
  1
File was created by ARCHline.XP2015
  9
$INSBASE
 10
0.0
 20
0.0
 30
0.0
  9
$EXTMIN
 10
1.220070422535173
 20
0.9586267605636749
 30
0.0
  9
$EXTMAX
 10
2971.220070422535
 20
2100.958626760564
 30
0.0
  9
$LIMMIN
 10
0.0
 20
0.0
  9
$LIMMAX
 10
12.0
 20
9.0
  9
$ORTHOMODE
 70
     0
  9
$REGENMODE
 70
     1
  9
$FILLMODE
 70
     1
  9
$QTEXTMODE
 70
     0
  9
$MIRRTEXT
 70
     1
  9
$LTSCALE
 40
1.0
  9
$ATTMODE
 70
     1
  9
$TEXTSIZE
 40
0.2
  9
$TRACEWID
 40
0.05
  9
$TEXTSTYLE
  7
Standard
  9
$CLAYER
  8
0
  9
$CELTYPE
  6
ByLayer
  9
$CECOLOR
 62
   256
  9
$CELTSCALE
 40
1.0
  9
$DISPSILH
 70
     0
  9
$DIMSCALE
 40
1.0
  9
$DIMASZ
 40
0.18
  9
$DIMEXO
 40
0.0625
  9
$DIMDLI
 40
0.38
  9
$DIMRND
 40
0.0
  9
$DIMDLE
 40
0.0
  9
$DIMEXE
 40
0.18
  9
$DIMTP
 40
0.0
  9
$DIMTM
 40
0.0
  9
$DIMTXT
 40
0.18
  9
$DIMCEN
 40
0.09
  9
$DIMTSZ
 40
0.0
  9
$DIMTOL
 70
     0
  9
$DIMLIM
 70
     0
  9
$DIMTIH
 70
     1
  9
$DIMTOH
 70
     1
  9
$DIMSE1
 70
     0
  9
$DIMSE2
 70
     0
  9
$DIMTAD
 70
     0
  9
$DIMZIN
 70
     0
  9
$DIMBLK
  1

  9
$DIMASO
 70
     1
  9
$DIMSHO
 70
     1
  9
$DIMPOST
  1

  9
$DIMAPOST
  1

  9
$DIMALT
 70
     0
  9
$DIMALTD
 70
     2
  9
$DIMALTF
 40
25.4
  9
$DIMLFAC
 40
1.0
  9
$DIMTOFL
 70
     0
  9
$DIMTVP
 40
0.0
  9
$DIMTIX
 70
     0
  9
$DIMSOXD
 70
     0
  9
$DIMSAH
 70
     0
  9
$DIMBLK1
  1

  9
$DIMBLK2
  1

  9
$DIMSTYLE
  2
Standard
  9
$DIMCLRD
 70
     0
  9
$DIMCLRE
 70
     0
  9
$DIMCLRT
 70
     0
  9
$DIMTFAC
 40
1.0
  9
$DIMGAP
 40
0.09
  9
$DIMJUST
 70
     0
  9
$DIMSD1
 70
     0
  9
$DIMSD2
 70
     0
  9
$DIMTOLJ
 70
     1
  9
$DIMTZIN
 70
     0
  9
$DIMALTZ
 70
     0
  9
$DIMALTTZ
 70
     0
  9
$DIMUPT
 70
     0
  9
$DIMDEC
 70
     4
  9
$DIMTDEC
 70
     4
  9
$DIMALTU
 70
     2
  9
$DIMALTTD
 70
     2
  9
$DIMTXSTY
  7
Standard
  9
$DIMAUNIT
 70
     0
  9
$DIMADEC
 70
     0
  9
$DIMALTRND
 40
0.0
  9
$DIMAZIN
 70
     0
  9
$DIMDSEP
 70
    46
  9
$DIMATFIT
 70
     3
  9
$DIMFRAC
 70
     0
  9
$DIMLDRBLK
  1

  9
$DIMLUNIT
 70
     2
  9
$DIMLWD
 70
    -2
  9
$DIMLWE
 70
    -2
  9
$DIMTMOVE
 70
     0
  9
$LUNITS
 70
     2
  9
$LUPREC
 70
     4
  9
$SKETCHINC
 40
0.1
  9
$FILLETRAD
 40
0.5
  9
$AUNITS
 70
     0
  9
$AUPREC
 70
     0
  9
$MENU
  1
.
  9
$ELEVATION
 40
0.0
  9
$PELEVATION
 40
0.0
  9
$THICKNESS
 40
0.0
  9
$LIMCHECK
 70
     0
  9
$CHAMFERA
 40
0.0
  9
$CHAMFERB
 40
0.0
  9
$CHAMFERC
 40
0.0
  9
$CHAMFERD
 40
0.0
  9
$SKPOLY
 70
     0
  9
$TDCREATE
 40
2457527.563881041
  9
$TDUCREATE
 40
2457527.480547708
  9
$TDUPDATE
 40
2457527.563881782
  9
$TDUUPDATE
 40
2457527.480548449
  9
$TDINDWG
 40
0.0000000116
  9
$TDUSRTIMER
 40
0.0000000116
  9
$USRTIMER
 70
     1
  9
$ANGBASE
 50
0.0
  9
$ANGDIR
 70
     0
  9
$PDMODE
 70
     0
  9
$PDSIZE
 40
0.0
  9
$PLINEWID
 40
0.0
  9
$SPLFRAME
 70
     0
  9
$SPLINETYPE
 70
     6
  9
$SPLINESEGS
 70
     8
  9
$HANDSEED
  5
3B1
  9
$SURFTAB1
 70
     6
  9
$SURFTAB2
 70
     6
  9
$SURFTYPE
 70
     6
  9
$SURFU
 70
     6
  9
$SURFV
 70
     6
  9
$UCSBASE
  2

  9
$UCSNAME
  2

  9
$UCSORG
 10
0.0
 20
0.0
 30
0.0
  9
$UCSXDIR
 10
1.0
 20
0.0
 30
0.0
  9
$UCSYDIR
 10
0.0
 20
1.0
 30
0.0
  9
$UCSORTHOREF
  2

  9
$UCSORTHOVIEW
 70
     0
  9
$UCSORGTOP
 10
0.0
 20
0.0
 30
0.0
  9
$UCSORGBOTTOM
 10
0.0
 20
0.0
 30
0.0
  9
$UCSORGLEFT
 10
0.0
 20
0.0
 30
0.0
  9
$UCSORGRIGHT
 10
0.0
 20
0.0
 30
0.0
  9
$UCSORGFRONT
 10
0.0
 20
0.0
 30
0.0
  9
$UCSORGBACK
 10
0.0
 20
0.0
 30
0.0
  9
$PUCSBASE
  2

  9
$PUCSNAME
  2

  9
$PUCSORG
 10
0.0
 20
0.0
 30
0.0
  9
$PUCSXDIR
 10
1.0
 20
0.0
 30
0.0
  9
$PUCSYDIR
 10
0.0
 20
1.0
 30
0.0
  9
$PUCSORTHOREF
  2

  9
$PUCSORTHOVIEW
 70
     0
  9
$PUCSORGTOP
 10
0.0
 20
0.0
 30
0.0
  9
$PUCSORGBOTTOM
 10
0.0
 20
0.0
 30
0.0
  9
$PUCSORGLEFT
 10
0.0
 20
0.0
 30
0.0
  9
$PUCSORGRIGHT
 10
0.0
 20
0.0
 30
0.0
  9
$PUCSORGFRONT
 10
0.0
 20
0.0
 30
0.0
  9
$PUCSORGBACK
 10
0.0
 20
0.0
 30
0.0
  9
$USERI1
 70
     0
  9
$USERI2
 70
     0
  9
$USERI3
 70
     0
  9
$USERI4
 70
     0
  9
$USERI5
 70
     0
  9
$USERR1
 40
0.0
  9
$USERR2
 40
0.0
  9
$USERR3
 40
0.0
  9
$USERR4
 40
0.0
  9
$USERR5
 40
0.0
  9
$WORLDVIEW
 70
     1
  9
$SHADEDGE
 70
     3
  9
$SHADEDIF
 70
    70
  9
$TILEMODE
 70
     1
  9
$MAXACTVP
 70
    64
  9
$PINSBASE
 10
0.0
 20
0.0
 30
0.0
  9
$PLIMCHECK
 70
     0
  9
$PEXTMIN
 10
1.000000000000000E+20
 20
1.000000000000000E+20
 30
1.000000000000000E+20
  9
$PEXTMAX
 10
-1.000000000000000E+20
 20
-1.000000000000000E+20
 30
-1.000000000000000E+20
  9
$PLIMMIN
 10
0.0
 20
0.0
  9
$PLIMMAX
 10
12.0
 20
9.0
  9
$UNITMODE
 70
     0
  9
$VISRETAIN
 70
     1
  9
$PLINEGEN
 70
     0
  9
$PSLTSCALE
 70
     1
  9
$TREEDEPTH
 70
  3020
  9
$CMLSTYLE
  2
Standard
  9
$CMLJUST
 70
     0
  9
$CMLSCALE
 40
1.0
  9
$PROXYGRAPHICS
 70
     1
  9
$MEASUREMENT
 70
     0
  9
$CELWEIGHT
370
    -1
  9
$ENDCAPS
280
     0
  9
$JOINSTYLE
280
     0
  9
$LWDISPLAY
290
     0
  9
$INSUNITS
 70
     1
  9
$HYPERLINKBASE
  1

  9
$STYLESHEET
  1

  9
$XEDIT
290
     1
  9
$CEPSNTYPE
380
     0
  9
$PSTYLEMODE
290
     1
  9
$FINGERPRINTGUID
  2
{4E9876B9-6182-4C48-B713-B69D7CAA0CAC}
  9
$VERSIONGUID
  2
{FAEB1C32-E019-11D5-929B-00C0DF256EC4}
  9
$EXTNAMES
290
     1
  9
$PSVPSCALE
 40
0.0
  9
$OLESTARTUP
290
     0
  9
$SORTENTS
280
   127
  9
$INDEXCTL
280
     0
  9
$HIDETEXT
280
     1
  9
$XCLIPFRAME
290
     0
  9
$HALOGAP
280
     0
  9
$OBSCOLOR
 70
   257
  9
$OBSLTYPE
280
     0
  9
$INTERSECTIONDISPLAY
280
     0
  9
$INTERSECTIONCOLOR
 70
   257
  9
$DIMASSOC
280
     2
  9
$PROJECTNAME
  1

  0
ENDSEC
  0
SECTION
  2
CLASSES
  0
CLASS
  1
ACDBDICTIONARYWDFLT
  2
AcDbDictionaryWithDefault
  3
ObjectDBX Classes
 90
        0
 91
        4
280
     0
281
     0
  0
CLASS
  1
VISUALSTYLE
  2
AcDbVisualStyle
  3
ObjectDBX Classes
 90
     4095
 91
        4
280
     0
281
     0
  0
CLASS
  1
MATERIAL
  2
AcDbMaterial
  3
ObjectDBX Classes
 90
     1153
 91
        4
280
     0
281
     0
  0
CLASS
  1
SCALE
  2
AcDbScale
  3
ObjectDBX Classes
 90
     1153
 91
        4
280
     0
281
     0
  0
CLASS
  1
TABLESTYLE
  2
AcDbTableStyle
  3
ObjectDBX Classes
 90
     4095
 91
        4
280
     0
281
     0
  0
CLASS
  1
MLEADERSTYLE
  2
AcDbMLeaderStyle
  3
ACDB_MLEADERSTYLE_CLASS
 90
     4095
 91
        4
280
     0
281
     0
  0
CLASS
  1
SUN
  2
AcDbSun
  3
SCENEOE
 90
     1153
 91
        4
280
     0
281
     0
  0
CLASS
  1
IMAGEDEF
  2
AcDbRasterImageDef
  3
ISM
 90
        0
 91
        4
280
     0
281
     0
  0
CLASS
  1
IMAGE
  2
AcDbRasterImage
  3
ISM
 90
      127
 91
        5
280
     0
281
     1
  0
CLASS
  1
IMAGEDEF_REACTOR
  2
AcDbRasterImageDefReactor
  3
ISM
 90
        1
 91
        4
280
     0
281
     0
  0
CLASS
  1
DICTIONARYVAR
  2
AcDbDictionaryVar
  3
ObjectDBX Classes
 90
        0
 91
        4
280
     0
281
     0
  0
CLASS
  1
CELLSTYLEMAP
  2
AcDbCellStyleMap
  3
ObjectDBX Classes
 90
     1152
 91
        4
280
     0
281
     0
  0
ENDSEC
  0
SECTION
  2
TABLES
  0
TABLE
  2
VPORT
  5
8
102
{ACAD_XDICTIONARY
360
36A
102
}
330
0
100
AcDbSymbolTable
 70
     1
  0
VPORT
  5
29
330
8
100
AcDbSymbolTableRecord
100
AcDbViewportTableRecord
  2
*Active
 70
     0
 10
0.0
 20
0.0
 11
1.0
 21
1.0
 12
10.42990654205607
 22
4.5
 13
0.0
 23
0.0
 14
0.5
 24
0.5
 15
0.5
 25
0.5
 16
0.0
 26
0.0
 36
1.0
 17
0.0
 27
0.0
 37
0.0
 40
9.0
 41
1.972972972850329
 42
50.0
 43
0.0
 44
0.0
 50
0.0
 51
0.0
 71
     0
 72
   100
 73
     1
 74
     3
 75
     0
 76
     0
 77
     0
 78
     0
281
     0
 65
     1
110
0.0
120
0.0
130
0.0
111
1.0
121
0.0
131
0.0
112
0.0
122
1.0
132
0.0
 79
     0
146
0.0
  0
ENDTAB
  0
TABLE
  2
LTYPE
  5
5
330
0
100
AcDbSymbolTable
 70
    45
  0
LTYPE
  5
14
330
5
100
AcDbSymbolTableRecord
100
AcDbLinetypeTableRecord
  2
ByBlock
 70
     0
  3

 72
    65
 73
     0
 40
0.0
  0
LTYPE
  5
15
330
5
100
AcDbSymbolTableRecord
100
AcDbLinetypeTableRecord
  2
ByLayer
 70
     0
  3

 72
    65
 73
     0
 40
0.0
  0
LTYPE
  5
16
330
5
100
AcDbSymbolTableRecord
100
AcDbLinetypeTableRecord
  2
Continuous
 70
     0
  3
Solid line
 72
    65
 73
     0
 40
0.0
  0
LTYPE
  5
6F
330
5
100
AcDbSymbolTableRecord
100
AcDbLinetypeTableRecord
  2
HIDDEN
 70
     0
  3
_ _ _ _ _ _ _ _ _ _ _ _ _ _ _ _ _ _ _ _ _ _ _
 72
    65
 73
     2
 40
0.375
 49
0.25
 74
     0
 49
-0.125
 74
     0
  0
LTYPE
  5
70
330
5
100
AcDbSymbolTableRecord
100
AcDbLinetypeTableRecord
  2
CENTER
 70
     0
  3
____ _ ____ _ ____ _ ____ _ ____ _ ____ _ ____
 72
    65
 73
     4
 40
2.0
 49
1.25
 74
     0
 49
-0.25
 74
     0
 49
0.25
 74
     0
 49
-0.25
 74
     0
  0
LTYPE
  5
71
330
5
100
AcDbSymbolTableRecord
100
AcDbLinetypeTableRecord
  2
DASHED
 70
     0
  3
__ __ __ __ __ __ __ __ __ __ __ __ __ __ __
 72
    65
 73
     2
 40
1.5
 49
1.25
 74
     0
 49
-0.25
 74
     0
  0
LTYPE
  5
72
330
5
100
AcDbSymbolTableRecord
100
AcDbLinetypeTableRecord
  2
Gepunktete
 70
     0
  3

 72
    65
 73
     2
 40
1.560000061988831
 49
0.3600000143051147
 74
     0
 49
-1.200000047683716
 74
     0
  0
LTYPE
  5
73
330
5
100
AcDbSymbolTableRecord
100
AcDbLinetypeTableRecord
  2
Strichpunktierte
 70
     0
  3

 72
    65
 73
     4
 40
4.920000046491623
 49
3.0
 74
     0
 49
-0.7200000286102295
 74
     0
 49
0.4799999892711639
 74
     0
 49
-0.7200000286102295
 74
     0
  0
LTYPE
  5
74
330
5
100
AcDbSymbolTableRecord
100
AcDbLinetypeTableRecord
  2
Strichellinie
 70
     0
  3

 72
    65
 73
     2
 40
2.399999976158142
 49
1.799999952316284
 74
     0
 49
-0.6000000238418579
 74
     0
  0
LTYPE
  5
75
330
5
100
AcDbSymbolTableRecord
100
AcDbLinetypeTableRecord
  2
2Punkt
 70
     0
  3

 72
    65
 73
     6
 40
6.120000123977661
 49
3.0
 74
     0
 49
-0.7200000286102295
 74
     0
 49
0.4800000190734863
 74
     0
 49
-0.7200000286102295
 74
     0
 49
0.4800000190734863
 74
     0
 49
-0.7200000286102295
 74
     0
  0
LTYPE
  5
76
330
5
100
AcDbSymbolTableRecord
100
AcDbLinetypeTableRecord
  2
2Punkt-2Abstand
 70
     0
  3

 72
    65
 73
     6
 40
8.28000020980835
 49
3.0
 74
     0
 49
-1.440000057220459
 74
     0
 49
0.4800000190734863
 74
     0
 49
-1.440000057220459
 74
     0
 49
0.4800000190734863
 74
     0
 49
-1.440000057220459
 74
     0
  0
LTYPE
  5
77
330
5
100
AcDbSymbolTableRecord
100
AcDbLinetypeTableRecord
  2
2Punkt-3Abstand
 70
     0
  3

 72
    65
 73
     6
 40
11.26800036430359
 49
3.0
 74
     0
 49
-2.436000108718872
 74
     0
 49
0.4800000190734863
 74
     0
 49
-2.436000108718872
 74
     0
 49
0.4800000190734863
 74
     0
 49
-2.436000108718872
 74
     0
  0
LTYPE
  5
78
330
5
100
AcDbSymbolTableRecord
100
AcDbLinetypeTableRecord
  2
Gepunktete Var.2
 70
     0
  3

 72
    65
 73
     2
 40
3.120000004768372
 49
0.3600000143051147
 74
     0
 49
-2.759999990463257
 74
     0
  0
LTYPE
  5
79
330
5
100
AcDbSymbolTableRecord
100
AcDbLinetypeTableRecord
  2
Gepunktete Var.3
 70
     0
  3

 72
    65
 73
     2
 40
4.679999709129333
 49
0.3600000143051147
 74
     0
 49
-4.319999694824219
 74
     0
  0
LTYPE
  5
7A
330
5
100
AcDbSymbolTableRecord
100
AcDbLinetypeTableRecord
  2
Gepunktete Var.4
 70
     0
  3

 72
    65
 73
     4
 40
4.319999814033508
 49
0.3600000143051147
 74
     0
 49
-1.199999928474426
 74
     0
 49
0.3600000143051147
 74
     0
 49
-2.399999856948853
 74
     0
  0
LTYPE
  5
7B
330
5
100
AcDbSymbolTableRecord
100
AcDbLinetypeTableRecord
  2
Gepunktete Var.5
 70
     0
  3

 72
    65
 73
     4
 40
4.319999814033508
 49
0.3600000143051147
 74
     0
 49
-1.199999928474426
 74
     0
 49
0.3600000143051147
 74
     0
 49
-2.399999856948853
 74
     0
  0
LTYPE
  5
7C
330
5
100
AcDbSymbolTableRecord
100
AcDbLinetypeTableRecord
  2
Gepunktete Var.6
 70
     0
  3

 72
    65
 73
     6
 40
7.079999685287476
 49
0.3600000143051147
 74
     0
 49
-1.199999928474426
 74
     0
 49
0.3600000143051147
 74
     0
 49
-2.399999856948853
 74
     0
 49
0.3600000143051147
 74
     0
 49
-2.399999856948853
 74
     0
  0
LTYPE
  5
7D
330
5
100
AcDbSymbolTableRecord
100
AcDbLinetypeTableRecord
  2
Strichlierte Var.2
 70
     0
  3

 72
    65
 73
     2
 40
3.599999904632568
 49
1.799999952316284
 74
     0
 49
-1.799999952316284
 74
     0
  0
LTYPE
  5
7E
330
5
100
AcDbSymbolTableRecord
100
AcDbLinetypeTableRecord
  2
Strichlierte Var.3
 70
     0
  3

 72
    65
 73
     2
 40
5.399999856948853
 49
1.799999952316284
 74
     0
 49
-3.599999904632568
 74
     0
  0
LTYPE
  5
7F
330
5
100
AcDbSymbolTableRecord
100
AcDbLinetypeTableRecord
  2
Strichlierte Var.4
 70
     0
  3

 72
    65
 73
     2
 40
4.199999868869781
 49
3.599999904632568
 74
     0
 49
-0.5999999642372131
 74
     0
  0
LTYPE
  5
80
330
5
100
AcDbSymbolTableRecord
100
AcDbLinetypeTableRecord
  2
Strichlierte Var.5
 70
     0
  3

 72
    65
 73
     2
 40
5.399999856948853
 49
3.599999904632568
 74
     0
 49
-1.799999952316284
 74
     0
  0
LTYPE
  5
81
330
5
100
AcDbSymbolTableRecord
100
AcDbLinetypeTableRecord
  2
Strichlierte Var.6
 70
     0
  3

 72
    65
 73
     2
 40
7.199999809265137
 49
3.599999904632568
 74
     0
 49
-3.599999904632568
 74
     0
  0
LTYPE
  5
82
330
5
100
AcDbSymbolTableRecord
100
AcDbLinetypeTableRecord
  2
Strich-2Abstand
 70
     0
  3

 72
    65
 73
     4
 40
8.999999761581421
 49
1.799999952316284
 74
     0
 49
-1.799999952316284
 74
     0
 49
3.599999904632568
 74
     0
 49
-1.799999952316284
 74
     0
  0
LTYPE
  5
83
330
5
100
AcDbSymbolTableRecord
100
AcDbLinetypeTableRecord
  2
Strich-3Abstand
 70
     0
  3

 72
    65
 73
     6
 40
7.919999837875366
 49
0.3600000143051147
 74
     0
 49
-1.799999952316284
 74
     0
 49
0.3600000143051147
 74
     0
 49
-1.799999952316284
 74
     0
 49
1.799999952316284
 74
     0
 49
-1.799999952316284
 74
     0
  0
LTYPE
  5
84
330
5
100
AcDbSymbolTableRecord
100
AcDbLinetypeTableRecord
  2
Strich-4Abstand
 70
     0
  3

 72
    65
 73
     6
 40
9.359999775886536
 49
1.799999952316284
 74
     0
 49
-1.799999952316284
 74
     0
 49
1.799999952316284
 74
     0
 49
-1.799999952316284
 74
     0
 49
0.3600000143051147
 74
     0
 49
-1.799999952316284
 74
     0
  0
LTYPE
  5
85
330
5
100
AcDbSymbolTableRecord
100
AcDbLinetypeTableRecord
  2
Punktlinie
 70
     0
  3

 72
    65
 73
     6
 40
20.10000000149012
 49
0.0500000007450581
 74
     0
 49
-0.0500000007450581
 74
     0
 49
5.0
 74
     0
 49
-5.0
 74
     0
 49
5.0
 74
     0
 49
-5.0
 74
     0
  0
LTYPE
  5
86
330
5
100
AcDbSymbolTableRecord
100
AcDbLinetypeTableRecord
  2
Punkt-Strichlinie
 70
     0
  3

 72
    65
 73
     6
 40
3.550000000745058
 49
1.0
 74
     0
 49
-0.5
 74
     0
 49
1.0
 74
     0
 49
-0.5
 74
     0
 49
0.0500000007450581
 74
     0
 49
-0.5
 74
     0
  0
LTYPE
  5
87
330
5
100
AcDbSymbolTableRecord
100
AcDbLinetypeTableRecord
  2
Doppelpunkt-Strichlinie
 70
     0
  3

 72
    65
 73
     6
 40
1.350000001490116
 49
0.5
 74
     0
 49
-0.25
 74
     0
 49
0.0500000007450581
 74
     0
 49
-0.25
 74
     0
 49
0.0500000007450581
 74
     0
 49
-0.25
 74
     0
  0
LTYPE
  5
88
330
5
100
AcDbSymbolTableRecord
100
AcDbLinetypeTableRecord
  2
Eigene Linie 27
 70
     0
  3

 72
    65
 73
     6
 40
2.600000001490116
 49
1.0
 74
     0
 49
-0.5
 74
     0
 49
0.0500000007450581
 74
     0
 49
-0.5
 74
     0
 49
0.0500000007450581
 74
     0
 49
-0.5
 74
     0
  0
LTYPE
  5
89
330
5
100
AcDbSymbolTableRecord
100
AcDbLinetypeTableRecord
  2
Eigene Linie 28
 70
     0
  3

 72
    65
 73
     6
 40
1.800000000745058
 49
0.5
 74
     0
 49
-0.25
 74
     0
 49
0.5
 74
     0
 49
-0.25
 74
     0
 49
0.0500000007450581
 74
     0
 49
-0.25
 74
     0
  0
LTYPE
  5
8A
330
5
100
AcDbSymbolTableRecord
100
AcDbLinetypeTableRecord
  2
Eigene Linie 29
 70
     0
  3

 72
    65
 73
     6
 40
0.9250000007450581
 49
0.25
 74
     0
 49
-0.125
 74
     0
 49
0.25
 74
     0
 49
-0.125
 74
     0
 49
0.0500000007450581
 74
     0
 49
-0.125
 74
     0
  0
LTYPE
  5
8B
330
5
100
AcDbSymbolTableRecord
100
AcDbLinetypeTableRecord
  2
Eigene Linie 30
 70
     0
  3

 72
    65
 73
     2
 40
0.3000000007450581
 49
0.0500000007450581
 74
     0
 49
-0.25
 74
     0
  0
LTYPE
  5
8C
330
5
100
AcDbSymbolTableRecord
100
AcDbLinetypeTableRecord
  2
Eigene Linie 31
 70
     0
  3

 72
    65
 73
     2
 40
0.1750000007450581
 49
0.0500000007450581
 74
     0
 49
-0.125
 74
     0
  0
LTYPE
  5
8D
330
5
100
AcDbSymbolTableRecord
100
AcDbLinetypeTableRecord
  2
Eigene Linie 32
 70
     0
  3

 72
    65
 73
     2
 40
0.5500000007450581
 49
0.0500000007450581
 74
     0
 49
-0.5
 74
     0
  0
LTYPE
  5
8E
330
5
100
AcDbSymbolTableRecord
100
AcDbLinetypeTableRecord
  2
Eigene Linie 33
 70
     0
  3

 72
    65
 73
     4
 40
1.050000000745058
 49
0.5
 74
     0
 49
-0.25
 74
     0
 49
0.0500000007450581
 74
     0
 49
-0.25
 74
     0
  0
LTYPE
  5
8F
330
5
100
AcDbSymbolTableRecord
100
AcDbLinetypeTableRecord
  2
Eigene Linie 34
 70
     0
  3

 72
    65
 73
     4
 40
0.5500000007450581
 49
0.25
 74
     0
 49
-0.125
 74
     0
 49
0.0500000007450581
 74
     0
 49
-0.125
 74
     0
  0
LTYPE
  5
90
330
5
100
AcDbSymbolTableRecord
100
AcDbLinetypeTableRecord
  2
Eigene Linie 35
 70
     0
  3

 72
    65
 73
     4
 40
2.050000000745058
 49
1.0
 74
     0
 49
-0.5
 74
     0
 49
0.0500000007450581
 74
     0
 49
-0.5
 74
     0
  0
LTYPE
  5
91
330
5
100
AcDbSymbolTableRecord
100
AcDbLinetypeTableRecord
  2
Eigene Linie 36
 70
     0
  3

 72
    65
 73
     2
 40
0.75
 49
0.5
 74
     0
 49
-0.25
 74
     0
  0
LTYPE
  5
92
330
5
100
AcDbSymbolTableRecord
100
AcDbLinetypeTableRecord
  2
Eigene Linie 37
 70
     0
  3

 72
    65
 73
     2
 40
0.375
 49
0.25
 74
     0
 49
-0.125
 74
     0
  0
LTYPE
  5
93
330
5
100
AcDbSymbolTableRecord
100
AcDbLinetypeTableRecord
  2
Eigene Linie 38
 70
     0
  3

 72
    65
 73
     2
 40
1.5
 49
1.0
 74
     0
 49
-0.5
 74
     0
  0
LTYPE
  5
94
330
5
100
AcDbSymbolTableRecord
100
AcDbLinetypeTableRecord
  2
Eigene Linie 39
 70
     0
  3

 72
    65
 73
     6
 40
2.5
 49
1.25
 74
     0
 49
-0.25
 74
     0
 49
0.25
 74
     0
 49
-0.25
 74
     0
 49
0.25
 74
     0
 49
-0.25
 74
     0
  0
LTYPE
  5
95
330
5
100
AcDbSymbolTableRecord
100
AcDbLinetypeTableRecord
  2
Eigene Linie 40
 70
     0
  3

 72
    65
 73
     6
 40
1.25
 49
0.625
 74
     0
 49
-0.125
 74
     0
 49
0.125
 74
     0
 49
-0.125
 74
     0
 49
0.125
 74
     0
 49
-0.125
 74
     0
  0
LTYPE
  5
96
330
5
100
AcDbSymbolTableRecord
100
AcDbLinetypeTableRecord
  2
Eigene Linie 41
 70
     0
  3

 72
    65
 73
     6
 40
5.0
 49
2.5
 74
     0
 49
-0.5
 74
     0
 49
0.5
 74
     0
 49
-0.5
 74
     0
 49
0.5
 74
     0
 49
-0.5
 74
     0
  0
LTYPE
  5
97
330
5
100
AcDbSymbolTableRecord
100
AcDbLinetypeTableRecord
  2
Eigene Linie 42
 70
     0
  3

 72
    65
 73
     2
 40
0.300000011920929
 49
0.1500000059604645
 74
     0
 49
-0.1500000059604645
 74
     0
  0
LTYPE
  5
98
330
5
100
AcDbSymbolTableRecord
100
AcDbLinetypeTableRecord
  2
Eigene Linie 43
 70
     0
  3

 72
    65
 73
     2
 40
0.1399999968707561
 49
0.0799999982118607
 74
     0
 49
-0.0599999986588955
 74
     0
  0
LTYPE
  5
99
330
5
100
AcDbSymbolTableRecord
100
AcDbLinetypeTableRecord
  2
Eigene Linie 44
 70
     0
  3

 72
    65
 73
     2
 40
0.3000000007450581
 49
0.0500000007450581
 74
     0
 49
-0.25
 74
     0
  0
LTYPE
  5
9A
330
5
100
AcDbSymbolTableRecord
100
AcDbLinetypeTableRecord
  2
Eigene Linie 45
 70
     0
  3

 72
    65
 73
     2
 40
0.5500000007450581
 49
0.0500000007450581
 74
     0
 49
-0.5
 74
     0
  0
ENDTAB
  0
TABLE
  2
LAYER
  5
2
330
0
100
AcDbSymbolTable
 70
     3
  0
LAYER
  5
10
330
2
100
AcDbSymbolTableRecord
100
AcDbLayerTableRecord
  2
0
 70
     0
 62
     7
  6
Continuous
370
    -3
390
F
  0
LAYER
  5
9B
330
2
100
AcDbSymbolTableRecord
100
AcDbLayerTableRecord
  2
0 - Systemaufbauten
 70
     0
 62
     7
  6
Continuous
370
     0
390
F
  0
LAYER
  5
9C
330
2
100
AcDbSymbolTableRecord
100
AcDbLayerTableRecord
  2
00_Allgemein - Systemaufbauten
 70
     0
 62
     7
  6
Continuous
370
     0
390
F
  0
ENDTAB
  0
TABLE
  2
STYLE
  5
3
330
0
100
AcDbSymbolTable
 70
     2
  0
STYLE
  5
11
330
3
100
AcDbSymbolTableRecord
100
AcDbTextStyleTableRecord
  2
Standard
 70
     0
 40
0.0
 41
1.0
 50
0.0
 71
     0
 42
0.2
  3
txt
  4

  0
STYLE
  5
A1
330
3
100
AcDbSymbolTableRecord
100
AcDbTextStyleTableRecord
  2
Style0
 70
     0
 40
0.0
 41
1.0
 50
0.0
 71
     0
 42
0.2
  3
cour.ttf
  4

1001
ACAD
1000
Courier New
1071
        0
  0
ENDTAB
  0
TABLE
  2
VIEW
  5
6
330
0
100
AcDbSymbolTable
 70
     0
  0
ENDTAB
  0
TABLE
  2
UCS
  5
7
330
0
100
AcDbSymbolTable
 70
     0
  0
ENDTAB
  0
TABLE
  2
APPID
  5
9
330
0
100
AcDbSymbolTable
 70
     3
  0
APPID
  5
12
330
9
100
AcDbSymbolTableRecord
100
AcDbRegAppTableRecord
  2
ACAD
 70
     0
  0
APPID
  5
6E
330
9
100
AcDbSymbolTableRecord
100
AcDbRegAppTableRecord
  2
ARCHLineXP
 70
     0
  0
APPID
  5
3A9
330
9
100
AcDbSymbolTableRecord
100
AcDbRegAppTableRecord
  2
ACAD_MLEADERVER
 70
     0
  0
ENDTAB
  0
TABLE
  2
DIMSTYLE
  5
A
330
0
100
AcDbSymbolTable
 70
     1
100
AcDbDimStyleTable
  0
DIMSTYLE
105
27
330
A
100
AcDbSymbolTableRecord
100
AcDbDimStyleTableRecord
  2
Standard
 70
     0
178
     0
340
11
  0
ENDTAB
  0
TABLE
  2
BLOCK_RECORD
  5
1
330
0
100
AcDbSymbolTable
 70
     2
  0
BLOCK_RECORD
  5
1F
330
1
100
AcDbSymbolTableRecord
100
AcDbBlockTableRecord
  2
*Model_Space
340
22
  0
BLOCK_RECORD
  5
1B
330
1
100
AcDbSymbolTableRecord
100
AcDbBlockTableRecord
  2
*Paper_Space
340
1E
  0
BLOCK_RECORD
  5
23
330
1
100
AcDbSymbolTableRecord
100
AcDbBlockTableRecord
  2
*Paper_Space0
340
26
  0
BLOCK_RECORD
  5
A3
330
1
100
AcDbSymbolTableRecord
100
AcDbBlockTableRecord
  2
dokument systemaufbauten.asc(id_1)
340
0
102
{BLKREFS
331
367
102
}
  0
ENDTAB
  0
ENDSEC
  0
SECTION
  2
BLOCKS
  0
BLOCK
  5
20
330
1F
100
AcDbEntity
  8
0
100
AcDbBlockBegin
  2
*Model_Space
 70
     0
 10
0.0
 20
0.0
 30
0.0
  3
*Model_Space
  1

  0
ENDBLK
  5
21
330
1F
100
AcDbEntity
  8
0
100
AcDbBlockEnd
  0
BLOCK
  5
1C
330
1B
100
AcDbEntity
 67
     1
  8
0
100
AcDbBlockBegin
  2
*Paper_Space
 70
     0
 10
0.0
 20
0.0
 30
0.0
  3
*Paper_Space
  1

  0
ENDBLK
  5
1D
330
1B
100
AcDbEntity
 67
     1
  8
0
100
AcDbBlockEnd
  0
BLOCK
  5
24
330
23
100
AcDbEntity
  8
0
100
AcDbBlockBegin
  2
*Paper_Space0
 70
     0
 10
0.0
 20
0.0
 30
0.0
  3
*Paper_Space0
  1

  0
ENDBLK
  5
25
330
23
100
AcDbEntity
  8
0
100
AcDbBlockEnd
  0
BLOCK
  5
368
330
A3
100
AcDbEntity
  8
0
100
AcDbBlockBegin
  2
dokument systemaufbauten.asc(id_1)
 70
     0
 10
0.0
 20
0.0
 30
0.0
  3
dokument systemaufbauten.asc(id_1)
  1

  0
HATCH
  5
A4
330
A3
100
AcDbEntity
  8
0 - Systemaufbauten
  6
Continuous
 62
     7
370
     0
100
AcDbHatch
 10
0.0
 20
0.0
 30
0.0
210
0.0
220
0.0
230
1.0
  2
SOLID
 70
     1
 71
     0
 91
        1
 92
        0
 93
        4
 72
     1
 10
533.7364903813641
 20
856.6257182221852
 11
633.7364903813641
 21
856.6257182221852
 72
     1
 10
633.7364903813641
 20
856.6257182221852
 11
633.7364903813641
 21
846.6257182221852
 72
     1
 10
633.7364903813641
 20
846.6257182221852
 11
533.7364903813641
 21
846.6257182221852
 72
     1
 10
533.7364903813641
 20
846.6257182221852
 11
533.7364903813641
 21
856.6257182221852
 97
        0
 75
     0
 76
     1
 98
        0
  0
HATCH
  5
A5
330
A3
100
AcDbEntity
  8
0 - Systemaufbauten
  6
Continuous
 62
     7
370
     0
100
AcDbHatch
 10
0.0
 20
0.0
 30
0.0
210
0.0
220
0.0
230
1.0
  2
SOLID
 70
     1
 71
     0
 91
        1
 92
        0
 93
        4
 72
     1
 10
733.7364903813641
 20
856.6257182221852
 11
833.7364903813632
 21
856.6257182221852
 72
     1
 10
833.7364903813632
 20
856.6257182221852
 11
833.7364903813632
 21
846.6257182221852
 72
     1
 10
833.7364903813632
 20
846.6257182221852
 11
733.7364903813641
 21
846.6257182221852
 72
     1
 10
733.7364903813641
 20
846.6257182221852
 11
733.7364903813641
 21
856.6257182221852
 97
        0
 75
     0
 76
     1
 98
        0
  0
HATCH
  5
A6
330
A3
100
AcDbEntity
  8
0 - Systemaufbauten
  6
Continuous
 62
     7
370
     0
100
AcDbHatch
 10
0.0
 20
0.0
 30
0.0
210
0.0
220
0.0
230
1.0
  2
SOLID
 70
     1
 71
     0
 91
        1
 92
        0
 93
        4
 72
     1
 10
933.7364903813641
 20
856.6257182221852
 11
1033.736490381364
 21
856.6257182221852
 72
     1
 10
1033.736490381364
 20
856.6257182221852
 11
1033.736490381364
 21
846.6257182221852
 72
     1
 10
1033.736490381364
 20
846.6257182221852
 11
933.7364903813641
 21
846.6257182221852
 72
     1
 10
933.7364903813641
 20
846.6257182221852
 11
933.7364903813641
 21
856.6257182221852
 97
        0
 75
     0
 76
     1
 98
        0
  0
HATCH
  5
A7
330
A3
100
AcDbEntity
  8
0 - Systemaufbauten
  6
Continuous
 62
     7
370
     0
100
AcDbHatch
 10
0.0
 20
0.0
 30
0.0
210
0.0
220
0.0
230
1.0
  2
SOLID
 70
     1
 71
     0
 91
        1
 92
        0
 93
        4
 72
     1
 10
1133.736490381364
 20
856.6257182221852
 11
1233.736490381364
 21
856.6257182221852
 72
     1
 10
1233.736490381364
 20
856.6257182221852
 11
1233.736490381364
 21
846.6257182221852
 72
     1
 10
1233.736490381364
 20
846.6257182221852
 11
1133.736490381364
 21
846.6257182221852
 72
     1
 10
1133.736490381364
 20
846.6257182221852
 11
1133.736490381364
 21
856.6257182221852
 97
        0
 75
     0
 76
     1
 98
        0
  0
HATCH
  5
A8
330
A3
100
AcDbEntity
  8
0 - Systemaufbauten
  6
Continuous
 62
     7
370
     0
100
AcDbHatch
 10
0.0
 20
0.0
 30
0.0
210
0.0
220
0.0
230
1.0
  2
SOLID
 70
     1
 71
     0
 91
        1
 92
        0
 93
        4
 72
     1
 10
1333.736490381364
 20
856.6257182221852
 11
1433.736490381364
 21
856.6257182221852
 72
     1
 10
1433.736490381364
 20
856.6257182221852
 11
1433.736490381364
 21
846.6257182221852
 72
     1
 10
1433.736490381364
 20
846.6257182221852
 11
1333.736490381364
 21
846.6257182221852
 72
     1
 10
1333.736490381364
 20
846.6257182221852
 11
1333.736490381364
 21
856.6257182221852
 97
        0
 75
     0
 76
     1
 98
        0
  0
HATCH
  5
A9
330
A3
100
AcDbEntity
  8
0 - Systemaufbauten
  6
Continuous
 62
     7
370
     0
100
AcDbHatch
 10
0.0
 20
0.0
 30
0.0
210
0.0
220
0.0
230
1.0
  2
SOLID
 70
     1
 71
     0
 91
        1
 92
        0
 93
        4
 72
     1
 10
1533.736490381364
 20
856.6257182221852
 11
1633.736490381362
 21
856.6257182221852
 72
     1
 10
1633.736490381362
 20
856.6257182221852
 11
1633.736490381362
 21
846.6257182221852
 72
     1
 10
1633.736490381362
 20
846.6257182221852
 11
1533.736490381364
 21
846.6257182221852
 72
     1
 10
1533.736490381364
 20
846.6257182221852
 11
1533.736490381364
 21
856.6257182221852
 97
        0
 75
     0
 76
     1
 98
        0
  0
HATCH
  5
AA
330
A3
100
AcDbEntity
  8
0 - Systemaufbauten
  6
Continuous
 62
     7
370
     0
100
AcDbHatch
 10
0.0
 20
0.0
 30
0.0
210
0.0
220
0.0
230
1.0
  2
SOLID
 70
     1
 71
     0
 91
        1
 92
        0
 93
        4
 72
     1
 10
1733.736490381362
 20
856.6257182221852
 11
1833.736490381362
 21
856.6257182221852
 72
     1
 10
1833.736490381362
 20
856.6257182221852
 11
1833.736490381362
 21
846.6257182221852
 72
     1
 10
1833.736490381362
 20
846.6257182221852
 11
1733.736490381362
 21
846.6257182221852
 72
     1
 10
1733.736490381362
 20
846.6257182221852
 11
1733.736490381362
 21
856.6257182221852
 97
        0
 75
     0
 76
     1
 98
        0
  0
HATCH
  5
AB
330
A3
100
AcDbEntity
  8
0 - Systemaufbauten
  6
Continuous
 62
     7
370
     0
100
AcDbHatch
 10
0.0
 20
0.0
 30
0.0
210
0.0
220
0.0
230
1.0
  2
ANSI33
 70
     0
 71
     0
 91
        1
 92
        0
 93
        4
 72
     1
 10
333.7364903813641
 20
846.6257182221852
 11
1078.736490381363
 21
846.6257182221852
 72
     1
 10
1078.736490381363
 20
846.6257182221852
 11
1078.736490381363
 21
596.6257182221852
 72
     1
 10
1078.736490381363
 20
596.6257182221852
 11
333.7364903813641
 21
596.6257182221852
 72
     1
 10
333.7364903813641
 20
596.6257182221852
 11
333.7364903813641
 21
846.6257182221852
 97
        0
 75
     0
 76
     1
 52
0.0
 41
250.0
 77
     0
 78
     2
 53
45.0
 43
-7063.527487660003
 44
-7607.66266526963
 45
-44.19417382415922
 46
44.19417382415921
 79
     0
 53
45.0
 43
-7019.333313910003
 44
-7607.66266526963
 45
-44.19417382415922
 46
44.19417382415921
 79
     2
 49
31.25
 49
-15.625
 98
        0
  0
HATCH
  5
AC
330
A3
100
AcDbEntity
  8
0 - Systemaufbauten
  6
Continuous
 62
     7
370
     0
100
AcDbHatch
 10
0.0
 20
0.0
 30
0.0
210
0.0
220
0.0
230
1.0
  2
ANSI33
 70
     0
 71
     0
 91
        1
 92
        0
 93
        4
 72
     1
 10
1088.736490381362
 20
846.6257182221852
 11
1833.736490381364
 21
846.6257182221852
 72
     1
 10
1833.736490381364
 20
846.6257182221852
 11
1833.736490381364
 21
596.6257182221852
 72
     1
 10
1833.736490381364
 20
596.6257182221852
 11
1088.736490381362
 21
596.6257182221852
 72
     1
 10
1088.736490381362
 20
596.6257182221852
 11
1088.736490381362
 21
846.6257182221852
 97
        0
 75
     0
 76
     1
 52
0.0
 41
250.0
 77
     0
 78
     2
 53
45.0
 43
-7060.507487660004
 44
-7607.66266526963
 45
-44.19417382415922
 46
44.19417382415921
 79
     0
 53
45.0
 43
-7016.313313910004
 44
-7607.66266526963
 45
-44.19417382415922
 46
44.19417382415921
 79
     2
 49
31.25
 49
-15.625
 98
        0
  0
ARC
  5
AD
330
A3
100
AcDbEntity
  8
0 - Systemaufbauten
  6
Continuous
 62
     7
370
     0
100
AcDbCircle
 10
333.7364903813641
 20
1149.959051356836
 30
0.0
 40
3.33333313465118
100
AcDbArc
 50
270.0
 51
329.9999974427113
  0
LINE
  5
AE
330
A3
100
AcDbEntity
  8
0 - Systemaufbauten
  6
Continuous
 62
     7
370
     0
100
AcDbLine
 10
336.6232404834072
 20
1148.292385236546
 30
0.0
 11
340.8497402793209
 21
1154.959051356836
 31
0.0
  0
ARC
  5
AF
330
A3
100
AcDbEntity
  8
0 - Systemaufbauten
  6
Continuous
 62
     7
370
     0
100
AcDbCircle
 10
343.7364903813641
 20
1153.292385087532
 30
0.0
 40
3.33328818123008
100
AcDbArc
 50
30.00044020598759
 51
149.9999952245331
  0
LINE
  5
B0
330
A3
100
AcDbEntity
  8
0 - Systemaufbauten
  6
Continuous
 62
     7
370
     0
100
AcDbLine
 10
346.6232398873608
 20
1154.959051356836
 30
0.0
 11
350.8497408753665
 21
1148.292385236546
 31
0.0
  0
ARC
  5
B1
330
A3
100
AcDbEntity
  8
0 - Systemaufbauten
  6
Continuous
 62
     7
370
     0
100
AcDbCircle
 10
353.7364903813632
 20
1149.959051356836
 30
0.0
 40
3.33333146670084
100
AcDbArc
 50
210.000007679929
 51
270.0
  0
ARC
  5
B2
330
A3
100
AcDbEntity
  8
0 - Systemaufbauten
  6
Continuous
 62
     7
370
     0
100
AcDbCircle
 10
353.7364903813632
 20
1149.959051356836
 30
0.0
 40
3.33333313465118
100
AcDbArc
 50
270.0
 51
329.9999974427113
  0
LINE
  5
B3
330
A3
100
AcDbEntity
  8
0 - Systemaufbauten
  6
Continuous
 62
     7
370
     0
100
AcDbLine
 10
356.6232404834063
 20
1148.292385236546
 30
0.0
 11
360.84974027932
 21
1154.959051356836
 31
0.0
  0
ARC
  5
B4
330
A3
100
AcDbEntity
  8
0 - Systemaufbauten
  6
Continuous
 62
     7
370
     0
100
AcDbCircle
 10
363.7364903813623
 20
1153.292385087532
 30
0.0
 40
3.33328818123008
100
AcDbArc
 50
30.00044020598759
 51
149.9999952245331
  0
LINE
  5
B5
330
A3
100
AcDbEntity
  8
0 - Systemaufbauten
  6
Continuous
 62
     7
370
     0
100
AcDbLine
 10
366.6232398873599
 20
1154.959051356836
 30
0.0
 11
370.8497408753647
 21
1148.292385236546
 31
0.0
  0
ARC
  5
B6
330
A3
100
AcDbEntity
  8
0 - Systemaufbauten
  6
Continuous
 62
     7
370
     0
100
AcDbCircle
 10
373.7364903813623
 20
1149.959051356836
 30
0.0
 40
3.33333146670084
100
AcDbArc
 50
210.000007679929
 51
270.0
  0
ARC
  5
B7
330
A3
100
AcDbEntity
  8
0 - Systemaufbauten
  6
Continuous
 62
     7
370
     0
100
AcDbCircle
 10
373.7364903813623
 20
1149.959051356836
 30
0.0
 40
3.33333313465118
100
AcDbArc
 50
270.0
 51
329.9999974427113
  0
LINE
  5
B8
330
A3
100
AcDbEntity
  8
0 - Systemaufbauten
  6
Continuous
 62
     7
370
     0
100
AcDbLine
 10
376.6232404834045
 20
1148.292385236546
 30
0.0
 11
380.8497402793182
 21
1154.959051356836
 31
0.0
  0
ARC
  5
B9
330
A3
100
AcDbEntity
  8
0 - Systemaufbauten
  6
Continuous
 62
     7
370
     0
100
AcDbCircle
 10
383.7364903813614
 20
1153.292385087532
 30
0.0
 40
3.33328818123008
100
AcDbArc
 50
30.00044020598759
 51
149.9999952245331
  0
LINE
  5
BA
330
A3
100
AcDbEntity
  8
0 - Systemaufbauten
  6
Continuous
 62
     7
370
     0
100
AcDbLine
 10
386.6232398873581
 20
1154.959051356836
 30
0.0
 11
390.8497408753638
 21
1148.292385236546
 31
0.0
  0
ARC
  5
BB
330
A3
100
AcDbEntity
  8
0 - Systemaufbauten
  6
Continuous
 62
     7
370
     0
100
AcDbCircle
 10
393.7364903813605
 20
1149.959051356836
 30
0.0
 40
3.33333146670084
100
AcDbArc
 50
210.000007679929
 51
270.0
  0
ARC
  5
BC
330
A3
100
AcDbEntity
  8
0 - Systemaufbauten
  6
Continuous
 62
     7
370
     0
100
AcDbCircle
 10
393.7364903813605
 20
1149.959051356836
 30
0.0
 40
3.33333313465118
100
AcDbArc
 50
270.0
 51
329.9999974427113
  0
LINE
  5
BD
330
A3
100
AcDbEntity
  8
0 - Systemaufbauten
  6
Continuous
 62
     7
370
     0
100
AcDbLine
 10
396.6232404834036
 20
1148.292385236546
 30
0.0
 11
400.8497402793173
 21
1154.959051356836
 31
0.0
  0
ARC
  5
BE
330
A3
100
AcDbEntity
  8
0 - Systemaufbauten
  6
Continuous
 62
     7
370
     0
100
AcDbCircle
 10
403.7364903813605
 20
1153.292385087532
 30
0.0
 40
3.33328818123008
100
AcDbArc
 50
30.00044020598759
 51
149.9999952245331
  0
LINE
  5
BF
330
A3
100
AcDbEntity
  8
0 - Systemaufbauten
  6
Continuous
 62
     7
370
     0
100
AcDbLine
 10
406.6232398873572
 20
1154.959051356836
 30
0.0
 11
410.8497408753628
 21
1148.292385236546
 31
0.0
  0
ARC
  5
C0
330
A3
100
AcDbEntity
  8
0 - Systemaufbauten
  6
Continuous
 62
     7
370
     0
100
AcDbCircle
 10
413.7364903813595
 20
1149.959051356836
 30
0.0
 40
3.33333146670084
100
AcDbArc
 50
210.000007679929
 51
270.0
  0
ARC
  5
C1
330
A3
100
AcDbEntity
  8
0 - Systemaufbauten
  6
Continuous
 62
     7
370
     0
100
AcDbCircle
 10
413.7364903813595
 20
1149.959051356836
 30
0.0
 40
3.33333313465118
100
AcDbArc
 50
270.0
 51
329.9999974427113
  0
LINE
  5
C2
330
A3
100
AcDbEntity
  8
0 - Systemaufbauten
  6
Continuous
 62
     7
370
     0
100
AcDbLine
 10
416.6232404834027
 20
1148.292385236546
 30
0.0
 11
420.8497402793164
 21
1154.959051356836
 31
0.0
  0
ARC
  5
C3
330
A3
100
AcDbEntity
  8
0 - Systemaufbauten
  6
Continuous
 62
     7
370
     0
100
AcDbCircle
 10
423.7364903813586
 20
1153.292385087532
 30
0.0
 40
3.33328818123008
100
AcDbArc
 50
30.00044020598759
 51
149.9999952245331
  0
LINE
  5
C4
330
A3
100
AcDbEntity
  8
0 - Systemaufbauten
  6
Continuous
 62
     7
370
     0
100
AcDbLine
 10
426.6232398873562
 20
1154.959051356836
 30
0.0
 11
430.8497408753619
 21
1148.292385236546
 31
0.0
  0
ARC
  5
C5
330
A3
100
AcDbEntity
  8
0 - Systemaufbauten
  6
Continuous
 62
     7
370
     0
100
AcDbCircle
 10
433.7364903813586
 20
1149.959051356836
 30
0.0
 40
3.33333146670084
100
AcDbArc
 50
210.000007679929
 51
270.0
  0
ARC
  5
C6
330
A3
100
AcDbEntity
  8
0 - Systemaufbauten
  6
Continuous
 62
     7
370
     0
100
AcDbCircle
 10
433.7364903813586
 20
1149.959051356836
 30
0.0
 40
3.33333313465118
100
AcDbArc
 50
270.0
 51
329.9999974427113
  0
LINE
  5
C7
330
A3
100
AcDbEntity
  8
0 - Systemaufbauten
  6
Continuous
 62
     7
370
     0
100
AcDbLine
 10
436.6232404834018
 20
1148.292385236546
 30
0.0
 11
440.8497402793155
 21
1154.959051356836
 31
0.0
  0
ARC
  5
C8
330
A3
100
AcDbEntity
  8
0 - Systemaufbauten
  6
Continuous
 62
     7
370
     0
100
AcDbCircle
 10
443.7364903813577
 20
1153.292385087532
 30
0.0
 40
3.33328818123008
100
AcDbArc
 50
30.00044020598759
 51
149.9999952245331
  0
LINE
  5
C9
330
A3
100
AcDbEntity
  8
0 - Systemaufbauten
  6
Continuous
 62
     7
370
     0
100
AcDbLine
 10
446.6232398873553
 20
1154.959051356836
 30
0.0
 11
450.8497408753601
 21
1148.292385236546
 31
0.0
  0
ARC
  5
CA
330
A3
100
AcDbEntity
  8
0 - Systemaufbauten
  6
Continuous
 62
     7
370
     0
100
AcDbCircle
 10
453.7364903813577
 20
1149.959051356836
 30
0.0
 40
3.33333146670084
100
AcDbArc
 50
210.000007679929
 51
270.0
  0
ARC
  5
CB
330
A3
100
AcDbEntity
  8
0 - Systemaufbauten
  6
Continuous
 62
     7
370
     0
100
AcDbCircle
 10
453.7364903813577
 20
1149.959051356836
 30
0.0
 40
3.33333313465118
100
AcDbArc
 50
270.0
 51
329.9999974427113
  0
LINE
  5
CC
330
A3
100
AcDbEntity
  8
0 - Systemaufbauten
  6
Continuous
 62
     7
370
     0
100
AcDbLine
 10
456.6232404834
 20
1148.292385236546
 30
0.0
 11
460.8497402793137
 21
1154.959051356836
 31
0.0
  0
ARC
  5
CD
330
A3
100
AcDbEntity
  8
0 - Systemaufbauten
  6
Continuous
 62
     7
370
     0
100
AcDbCircle
 10
463.7364903813568
 20
1153.292385087532
 30
0.0
 40
3.33328818123008
100
AcDbArc
 50
30.00044020598759
 51
149.9999952245331
  0
LINE
  5
CE
330
A3
100
AcDbEntity
  8
0 - Systemaufbauten
  6
Continuous
 62
     7
370
     0
100
AcDbLine
 10
466.6232398873535
 20
1154.959051356836
 30
0.0
 11
470.8497408753592
 21
1148.292385236546
 31
0.0
  0
ARC
  5
CF
330
A3
100
AcDbEntity
  8
0 - Systemaufbauten
  6
Continuous
 62
     7
370
     0
100
AcDbCircle
 10
473.7364903813559
 20
1149.959051356836
 30
0.0
 40
3.33333146670084
100
AcDbArc
 50
210.000007679929
 51
270.0
  0
ARC
  5
D0
330
A3
100
AcDbEntity
  8
0 - Systemaufbauten
  6
Continuous
 62
     7
370
     0
100
AcDbCircle
 10
473.7364903813559
 20
1149.959051356836
 30
0.0
 40
3.33333313465118
100
AcDbArc
 50
270.0
 51
329.9999974427113
  0
LINE
  5
D1
330
A3
100
AcDbEntity
  8
0 - Systemaufbauten
  6
Continuous
 62
     7
370
     0
100
AcDbLine
 10
476.6232404833991
 20
1148.292385236546
 30
0.0
 11
480.8497402793128
 21
1154.959051356836
 31
0.0
  0
ARC
  5
D2
330
A3
100
AcDbEntity
  8
0 - Systemaufbauten
  6
Continuous
 62
     7
370
     0
100
AcDbCircle
 10
483.7364903813559
 20
1153.292385087532
 30
0.0
 40
3.33328818123008
100
AcDbArc
 50
30.00044020598759
 51
149.9999952245331
  0
LINE
  5
D3
330
A3
100
AcDbEntity
  8
0 - Systemaufbauten
  6
Continuous
 62
     7
370
     0
100
AcDbLine
 10
486.6232398873526
 20
1154.959051356836
 30
0.0
 11
490.8497408753583
 21
1148.292385236546
 31
0.0
  0
ARC
  5
D4
330
A3
100
AcDbEntity
  8
0 - Systemaufbauten
  6
Continuous
 62
     7
370
     0
100
AcDbCircle
 10
493.736490381355
 20
1149.959051356836
 30
0.0
 40
3.33333146670084
100
AcDbArc
 50
210.000007679929
 51
270.0
  0
ARC
  5
D5
330
A3
100
AcDbEntity
  8
0 - Systemaufbauten
  6
Continuous
 62
     7
370
     0
100
AcDbCircle
 10
493.736490381355
 20
1149.959051356836
 30
0.0
 40
3.33333313465118
100
AcDbArc
 50
270.0
 51
329.9999974427113
  0
LINE
  5
D6
330
A3
100
AcDbEntity
  8
0 - Systemaufbauten
  6
Continuous
 62
     7
370
     0
100
AcDbLine
 10
496.6232404833981
 20
1148.292385236546
 30
0.0
 11
500.8497402793118
 21
1154.959051356836
 31
0.0
  0
ARC
  5
D7
330
A3
100
AcDbEntity
  8
0 - Systemaufbauten
  6
Continuous
 62
     7
370
     0
100
AcDbCircle
 10
503.736490381355
 20
1153.292385087532
 30
0.0
 40
3.33328818123008
100
AcDbArc
 50
30.00044020598759
 51
149.9999952245331
  0
LINE
  5
D8
330
A3
100
AcDbEntity
  8
0 - Systemaufbauten
  6
Continuous
 62
     7
370
     0
100
AcDbLine
 10
506.6232398873517
 20
1154.959051356836
 30
0.0
 11
510.8497408753574
 21
1148.292385236546
 31
0.0
  0
ARC
  5
D9
330
A3
100
AcDbEntity
  8
0 - Systemaufbauten
  6
Continuous
 62
     7
370
     0
100
AcDbCircle
 10
513.7364903813541
 20
1149.959051356836
 30
0.0
 40
3.33333146670084
100
AcDbArc
 50
210.000007679929
 51
270.0
  0
ARC
  5
DA
330
A3
100
AcDbEntity
  8
0 - Systemaufbauten
  6
Continuous
 62
     7
370
     0
100
AcDbCircle
 10
513.7364903813541
 20
1149.959051356836
 30
0.0
 40
3.33333313465118
100
AcDbArc
 50
270.0
 51
329.9999974427113
  0
LINE
  5
DB
330
A3
100
AcDbEntity
  8
0 - Systemaufbauten
  6
Continuous
 62
     7
370
     0
100
AcDbLine
 10
516.6232404833972
 20
1148.292385236546
 30
0.0
 11
520.8497402793109
 21
1154.959051356836
 31
0.0
  0
ARC
  5
DC
330
A3
100
AcDbEntity
  8
0 - Systemaufbauten
  6
Continuous
 62
     7
370
     0
100
AcDbCircle
 10
523.7364903813532
 20
1153.292385087532
 30
0.0
 40
3.33328818123008
100
AcDbArc
 50
30.00044020598759
 51
149.9999952245331
  0
LINE
  5
DD
330
A3
100
AcDbEntity
  8
0 - Systemaufbauten
  6
Continuous
 62
     7
370
     0
100
AcDbLine
 10
526.6232398873508
 20
1154.959051356836
 30
0.0
 11
530.8497408753556
 21
1148.292385236546
 31
0.0
  0
ARC
  5
DE
330
A3
100
AcDbEntity
  8
0 - Systemaufbauten
  6
Continuous
 62
     7
370
     0
100
AcDbCircle
 10
533.7364903813532
 20
1149.959051356836
 30
0.0
 40
3.33333146670084
100
AcDbArc
 50
210.000007679929
 51
270.0
  0
ARC
  5
DF
330
A3
100
AcDbEntity
  8
0 - Systemaufbauten
  6
Continuous
 62
     7
370
     0
100
AcDbCircle
 10
533.7364903813532
 20
1149.959051356836
 30
0.0
 40
3.33333313465118
100
AcDbArc
 50
270.0
 51
329.9999974427113
  0
LINE
  5
E0
330
A3
100
AcDbEntity
  8
0 - Systemaufbauten
  6
Continuous
 62
     7
370
     0
100
AcDbLine
 10
536.6232404833954
 20
1148.292385236546
 30
0.0
 11
540.8497402793091
 21
1154.959051356836
 31
0.0
  0
ARC
  5
E1
330
A3
100
AcDbEntity
  8
0 - Systemaufbauten
  6
Continuous
 62
     7
370
     0
100
AcDbCircle
 10
543.7364903813523
 20
1153.292385087532
 30
0.0
 40
3.33328818123008
100
AcDbArc
 50
30.00044020598759
 51
149.9999952245331
  0
LINE
  5
E2
330
A3
100
AcDbEntity
  8
0 - Systemaufbauten
  6
Continuous
 62
     7
370
     0
100
AcDbLine
 10
546.623239887349
 20
1154.959051356836
 30
0.0
 11
550.8497408753547
 21
1148.292385236546
 31
0.0
  0
ARC
  5
E3
330
A3
100
AcDbEntity
  8
0 - Systemaufbauten
  6
Continuous
 62
     7
370
     0
100
AcDbCircle
 10
553.7364903813514
 20
1149.959051356836
 30
0.0
 40
3.33333146670084
100
AcDbArc
 50
210.000007679929
 51
270.0
  0
ARC
  5
E4
330
A3
100
AcDbEntity
  8
0 - Systemaufbauten
  6
Continuous
 62
     7
370
     0
100
AcDbCircle
 10
553.7364903813514
 20
1149.959051356836
 30
0.0
 40
3.33333313465118
100
AcDbArc
 50
270.0
 51
329.9999974427113
  0
LINE
  5
E5
330
A3
100
AcDbEntity
  8
0 - Systemaufbauten
  6
Continuous
 62
     7
370
     0
100
AcDbLine
 10
556.6232404833945
 20
1148.292385236546
 30
0.0
 11
560.8497402793082
 21
1154.959051356836
 31
0.0
  0
ARC
  5
E6
330
A3
100
AcDbEntity
  8
0 - Systemaufbauten
  6
Continuous
 62
     7
370
     0
100
AcDbCircle
 10
563.7364903813514
 20
1153.292385087532
 30
0.0
 40
3.33328818123008
100
AcDbArc
 50
30.00044020598759
 51
149.9999952245331
  0
LINE
  5
E7
330
A3
100
AcDbEntity
  8
0 - Systemaufbauten
  6
Continuous
 62
     7
370
     0
100
AcDbLine
 10
566.6232398873481
 20
1154.959051356836
 30
0.0
 11
570.8497408753537
 21
1148.292385236546
 31
0.0
  0
ARC
  5
E8
330
A3
100
AcDbEntity
  8
0 - Systemaufbauten
  6
Continuous
 62
     7
370
     0
100
AcDbCircle
 10
573.7364903813504
 20
1149.959051356836
 30
0.0
 40
3.33333146670084
100
AcDbArc
 50
210.000007679929
 51
270.0
  0
ARC
  5
E9
330
A3
100
AcDbEntity
  8
0 - Systemaufbauten
  6
Continuous
 62
     7
370
     0
100
AcDbCircle
 10
573.7364903813504
 20
1149.959051356836
 30
0.0
 40
3.33333313465118
100
AcDbArc
 50
270.0
 51
329.9999974427113
  0
LINE
  5
EA
330
A3
100
AcDbEntity
  8
0 - Systemaufbauten
  6
Continuous
 62
     7
370
     0
100
AcDbLine
 10
576.6232404833936
 20
1148.292385236546
 30
0.0
 11
580.8497402793073
 21
1154.959051356836
 31
0.0
  0
ARC
  5
EB
330
A3
100
AcDbEntity
  8
0 - Systemaufbauten
  6
Continuous
 62
     7
370
     0
100
AcDbCircle
 10
583.7364903813495
 20
1153.292385087532
 30
0.0
 40
3.33328818123008
100
AcDbArc
 50
30.00044020598759
 51
149.9999952245331
  0
LINE
  5
EC
330
A3
100
AcDbEntity
  8
0 - Systemaufbauten
  6
Continuous
 62
     7
370
     0
100
AcDbLine
 10
586.6232398873472
 20
1154.959051356836
 30
0.0
 11
590.8497408753528
 21
1148.292385236546
 31
0.0
  0
ARC
  5
ED
330
A3
100
AcDbEntity
  8
0 - Systemaufbauten
  6
Continuous
 62
     7
370
     0
100
AcDbCircle
 10
593.7364903813495
 20
1149.959051356836
 30
0.0
 40
3.33333146670084
100
AcDbArc
 50
210.000007679929
 51
270.0
  0
ARC
  5
EE
330
A3
100
AcDbEntity
  8
0 - Systemaufbauten
  6
Continuous
 62
     7
370
     0
100
AcDbCircle
 10
593.7364903813495
 20
1149.959051356836
 30
0.0
 40
3.33333313465118
100
AcDbArc
 50
270.0
 51
329.9999974427113
  0
LINE
  5
EF
330
A3
100
AcDbEntity
  8
0 - Systemaufbauten
  6
Continuous
 62
     7
370
     0
100
AcDbLine
 10
596.6232404833927
 20
1148.292385236546
 30
0.0
 11
600.8497402793064
 21
1154.959051356836
 31
0.0
  0
ARC
  5
F0
330
A3
100
AcDbEntity
  8
0 - Systemaufbauten
  6
Continuous
 62
     7
370
     0
100
AcDbCircle
 10
603.7364903813486
 20
1153.292385087532
 30
0.0
 40
3.33328818123008
100
AcDbArc
 50
30.00044020598759
 51
149.9999952245331
  0
LINE
  5
F1
330
A3
100
AcDbEntity
  8
0 - Systemaufbauten
  6
Continuous
 62
     7
370
     0
100
AcDbLine
 10
606.6232398873462
 20
1154.959051356836
 30
0.0
 11
610.849740875351
 21
1148.292385236546
 31
0.0
  0
ARC
  5
F2
330
A3
100
AcDbEntity
  8
0 - Systemaufbauten
  6
Continuous
 62
     7
370
     0
100
AcDbCircle
 10
613.7364903813486
 20
1149.959051356836
 30
0.0
 40
3.33333146670084
100
AcDbArc
 50
210.000007679929
 51
270.0
  0
ARC
  5
F3
330
A3
100
AcDbEntity
  8
0 - Systemaufbauten
  6
Continuous
 62
     7
370
     0
100
AcDbCircle
 10
613.7364903813486
 20
1149.959051356836
 30
0.0
 40
3.33333313465118
100
AcDbArc
 50
270.0
 51
329.9999974427113
  0
LINE
  5
F4
330
A3
100
AcDbEntity
  8
0 - Systemaufbauten
  6
Continuous
 62
     7
370
     0
100
AcDbLine
 10
616.6232404833909
 20
1148.292385236546
 30
0.0
 11
620.8497402793046
 21
1154.959051356836
 31
0.0
  0
ARC
  5
F5
330
A3
100
AcDbEntity
  8
0 - Systemaufbauten
  6
Continuous
 62
     7
370
     0
100
AcDbCircle
 10
623.7364903813477
 20
1153.292385087532
 30
0.0
 40
3.33328818123008
100
AcDbArc
 50
30.00044020598759
 51
149.9999952245331
  0
LINE
  5
F6
330
A3
100
AcDbEntity
  8
0 - Systemaufbauten
  6
Continuous
 62
     7
370
     0
100
AcDbLine
 10
626.6232398873444
 20
1154.959051356836
 30
0.0
 11
630.8497408753501
 21
1148.292385236546
 31
0.0
  0
ARC
  5
F7
330
A3
100
AcDbEntity
  8
0 - Systemaufbauten
  6
Continuous
 62
     7
370
     0
100
AcDbCircle
 10
633.7364903813468
 20
1149.959051356836
 30
0.0
 40
3.33333146670084
100
AcDbArc
 50
210.000007679929
 51
270.0
  0
ARC
  5
F8
330
A3
100
AcDbEntity
  8
0 - Systemaufbauten
  6
Continuous
 62
     7
370
     0
100
AcDbCircle
 10
633.7364903813468
 20
1149.959051356836
 30
0.0
 40
3.33333313465118
100
AcDbArc
 50
270.0
 51
329.9999974427113
  0
LINE
  5
F9
330
A3
100
AcDbEntity
  8
0 - Systemaufbauten
  6
Continuous
 62
     7
370
     0
100
AcDbLine
 10
636.62324048339
 20
1148.292385236546
 30
0.0
 11
640.8497402793037
 21
1154.959051356836
 31
0.0
  0
ARC
  5
FA
330
A3
100
AcDbEntity
  8
0 - Systemaufbauten
  6
Continuous
 62
     7
370
     0
100
AcDbCircle
 10
643.7364903813468
 20
1153.292385087532
 30
0.0
 40
3.33328818123008
100
AcDbArc
 50
30.00044020598759
 51
149.9999952245331
  0
LINE
  5
FB
330
A3
100
AcDbEntity
  8
0 - Systemaufbauten
  6
Continuous
 62
     7
370
     0
100
AcDbLine
 10
646.6232398873435
 20
1154.959051356836
 30
0.0
 11
650.8497408753492
 21
1148.292385236546
 31
0.0
  0
ARC
  5
FC
330
A3
100
AcDbEntity
  8
0 - Systemaufbauten
  6
Continuous
 62
     7
370
     0
100
AcDbCircle
 10
653.7364903813459
 20
1149.959051356836
 30
0.0
 40
3.33333146670084
100
AcDbArc
 50
210.000007679929
 51
270.0
  0
ARC
  5
FD
330
A3
100
AcDbEntity
  8
0 - Systemaufbauten
  6
Continuous
 62
     7
370
     0
100
AcDbCircle
 10
653.7364903813459
 20
1149.959051356836
 30
0.0
 40
3.33333313465118
100
AcDbArc
 50
270.0
 51
329.9999974427113
  0
LINE
  5
FE
330
A3
100
AcDbEntity
  8
0 - Systemaufbauten
  6
Continuous
 62
     7
370
     0
100
AcDbLine
 10
656.623240483389
 20
1148.292385236546
 30
0.0
 11
660.8497402793028
 21
1154.959051356836
 31
0.0
  0
ARC
  5
FF
330
A3
100
AcDbEntity
  8
0 - Systemaufbauten
  6
Continuous
 62
     7
370
     0
100
AcDbCircle
 10
663.7364903813459
 20
1153.292385087532
 30
0.0
 40
3.33328818123008
100
AcDbArc
 50
30.00044020598759
 51
149.9999952245331
  0
LINE
  5
100
330
A3
100
AcDbEntity
  8
0 - Systemaufbauten
  6
Continuous
 62
     7
370
     0
100
AcDbLine
 10
666.6232398873426
 20
1154.959051356836
 30
0.0
 11
670.8497408753483
 21
1148.292385236546
 31
0.0
  0
ARC
  5
101
330
A3
100
AcDbEntity
  8
0 - Systemaufbauten
  6
Continuous
 62
     7
370
     0
100
AcDbCircle
 10
673.736490381345
 20
1149.959051356836
 30
0.0
 40
3.33333146670084
100
AcDbArc
 50
210.000007679929
 51
270.0
  0
ARC
  5
102
330
A3
100
AcDbEntity
  8
0 - Systemaufbauten
  6
Continuous
 62
     7
370
     0
100
AcDbCircle
 10
673.736490381345
 20
1149.959051356836
 30
0.0
 40
3.33333313465118
100
AcDbArc
 50
270.0
 51
329.9999974427113
  0
LINE
  5
103
330
A3
100
AcDbEntity
  8
0 - Systemaufbauten
  6
Continuous
 62
     7
370
     0
100
AcDbLine
 10
676.6232404833881
 20
1148.292385236546
 30
0.0
 11
680.8497402793018
 21
1154.959051356836
 31
0.0
  0
ARC
  5
104
330
A3
100
AcDbEntity
  8
0 - Systemaufbauten
  6
Continuous
 62
     7
370
     0
100
AcDbCircle
 10
683.7364903813441
 20
1153.292385087532
 30
0.0
 40
3.33328818123008
100
AcDbArc
 50
30.00044020598759
 51
149.9999952245331
  0
LINE
  5
105
330
A3
100
AcDbEntity
  8
0 - Systemaufbauten
  6
Continuous
 62
     7
370
     0
100
AcDbLine
 10
686.6232398873417
 20
1154.959051356836
 30
0.0
 11
690.8497408753465
 21
1148.292385236546
 31
0.0
  0
ARC
  5
106
330
A3
100
AcDbEntity
  8
0 - Systemaufbauten
  6
Continuous
 62
     7
370
     0
100
AcDbCircle
 10
693.7364903813441
 20
1149.959051356836
 30
0.0
 40
3.33333146670084
100
AcDbArc
 50
210.000007679929
 51
270.0
  0
ARC
  5
107
330
A3
100
AcDbEntity
  8
0 - Systemaufbauten
  6
Continuous
 62
     7
370
     0
100
AcDbCircle
 10
693.7364903813441
 20
1149.959051356836
 30
0.0
 40
3.33333313465118
100
AcDbArc
 50
270.0
 51
329.9999974427113
  0
LINE
  5
108
330
A3
100
AcDbEntity
  8
0 - Systemaufbauten
  6
Continuous
 62
     7
370
     0
100
AcDbLine
 10
696.6232404833863
 20
1148.292385236546
 30
0.0
 11
700.8497402793
 21
1154.959051356836
 31
0.0
  0
ARC
  5
109
330
A3
100
AcDbEntity
  8
0 - Systemaufbauten
  6
Continuous
 62
     7
370
     0
100
AcDbCircle
 10
703.7364903813432
 20
1153.292385087532
 30
0.0
 40
3.33328818123008
100
AcDbArc
 50
30.00044020598759
 51
149.9999952245331
  0
LINE
  5
10A
330
A3
100
AcDbEntity
  8
0 - Systemaufbauten
  6
Continuous
 62
     7
370
     0
100
AcDbLine
 10
706.6232398873399
 20
1154.959051356836
 30
0.0
 11
710.8497408753456
 21
1148.292385236546
 31
0.0
  0
ARC
  5
10B
330
A3
100
AcDbEntity
  8
0 - Systemaufbauten
  6
Continuous
 62
     7
370
     0
100
AcDbCircle
 10
713.7364903813423
 20
1149.959051356836
 30
0.0
 40
3.33333146670084
100
AcDbArc
 50
210.000007679929
 51
270.0
  0
ARC
  5
10C
330
A3
100
AcDbEntity
  8
0 - Systemaufbauten
  6
Continuous
 62
     7
370
     0
100
AcDbCircle
 10
713.7364903813423
 20
1149.959051356836
 30
0.0
 40
3.33333313465118
100
AcDbArc
 50
270.0
 51
329.9999974427113
  0
LINE
  5
10D
330
A3
100
AcDbEntity
  8
0 - Systemaufbauten
  6
Continuous
 62
     7
370
     0
100
AcDbLine
 10
716.6232404833854
 20
1148.292385236546
 30
0.0
 11
720.8497402792991
 21
1154.959051356836
 31
0.0
  0
ARC
  5
10E
330
A3
100
AcDbEntity
  8
0 - Systemaufbauten
  6
Continuous
 62
     7
370
     0
100
AcDbCircle
 10
723.7364903813423
 20
1153.292385087532
 30
0.0
 40
3.33328818123008
100
AcDbArc
 50
30.00044020598759
 51
149.9999952245331
  0
LINE
  5
10F
330
A3
100
AcDbEntity
  8
0 - Systemaufbauten
  6
Continuous
 62
     7
370
     0
100
AcDbLine
 10
726.623239887339
 20
1154.959051356836
 30
0.0
 11
730.8497408753447
 21
1148.292385236546
 31
0.0
  0
ARC
  5
110
330
A3
100
AcDbEntity
  8
0 - Systemaufbauten
  6
Continuous
 62
     7
370
     0
100
AcDbCircle
 10
733.7364903813414
 20
1149.959051356836
 30
0.0
 40
3.33333146670084
100
AcDbArc
 50
210.000007679929
 51
270.0
  0
ARC
  5
111
330
A3
100
AcDbEntity
  8
0 - Systemaufbauten
  6
Continuous
 62
     7
370
     0
100
AcDbCircle
 10
733.7364903813414
 20
1149.959051356836
 30
0.0
 40
3.33333313465118
100
AcDbArc
 50
270.0
 51
329.9999974427113
  0
LINE
  5
112
330
A3
100
AcDbEntity
  8
0 - Systemaufbauten
  6
Continuous
 62
     7
370
     0
100
AcDbLine
 10
736.6232404833845
 20
1148.292385236546
 30
0.0
 11
740.8497402792982
 21
1154.959051356836
 31
0.0
  0
ARC
  5
113
330
A3
100
AcDbEntity
  8
0 - Systemaufbauten
  6
Continuous
 62
     7
370
     0
100
AcDbCircle
 10
743.7364903813404
 20
1153.292385087532
 30
0.0
 40
3.33328818123008
100
AcDbArc
 50
30.00044020598759
 51
149.9999952245331
  0
LINE
  5
114
330
A3
100
AcDbEntity
  8
0 - Systemaufbauten
  6
Continuous
 62
     7
370
     0
100
AcDbLine
 10
746.6232398873381
 20
1154.959051356836
 30
0.0
 11
750.8497408753437
 21
1148.292385236546
 31
0.0
  0
ARC
  5
115
330
A3
100
AcDbEntity
  8
0 - Systemaufbauten
  6
Continuous
 62
     7
370
     0
100
AcDbCircle
 10
753.7364903813404
 20
1149.959051356836
 30
0.0
 40
3.33333146670084
100
AcDbArc
 50
210.000007679929
 51
270.0
  0
ARC
  5
116
330
A3
100
AcDbEntity
  8
0 - Systemaufbauten
  6
Continuous
 62
     7
370
     0
100
AcDbCircle
 10
753.7364903813404
 20
1149.959051356836
 30
0.0
 40
3.33333313465118
100
AcDbArc
 50
270.0
 51
329.9999974427113
  0
LINE
  5
117
330
A3
100
AcDbEntity
  8
0 - Systemaufbauten
  6
Continuous
 62
     7
370
     0
100
AcDbLine
 10
756.6232404833836
 20
1148.292385236546
 30
0.0
 11
760.8497402792973
 21
1154.959051356836
 31
0.0
  0
ARC
  5
118
330
A3
100
AcDbEntity
  8
0 - Systemaufbauten
  6
Continuous
 62
     7
370
     0
100
AcDbCircle
 10
763.7364903813395
 20
1153.292385087532
 30
0.0
 40
3.33328818123008
100
AcDbArc
 50
30.00044020598759
 51
149.9999952245331
  0
LINE
  5
119
330
A3
100
AcDbEntity
  8
0 - Systemaufbauten
  6
Continuous
 62
     7
370
     0
100
AcDbLine
 10
766.6232398873371
 20
1154.959051356836
 30
0.0
 11
770.8497408753419
 21
1148.292385236546
 31
0.0
  0
ARC
  5
11A
330
A3
100
AcDbEntity
  8
0 - Systemaufbauten
  6
Continuous
 62
     7
370
     0
100
AcDbCircle
 10
773.7364903813395
 20
1149.959051356836
 30
0.0
 40
3.33333146670084
100
AcDbArc
 50
210.000007679929
 51
270.0
  0
ARC
  5
11B
330
A3
100
AcDbEntity
  8
0 - Systemaufbauten
  6
Continuous
 62
     7
370
     0
100
AcDbCircle
 10
773.7364903813395
 20
1149.959051356836
 30
0.0
 40
3.33333313465118
100
AcDbArc
 50
270.0
 51
329.9999974427113
  0
LINE
  5
11C
330
A3
100
AcDbEntity
  8
0 - Systemaufbauten
  6
Continuous
 62
     7
370
     0
100
AcDbLine
 10
776.6232404833818
 20
1148.292385236546
 30
0.0
 11
780.8497402792955
 21
1154.959051356836
 31
0.0
  0
ARC
  5
11D
330
A3
100
AcDbEntity
  8
0 - Systemaufbauten
  6
Continuous
 62
     7
370
     0
100
AcDbCircle
 10
783.7364903813386
 20
1153.292385087532
 30
0.0
 40
3.33328818123008
100
AcDbArc
 50
30.00044020598759
 51
149.9999952245331
  0
LINE
  5
11E
330
A3
100
AcDbEntity
  8
0 - Systemaufbauten
  6
Continuous
 62
     7
370
     0
100
AcDbLine
 10
786.6232398873353
 20
1154.959051356836
 30
0.0
 11
790.849740875341
 21
1148.292385236546
 31
0.0
  0
ARC
  5
11F
330
A3
100
AcDbEntity
  8
0 - Systemaufbauten
  6
Continuous
 62
     7
370
     0
100
AcDbCircle
 10
793.7364903813377
 20
1149.959051356836
 30
0.0
 40
3.33333146670084
100
AcDbArc
 50
210.000007679929
 51
270.0
  0
ARC
  5
120
330
A3
100
AcDbEntity
  8
0 - Systemaufbauten
  6
Continuous
 62
     7
370
     0
100
AcDbCircle
 10
793.7364903813377
 20
1149.959051356836
 30
0.0
 40
3.33333313465118
100
AcDbArc
 50
270.0
 51
329.9999974427113
  0
LINE
  5
121
330
A3
100
AcDbEntity
  8
0 - Systemaufbauten
  6
Continuous
 62
     7
370
     0
100
AcDbLine
 10
796.6232404833809
 20
1148.292385236546
 30
0.0
 11
800.8497402792946
 21
1154.959051356836
 31
0.0
  0
ARC
  5
122
330
A3
100
AcDbEntity
  8
0 - Systemaufbauten
  6
Continuous
 62
     7
370
     0
100
AcDbCircle
 10
803.7364903813377
 20
1153.292385087532
 30
0.0
 40
3.33328818123008
100
AcDbArc
 50
30.00044020598759
 51
149.9999952245331
  0
LINE
  5
123
330
A3
100
AcDbEntity
  8
0 - Systemaufbauten
  6
Continuous
 62
     7
370
     0
100
AcDbLine
 10
806.6232398873344
 20
1154.959051356836
 30
0.0
 11
810.8497408753401
 21
1148.292385236546
 31
0.0
  0
ARC
  5
124
330
A3
100
AcDbEntity
  8
0 - Systemaufbauten
  6
Continuous
 62
     7
370
     0
100
AcDbCircle
 10
813.7364903813368
 20
1149.959051356836
 30
0.0
 40
3.33333146670084
100
AcDbArc
 50
210.000007679929
 51
270.0
  0
ARC
  5
125
330
A3
100
AcDbEntity
  8
0 - Systemaufbauten
  6
Continuous
 62
     7
370
     0
100
AcDbCircle
 10
813.7364903813368
 20
1149.959051356836
 30
0.0
 40
3.33333313465118
100
AcDbArc
 50
270.0
 51
329.9999974427113
  0
LINE
  5
126
330
A3
100
AcDbEntity
  8
0 - Systemaufbauten
  6
Continuous
 62
     7
370
     0
100
AcDbLine
 10
816.62324048338
 20
1148.292385236546
 30
0.0
 11
820.8497402792937
 21
1154.959051356836
 31
0.0
  0
ARC
  5
127
330
A3
100
AcDbEntity
  8
0 - Systemaufbauten
  6
Continuous
 62
     7
370
     0
100
AcDbCircle
 10
823.7364903813368
 20
1153.292385087532
 30
0.0
 40
3.33328818123008
100
AcDbArc
 50
30.00044020598759
 51
149.9999952245331
  0
LINE
  5
128
330
A3
100
AcDbEntity
  8
0 - Systemaufbauten
  6
Continuous
 62
     7
370
     0
100
AcDbLine
 10
826.6232398873335
 20
1154.959051356836
 30
0.0
 11
830.8497408753392
 21
1148.292385236546
 31
0.0
  0
ARC
  5
129
330
A3
100
AcDbEntity
  8
0 - Systemaufbauten
  6
Continuous
 62
     7
370
     0
100
AcDbCircle
 10
833.7364903813359
 20
1149.959051356836
 30
0.0
 40
3.33333146670084
100
AcDbArc
 50
210.000007679929
 51
270.0
  0
ARC
  5
12A
330
A3
100
AcDbEntity
  8
0 - Systemaufbauten
  6
Continuous
 62
     7
370
     0
100
AcDbCircle
 10
833.7364903813359
 20
1149.959051356836
 30
0.0
 40
3.33333313465118
100
AcDbArc
 50
270.0
 51
329.9999974427113
  0
LINE
  5
12B
330
A3
100
AcDbEntity
  8
0 - Systemaufbauten
  6
Continuous
 62
     7
370
     0
100
AcDbLine
 10
836.623240483379
 20
1148.292385236546
 30
0.0
 11
840.8497402792927
 21
1154.959051356836
 31
0.0
  0
ARC
  5
12C
330
A3
100
AcDbEntity
  8
0 - Systemaufbauten
  6
Continuous
 62
     7
370
     0
100
AcDbCircle
 10
843.736490381335
 20
1153.292385087532
 30
0.0
 40
3.33328818123008
100
AcDbArc
 50
30.00044020598759
 51
149.9999952245331
  0
LINE
  5
12D
330
A3
100
AcDbEntity
  8
0 - Systemaufbauten
  6
Continuous
 62
     7
370
     0
100
AcDbLine
 10
846.6232398873326
 20
1154.959051356836
 30
0.0
 11
850.8497408753374
 21
1148.292385236546
 31
0.0
  0
ARC
  5
12E
330
A3
100
AcDbEntity
  8
0 - Systemaufbauten
  6
Continuous
 62
     7
370
     0
100
AcDbCircle
 10
853.736490381335
 20
1149.959051356836
 30
0.0
 40
3.33333146670084
100
AcDbArc
 50
210.000007679929
 51
270.0
  0
ARC
  5
12F
330
A3
100
AcDbEntity
  8
0 - Systemaufbauten
  6
Continuous
 62
     7
370
     0
100
AcDbCircle
 10
853.736490381335
 20
1149.959051356836
 30
0.0
 40
3.33333313465118
100
AcDbArc
 50
270.0
 51
329.9999974427113
  0
LINE
  5
130
330
A3
100
AcDbEntity
  8
0 - Systemaufbauten
  6
Continuous
 62
     7
370
     0
100
AcDbLine
 10
856.6232404833772
 20
1148.292385236546
 30
0.0
 11
860.8497402792909
 21
1154.959051356836
 31
0.0
  0
ARC
  5
131
330
A3
100
AcDbEntity
  8
0 - Systemaufbauten
  6
Continuous
 62
     7
370
     0
100
AcDbCircle
 10
863.7364903813341
 20
1153.292385087532
 30
0.0
 40
3.33328818123008
100
AcDbArc
 50
30.00044020598759
 51
149.9999952245331
  0
LINE
  5
132
330
A3
100
AcDbEntity
  8
0 - Systemaufbauten
  6
Continuous
 62
     7
370
     0
100
AcDbLine
 10
866.6232398873308
 20
1154.959051356836
 30
0.0
 11
870.8497408753365
 21
1148.292385236546
 31
0.0
  0
ARC
  5
133
330
A3
100
AcDbEntity
  8
0 - Systemaufbauten
  6
Continuous
 62
     7
370
     0
100
AcDbCircle
 10
873.7364903813332
 20
1149.959051356836
 30
0.0
 40
3.33333146670084
100
AcDbArc
 50
210.000007679929
 51
270.0
  0
ARC
  5
134
330
A3
100
AcDbEntity
  8
0 - Systemaufbauten
  6
Continuous
 62
     7
370
     0
100
AcDbCircle
 10
873.7364903813332
 20
1149.959051356836
 30
0.0
 40
3.33333313465118
100
AcDbArc
 50
270.0
 51
329.9999974427113
  0
LINE
  5
135
330
A3
100
AcDbEntity
  8
0 - Systemaufbauten
  6
Continuous
 62
     7
370
     0
100
AcDbLine
 10
876.6232404833763
 20
1148.292385236546
 30
0.0
 11
880.84974027929
 21
1154.959051356836
 31
0.0
  0
ARC
  5
136
330
A3
100
AcDbEntity
  8
0 - Systemaufbauten
  6
Continuous
 62
     7
370
     0
100
AcDbCircle
 10
883.7364903813332
 20
1153.292385087532
 30
0.0
 40
3.33328818123008
100
AcDbArc
 50
30.00044020598759
 51
149.9999952245331
  0
LINE
  5
137
330
A3
100
AcDbEntity
  8
0 - Systemaufbauten
  6
Continuous
 62
     7
370
     0
100
AcDbLine
 10
886.6232398873299
 20
1154.959051356836
 30
0.0
 11
890.8497408753356
 21
1148.292385236546
 31
0.0
  0
ARC
  5
138
330
A3
100
AcDbEntity
  8
0 - Systemaufbauten
  6
Continuous
 62
     7
370
     0
100
AcDbCircle
 10
893.7364903813323
 20
1149.959051356836
 30
0.0
 40
3.33333146670084
100
AcDbArc
 50
210.000007679929
 51
270.0
  0
ARC
  5
139
330
A3
100
AcDbEntity
  8
0 - Systemaufbauten
  6
Continuous
 62
     7
370
     0
100
AcDbCircle
 10
893.7364903813323
 20
1149.959051356836
 30
0.0
 40
3.33333313465118
100
AcDbArc
 50
270.0
 51
329.9999974427113
  0
LINE
  5
13A
330
A3
100
AcDbEntity
  8
0 - Systemaufbauten
  6
Continuous
 62
     7
370
     0
100
AcDbLine
 10
896.6232404833754
 20
1148.292385236546
 30
0.0
 11
900.8497402792891
 21
1154.959051356836
 31
0.0
  0
ARC
  5
13B
330
A3
100
AcDbEntity
  8
0 - Systemaufbauten
  6
Continuous
 62
     7
370
     0
100
AcDbCircle
 10
903.7364903813314
 20
1153.292385087532
 30
0.0
 40
3.33328818123008
100
AcDbArc
 50
30.00044020598759
 51
149.9999952245331
  0
LINE
  5
13C
330
A3
100
AcDbEntity
  8
0 - Systemaufbauten
  6
Continuous
 62
     7
370
     0
100
AcDbLine
 10
906.623239887329
 20
1154.959051356836
 30
0.0
 11
910.8497408753346
 21
1148.292385236546
 31
0.0
  0
ARC
  5
13D
330
A3
100
AcDbEntity
  8
0 - Systemaufbauten
  6
Continuous
 62
     7
370
     0
100
AcDbCircle
 10
913.7364903813314
 20
1149.959051356836
 30
0.0
 40
3.33333146670084
100
AcDbArc
 50
210.000007679929
 51
270.0
  0
ARC
  5
13E
330
A3
100
AcDbEntity
  8
0 - Systemaufbauten
  6
Continuous
 62
     7
370
     0
100
AcDbCircle
 10
913.7364903813314
 20
1149.959051356836
 30
0.0
 40
3.33333313465118
100
AcDbArc
 50
270.0
 51
329.9999974427113
  0
LINE
  5
13F
330
A3
100
AcDbEntity
  8
0 - Systemaufbauten
  6
Continuous
 62
     7
370
     0
100
AcDbLine
 10
916.6232404833745
 20
1148.292385236546
 30
0.0
 11
920.8497402792882
 21
1154.959051356836
 31
0.0
  0
ARC
  5
140
330
A3
100
AcDbEntity
  8
0 - Systemaufbauten
  6
Continuous
 62
     7
370
     0
100
AcDbCircle
 10
923.7364903813304
 20
1153.292385087532
 30
0.0
 40
3.33328818123008
100
AcDbArc
 50
30.00044020598759
 51
149.9999952245331
  0
LINE
  5
141
330
A3
100
AcDbEntity
  8
0 - Systemaufbauten
  6
Continuous
 62
     7
370
     0
100
AcDbLine
 10
926.623239887328
 20
1154.959051356836
 30
0.0
 11
930.8497408753328
 21
1148.292385236546
 31
0.0
  0
ARC
  5
142
330
A3
100
AcDbEntity
  8
0 - Systemaufbauten
  6
Continuous
 62
     7
370
     0
100
AcDbCircle
 10
933.7364903813304
 20
1149.959051356836
 30
0.0
 40
3.33333146670084
100
AcDbArc
 50
210.000007679929
 51
270.0
  0
ARC
  5
143
330
A3
100
AcDbEntity
  8
0 - Systemaufbauten
  6
Continuous
 62
     7
370
     0
100
AcDbCircle
 10
933.7364903813304
 20
1149.959051356836
 30
0.0
 40
3.33333313465118
100
AcDbArc
 50
270.0
 51
329.9999974427113
  0
LINE
  5
144
330
A3
100
AcDbEntity
  8
0 - Systemaufbauten
  6
Continuous
 62
     7
370
     0
100
AcDbLine
 10
936.6232404833727
 20
1148.292385236546
 30
0.0
 11
940.8497402792864
 21
1154.959051356836
 31
0.0
  0
ARC
  5
145
330
A3
100
AcDbEntity
  8
0 - Systemaufbauten
  6
Continuous
 62
     7
370
     0
100
AcDbCircle
 10
943.7364903813295
 20
1153.292385087532
 30
0.0
 40
3.33328818123008
100
AcDbArc
 50
30.00044020598759
 51
149.9999952245331
  0
LINE
  5
146
330
A3
100
AcDbEntity
  8
0 - Systemaufbauten
  6
Continuous
 62
     7
370
     0
100
AcDbLine
 10
946.6232398873262
 20
1154.959051356836
 30
0.0
 11
950.8497408753319
 21
1148.292385236546
 31
0.0
  0
ARC
  5
147
330
A3
100
AcDbEntity
  8
0 - Systemaufbauten
  6
Continuous
 62
     7
370
     0
100
AcDbCircle
 10
953.7364903813286
 20
1149.959051356836
 30
0.0
 40
3.33333146670084
100
AcDbArc
 50
210.000007679929
 51
270.0
  0
ARC
  5
148
330
A3
100
AcDbEntity
  8
0 - Systemaufbauten
  6
Continuous
 62
     7
370
     0
100
AcDbCircle
 10
953.7364903813286
 20
1149.959051356836
 30
0.0
 40
3.33333313465118
100
AcDbArc
 50
270.0
 51
329.9999974427113
  0
LINE
  5
149
330
A3
100
AcDbEntity
  8
0 - Systemaufbauten
  6
Continuous
 62
     7
370
     0
100
AcDbLine
 10
956.6232404833718
 20
1148.292385236546
 30
0.0
 11
960.8497402792855
 21
1154.959051356836
 31
0.0
  0
ARC
  5
14A
330
A3
100
AcDbEntity
  8
0 - Systemaufbauten
  6
Continuous
 62
     7
370
     0
100
AcDbCircle
 10
963.7364903813286
 20
1153.292385087532
 30
0.0
 40
3.33328818123008
100
AcDbArc
 50
30.00044020598759
 51
149.9999952245331
  0
LINE
  5
14B
330
A3
100
AcDbEntity
  8
0 - Systemaufbauten
  6
Continuous
 62
     7
370
     0
100
AcDbLine
 10
966.6232398873253
 20
1154.959051356836
 30
0.0
 11
970.849740875331
 21
1148.292385236546
 31
0.0
  0
ARC
  5
14C
330
A3
100
AcDbEntity
  8
0 - Systemaufbauten
  6
Continuous
 62
     7
370
     0
100
AcDbCircle
 10
973.7364903813277
 20
1149.959051356836
 30
0.0
 40
3.33333146670084
100
AcDbArc
 50
210.000007679929
 51
270.0
  0
ARC
  5
14D
330
A3
100
AcDbEntity
  8
0 - Systemaufbauten
  6
Continuous
 62
     7
370
     0
100
AcDbCircle
 10
973.7364903813277
 20
1149.959051356836
 30
0.0
 40
3.33333313465118
100
AcDbArc
 50
270.0
 51
329.9999974427113
  0
LINE
  5
14E
330
A3
100
AcDbEntity
  8
0 - Systemaufbauten
  6
Continuous
 62
     7
370
     0
100
AcDbLine
 10
976.6232404833709
 20
1148.292385236546
 30
0.0
 11
980.8497402792846
 21
1154.959051356836
 31
0.0
  0
ARC
  5
14F
330
A3
100
AcDbEntity
  8
0 - Systemaufbauten
  6
Continuous
 62
     7
370
     0
100
AcDbCircle
 10
983.7364903813277
 20
1153.292385087532
 30
0.0
 40
3.33328818123008
100
AcDbArc
 50
30.00044020598759
 51
149.9999952245331
  0
LINE
  5
150
330
A3
100
AcDbEntity
  8
0 - Systemaufbauten
  6
Continuous
 62
     7
370
     0
100
AcDbLine
 10
986.6232398873244
 20
1154.959051356836
 30
0.0
 11
990.8497408753301
 21
1148.292385236546
 31
0.0
  0
ARC
  5
151
330
A3
100
AcDbEntity
  8
0 - Systemaufbauten
  6
Continuous
 62
     7
370
     0
100
AcDbCircle
 10
993.7364903813268
 20
1149.959051356836
 30
0.0
 40
3.33333146670084
100
AcDbArc
 50
210.000007679929
 51
270.0
  0
ARC
  5
152
330
A3
100
AcDbEntity
  8
0 - Systemaufbauten
  6
Continuous
 62
     7
370
     0
100
AcDbCircle
 10
993.7364903813268
 20
1149.959051356836
 30
0.0
 40
3.33333313465118
100
AcDbArc
 50
270.0
 51
329.9999974427113
  0
LINE
  5
153
330
A3
100
AcDbEntity
  8
0 - Systemaufbauten
  6
Continuous
 62
     7
370
     0
100
AcDbLine
 10
996.62324048337
 20
1148.292385236546
 30
0.0
 11
1000.849740279284
 21
1154.959051356836
 31
0.0
  0
ARC
  5
154
330
A3
100
AcDbEntity
  8
0 - Systemaufbauten
  6
Continuous
 62
     7
370
     0
100
AcDbCircle
 10
1003.736490381326
 20
1153.292385087532
 30
0.0
 40
3.33328818123008
100
AcDbArc
 50
30.00044020598759
 51
149.9999952245331
  0
LINE
  5
155
330
A3
100
AcDbEntity
  8
0 - Systemaufbauten
  6
Continuous
 62
     7
370
     0
100
AcDbLine
 10
1006.623239887324
 20
1154.959051356836
 30
0.0
 11
1010.849740875328
 21
1148.292385236546
 31
0.0
  0
ARC
  5
156
330
A3
100
AcDbEntity
  8
0 - Systemaufbauten
  6
Continuous
 62
     7
370
     0
100
AcDbCircle
 10
1013.736490381326
 20
1149.959051356836
 30
0.0
 40
3.33333146670084
100
AcDbArc
 50
210.000007679929
 51
270.0
  0
ARC
  5
157
330
A3
100
AcDbEntity
  8
0 - Systemaufbauten
  6
Continuous
 62
     7
370
     0
100
AcDbCircle
 10
1013.736490381326
 20
1149.959051356836
 30
0.0
 40
3.33333313465118
100
AcDbArc
 50
270.0
 51
329.9999974427113
  0
LINE
  5
158
330
A3
100
AcDbEntity
  8
0 - Systemaufbauten
  6
Continuous
 62
     7
370
     0
100
AcDbLine
 10
1016.623240483368
 20
1148.292385236546
 30
0.0
 11
1020.849740279282
 21
1154.959051356836
 31
0.0
  0
ARC
  5
159
330
A3
100
AcDbEntity
  8
0 - Systemaufbauten
  6
Continuous
 62
     7
370
     0
100
AcDbCircle
 10
1023.736490381325
 20
1153.292385087532
 30
0.0
 40
3.33328818123008
100
AcDbArc
 50
30.00044020598759
 51
149.9999952245331
  0
LINE
  5
15A
330
A3
100
AcDbEntity
  8
0 - Systemaufbauten
  6
Continuous
 62
     7
370
     0
100
AcDbLine
 10
1026.623239887322
 20
1154.959051356836
 30
0.0
 11
1030.849740875327
 21
1148.292385236546
 31
0.0
  0
ARC
  5
15B
330
A3
100
AcDbEntity
  8
0 - Systemaufbauten
  6
Continuous
 62
     7
370
     0
100
AcDbCircle
 10
1033.736490381324
 20
1149.959051356836
 30
0.0
 40
3.33333146670084
100
AcDbArc
 50
210.000007679929
 51
270.0
  0
ARC
  5
15C
330
A3
100
AcDbEntity
  8
0 - Systemaufbauten
  6
Continuous
 62
     7
370
     0
100
AcDbCircle
 10
1033.736490381324
 20
1149.959051356836
 30
0.0
 40
3.33333313465118
100
AcDbArc
 50
270.0
 51
329.9999974427113
  0
LINE
  5
15D
330
A3
100
AcDbEntity
  8
0 - Systemaufbauten
  6
Continuous
 62
     7
370
     0
100
AcDbLine
 10
1036.623240483367
 20
1148.292385236546
 30
0.0
 11
1040.849740279281
 21
1154.959051356836
 31
0.0
  0
ARC
  5
15E
330
A3
100
AcDbEntity
  8
0 - Systemaufbauten
  6
Continuous
 62
     7
370
     0
100
AcDbCircle
 10
1043.736490381324
 20
1153.292385087532
 30
0.0
 40
3.33328818123008
100
AcDbArc
 50
30.00044020598759
 51
149.9999952245331
  0
LINE
  5
15F
330
A3
100
AcDbEntity
  8
0 - Systemaufbauten
  6
Continuous
 62
     7
370
     0
100
AcDbLine
 10
1046.623239887321
 20
1154.959051356836
 30
0.0
 11
1050.849740875326
 21
1148.292385236546
 31
0.0
  0
ARC
  5
160
330
A3
100
AcDbEntity
  8
0 - Systemaufbauten
  6
Continuous
 62
     7
370
     0
100
AcDbCircle
 10
1053.736490381323
 20
1149.959051356836
 30
0.0
 40
3.33333146670084
100
AcDbArc
 50
210.000007679929
 51
270.0
  0
ARC
  5
161
330
A3
100
AcDbEntity
  8
0 - Systemaufbauten
  6
Continuous
 62
     7
370
     0
100
AcDbCircle
 10
1053.736490381323
 20
1149.959051356836
 30
0.0
 40
3.33333313465118
100
AcDbArc
 50
270.0
 51
329.9999974427113
  0
LINE
  5
162
330
A3
100
AcDbEntity
  8
0 - Systemaufbauten
  6
Continuous
 62
     7
370
     0
100
AcDbLine
 10
1056.623240483366
 20
1148.292385236546
 30
0.0
 11
1060.84974027928
 21
1154.959051356836
 31
0.0
  0
ARC
  5
163
330
A3
100
AcDbEntity
  8
0 - Systemaufbauten
  6
Continuous
 62
     7
370
     0
100
AcDbCircle
 10
1063.736490381322
 20
1153.292385087532
 30
0.0
 40
3.33328818123008
100
AcDbArc
 50
30.00044020598759
 51
149.9999952245331
  0
LINE
  5
164
330
A3
100
AcDbEntity
  8
0 - Systemaufbauten
  6
Continuous
 62
     7
370
     0
100
AcDbLine
 10
1066.62323988732
 20
1154.959051356836
 30
0.0
 11
1070.849740875326
 21
1148.292385236546
 31
0.0
  0
ARC
  5
165
330
A3
100
AcDbEntity
  8
0 - Systemaufbauten
  6
Continuous
 62
     7
370
     0
100
AcDbCircle
 10
1073.736490381322
 20
1149.959051356836
 30
0.0
 40
3.33333146670084
100
AcDbArc
 50
210.000007679929
 51
270.0
  0
ARC
  5
166
330
A3
100
AcDbEntity
  8
0 - Systemaufbauten
  6
Continuous
 62
     7
370
     0
100
AcDbCircle
 10
1073.736490381322
 20
1149.959051356836
 30
0.0
 40
3.33333313465118
100
AcDbArc
 50
270.0
 51
329.9999974427113
  0
LINE
  5
167
330
A3
100
AcDbEntity
  8
0 - Systemaufbauten
  6
Continuous
 62
     7
370
     0
100
AcDbLine
 10
1076.623240483365
 20
1148.292385236546
 30
0.0
 11
1078.736490381363
 21
1151.625718296755
 31
0.0
  0
HATCH
  5
168
330
A3
100
AcDbEntity
  8
0 - Systemaufbauten
  6
Continuous
 62
    30
370
     0
100
AcDbHatch
 10
0.0
 20
0.0
 30
0.0
210
0.0
220
0.0
230
1.0
  2
SOLID
 70
     1
 71
     0
 91
        1
 92
        0
 93
        4
 72
     1
 10
333.7364903813641
 20
1136.625718222185
 11
1078.736490381363
 21
1136.625718222185
 72
     1
 10
1078.736490381363
 20
1136.625718222185
 11
1078.736490381363
 21
1146.625718222185
 72
     1
 10
1078.736490381363
 20
1146.625718222185
 11
333.7364903813641
 21
1146.625718222185
 72
     1
 10
333.7364903813641
 20
1146.625718222185
 11
333.7364903813641
 21
1136.625718222185
 97
        0
 75
     0
 76
     1
 98
        0
  0
HATCH
  5
169
330
A3
100
AcDbEntity
  8
0 - Systemaufbauten
  6
Continuous
 62
     2
370
     0
100
AcDbHatch
 10
0.0
 20
0.0
 30
0.0
210
0.0
220
0.0
230
1.0
  2
SOLID
 70
     1
 71
     0
 91
        1
 92
        0
 93
        4
 72
     1
 10
333.7364903813641
 20
996.6257182221852
 11
833.7364903813632
 21
996.6257182221852
 72
     1
 10
833.7364903813632
 20
996.6257182221852
 11
833.7364903813632
 21
1136.625718222185
 72
     1
 10
833.7364903813632
 20
1136.625718222185
 11
333.7364903813641
 21
1136.625718222185
 72
     1
 10
333.7364903813641
 20
1136.625718222185
 11
333.7364903813641
 21
996.6257182221852
 97
        0
 75
     0
 76
     1
 98
        0
  0
HATCH
  5
16A
330
A3
100
AcDbEntity
  8
0 - Systemaufbauten
  6
Continuous
 62
     2
370
     0
100
AcDbHatch
 10
0.0
 20
0.0
 30
0.0
210
0.0
220
0.0
230
1.0
  2
SOLID
 70
     1
 71
     0
 91
        1
 92
        0
 93
        4
 72
     1
 10
833.7364903813632
 20
996.6257182221852
 11
1078.736490381363
 21
996.6257182221852
 72
     1
 10
1078.736490381363
 20
996.6257182221852
 11
1078.736490381363
 21
1136.625718222185
 72
     1
 10
1078.736490381363
 20
1136.625718222185
 11
833.7364903813632
 21
1136.625718222185
 72
     1
 10
833.7364903813632
 20
1136.625718222185
 11
833.7364903813632
 21
996.6257182221852
 97
        0
 75
     0
 76
     1
 98
        0
  0
HATCH
  5
16B
330
A3
100
AcDbEntity
  8
0 - Systemaufbauten
  6
Continuous
 62
     2
370
     0
100
AcDbHatch
 10
0.0
 20
0.0
 30
0.0
210
0.0
220
0.0
230
1.0
  2
SOLID
 70
     1
 71
     0
 91
        1
 92
        0
 93
        4
 72
     1
 10
1088.736490381362
 20
996.6257182221852
 11
1833.736490381362
 21
996.6257182221852
 72
     1
 10
1833.736490381362
 20
996.6257182221852
 11
1833.736490381362
 21
1136.625718222185
 72
     1
 10
1833.736490381362
 20
1136.625718222185
 11
1088.736490381362
 21
1136.625718222185
 72
     1
 10
1088.736490381362
 20
1136.625718222185
 11
1088.736490381362
 21
996.6257182221852
 97
        0
 75
     0
 76
     1
 98
        0
  0
HATCH
  5
16C
330
A3
100
AcDbEntity
  8
0 - Systemaufbauten
  6
Continuous
 62
     2
370
     0
100
AcDbHatch
 10
0.0
 20
0.0
 30
0.0
210
0.0
220
0.0
230
1.0
  2
SOLID
 70
     1
 71
     0
 91
        1
 92
        0
 93
        4
 72
     1
 10
333.7364903813641
 20
856.6257182221852
 11
1078.736490381363
 21
856.6257182221852
 72
     1
 10
1078.736490381363
 20
856.6257182221852
 11
1078.736490381363
 21
996.6257182221852
 72
     1
 10
1078.736490381363
 20
996.6257182221852
 11
333.7364903813641
 21
996.6257182221852
 72
     1
 10
333.7364903813641
 20
996.6257182221852
 11
333.7364903813641
 21
856.6257182221852
 97
        0
 75
     0
 76
     1
 98
        0
  0
HATCH
  5
16D
330
A3
100
AcDbEntity
  8
0 - Systemaufbauten
  6
Continuous
 62
     2
370
     0
100
AcDbHatch
 10
0.0
 20
0.0
 30
0.0
210
0.0
220
0.0
230
1.0
  2
SOLID
 70
     1
 71
     0
 91
        1
 92
        0
 93
        4
 72
     1
 10
1088.736490381362
 20
856.6257182221852
 11
1333.736490381362
 21
856.6257182221852
 72
     1
 10
1333.736490381362
 20
856.6257182221852
 11
1333.736490381362
 21
996.6257182221852
 72
     1
 10
1333.736490381362
 20
996.6257182221852
 11
1088.736490381362
 21
996.6257182221852
 72
     1
 10
1088.736490381362
 20
996.6257182221852
 11
1088.736490381362
 21
856.6257182221852
 97
        0
 75
     0
 76
     1
 98
        0
  0
HATCH
  5
16E
330
A3
100
AcDbEntity
  8
0 - Systemaufbauten
  6
Continuous
 62
     2
370
     0
100
AcDbHatch
 10
0.0
 20
0.0
 30
0.0
210
0.0
220
0.0
230
1.0
  2
SOLID
 70
     1
 71
     0
 91
        1
 92
        0
 93
        4
 72
     1
 10
1333.736490381364
 20
856.6257182221852
 11
1833.736490381362
 21
856.6257182221852
 72
     1
 10
1833.736490381362
 20
856.6257182221852
 11
1833.736490381362
 21
996.6257182221852
 72
     1
 10
1833.736490381362
 20
996.6257182221852
 11
1333.736490381364
 21
996.6257182221852
 72
     1
 10
1333.736490381364
 20
996.6257182221852
 11
1333.736490381364
 21
856.6257182221852
 97
        0
 75
     0
 76
     1
 98
        0
  0
LINE
  5
16F
330
A3
100
AcDbEntity
  8
0 - Systemaufbauten
  6
Continuous
 62
     7
370
     0
100
AcDbLine
 10
333.7364903813641
 20
856.6257182221852
 30
0.0
 11
389.73649121583
 21
996.6257182221852
 31
0.0
  0
LINE
  5
170
330
A3
100
AcDbEntity
  8
0 - Systemaufbauten
  6
Continuous
 62
     7
370
     0
100
AcDbLine
 10
389.73649121583
 20
996.6257182221852
 30
0.0
 11
445.7364920502941
 21
856.6257182221852
 31
0.0
  0
LINE
  5
171
330
A3
100
AcDbEntity
  8
0 - Systemaufbauten
  6
Continuous
 62
     7
370
     0
100
AcDbLine
 10
445.7364920502941
 20
856.6257182221852
 30
0.0
 11
501.7364928847601
 21
996.6257182221852
 31
0.0
  0
LINE
  5
172
330
A3
100
AcDbEntity
  8
0 - Systemaufbauten
  6
Continuous
 62
     7
370
     0
100
AcDbLine
 10
501.7364928847601
 20
996.6257182221852
 30
0.0
 11
557.7364937192251
 21
856.6257182221852
 31
0.0
  0
LINE
  5
173
330
A3
100
AcDbEntity
  8
0 - Systemaufbauten
  6
Continuous
 62
     7
370
     0
100
AcDbLine
 10
557.7364937192251
 20
856.6257182221852
 30
0.0
 11
613.736494553691
 21
996.6257182221852
 31
0.0
  0
LINE
  5
174
330
A3
100
AcDbEntity
  8
0 - Systemaufbauten
  6
Continuous
 62
     7
370
     0
100
AcDbLine
 10
613.736494553691
 20
996.6257182221852
 30
0.0
 11
669.7364953881552
 21
856.6257182221852
 31
0.0
  0
LINE
  5
175
330
A3
100
AcDbEntity
  8
0 - Systemaufbauten
  6
Continuous
 62
     7
370
     0
100
AcDbLine
 10
669.7364953881552
 20
856.6257182221852
 30
0.0
 11
725.7364962226211
 21
996.6257182221852
 31
0.0
  0
LINE
  5
176
330
A3
100
AcDbEntity
  8
0 - Systemaufbauten
  6
Continuous
 62
     7
370
     0
100
AcDbLine
 10
725.7364962226211
 20
996.6257182221852
 30
0.0
 11
781.7364970570852
 21
856.6257182221852
 31
0.0
  0
LINE
  5
177
330
A3
100
AcDbEntity
  8
0 - Systemaufbauten
  6
Continuous
 62
     7
370
     0
100
AcDbLine
 10
781.7364970570852
 20
856.6257182221852
 30
0.0
 11
837.7364978915512
 21
996.6257182221852
 31
0.0
  0
LINE
  5
178
330
A3
100
AcDbEntity
  8
0 - Systemaufbauten
  6
Continuous
 62
     7
370
     0
100
AcDbLine
 10
837.7364978915512
 20
996.6257182221852
 30
0.0
 11
893.7364987260171
 21
856.6257182221852
 31
0.0
  0
LINE
  5
179
330
A3
100
AcDbEntity
  8
0 - Systemaufbauten
  6
Continuous
 62
     7
370
     0
100
AcDbLine
 10
893.7364987260171
 20
856.6257182221852
 30
0.0
 11
949.7364995604821
 21
996.6257182221852
 31
0.0
  0
LINE
  5
17A
330
A3
100
AcDbEntity
  8
0 - Systemaufbauten
  6
Continuous
 62
     7
370
     0
100
AcDbLine
 10
949.7364995604821
 20
996.6257182221852
 30
0.0
 11
1005.736500394948
 21
856.6257182221852
 31
0.0
  0
LINE
  5
17B
330
A3
100
AcDbEntity
  8
0 - Systemaufbauten
  6
Continuous
 62
     7
370
     0
100
AcDbLine
 10
1005.736500394948
 20
856.6257182221852
 30
0.0
 11
1061.736501229412
 21
996.6257182221852
 31
0.0
  0
LINE
  5
17C
330
A3
100
AcDbEntity
  8
0 - Systemaufbauten
  6
Continuous
 62
     7
370
     0
100
AcDbLine
 10
1061.736501229412
 20
996.6257182221852
 30
0.0
 11
1078.736490381363
 21
954.1257459756089
 31
0.0
  0
LINE
  5
17D
330
A3
100
AcDbEntity
  8
0 - Systemaufbauten
  6
Continuous
 62
     7
370
     0
100
AcDbLine
 10
333.7364903813641
 20
996.6257182221852
 30
0.0
 11
389.73649121583
 21
1136.625718222187
 31
0.0
  0
LINE
  5
17E
330
A3
100
AcDbEntity
  8
0 - Systemaufbauten
  6
Continuous
 62
     7
370
     0
100
AcDbLine
 10
389.73649121583
 20
1136.625718222187
 30
0.0
 11
445.7364920502941
 21
996.6257182221852
 31
0.0
  0
LINE
  5
17F
330
A3
100
AcDbEntity
  8
0 - Systemaufbauten
  6
Continuous
 62
     7
370
     0
100
AcDbLine
 10
445.7364920502941
 20
996.6257182221852
 30
0.0
 11
501.7364928847601
 21
1136.625718222187
 31
0.0
  0
LINE
  5
180
330
A3
100
AcDbEntity
  8
0 - Systemaufbauten
  6
Continuous
 62
     7
370
     0
100
AcDbLine
 10
501.7364928847601
 20
1136.625718222187
 30
0.0
 11
557.7364937192251
 21
996.6257182221852
 31
0.0
  0
LINE
  5
181
330
A3
100
AcDbEntity
  8
0 - Systemaufbauten
  6
Continuous
 62
     7
370
     0
100
AcDbLine
 10
557.7364937192251
 20
996.6257182221852
 30
0.0
 11
613.736494553691
 21
1136.625718222187
 31
0.0
  0
LINE
  5
182
330
A3
100
AcDbEntity
  8
0 - Systemaufbauten
  6
Continuous
 62
     7
370
     0
100
AcDbLine
 10
613.736494553691
 20
1136.625718222187
 30
0.0
 11
669.7364953881552
 21
996.6257182221852
 31
0.0
  0
LINE
  5
183
330
A3
100
AcDbEntity
  8
0 - Systemaufbauten
  6
Continuous
 62
     7
370
     0
100
AcDbLine
 10
669.7364953881552
 20
996.6257182221852
 30
0.0
 11
725.7364962226211
 21
1136.625718222187
 31
0.0
  0
LINE
  5
184
330
A3
100
AcDbEntity
  8
0 - Systemaufbauten
  6
Continuous
 62
     7
370
     0
100
AcDbLine
 10
725.7364962226211
 20
1136.625718222187
 30
0.0
 11
781.7364970570852
 21
996.6257182221852
 31
0.0
  0
LINE
  5
185
330
A3
100
AcDbEntity
  8
0 - Systemaufbauten
  6
Continuous
 62
     7
370
     0
100
AcDbLine
 10
781.7364970570852
 20
996.6257182221852
 30
0.0
 11
833.7364903813632
 21
1126.625699595726
 31
0.0
  0
LINE
  5
186
330
A3
100
AcDbEntity
  8
0 - Systemaufbauten
  6
Continuous
 62
     7
370
     0
100
AcDbLine
 10
833.7364903813632
 20
996.6257182221852
 30
0.0
 11
889.7364912158273
 21
1136.625718222187
 31
0.0
  0
LINE
  5
187
330
A3
100
AcDbEntity
  8
0 - Systemaufbauten
  6
Continuous
 62
     7
370
     0
100
AcDbLine
 10
889.7364912158273
 20
1136.625718222187
 30
0.0
 11
945.7364920502914
 21
996.6257182221852
 31
0.0
  0
LINE
  5
188
330
A3
100
AcDbEntity
  8
0 - Systemaufbauten
  6
Continuous
 62
     7
370
     0
100
AcDbLine
 10
945.7364920502914
 20
996.6257182221852
 30
0.0
 11
1001.736492884756
 21
1136.625718222187
 31
0.0
  0
LINE
  5
189
330
A3
100
AcDbEntity
  8
0 - Systemaufbauten
  6
Continuous
 62
     7
370
     0
100
AcDbLine
 10
1001.736492884756
 20
1136.625718222187
 30
0.0
 11
1057.736493719222
 21
996.6257182221852
 31
0.0
  0
LINE
  5
18A
330
A3
100
AcDbEntity
  8
0 - Systemaufbauten
  6
Continuous
 62
     7
370
     0
100
AcDbLine
 10
1057.736493719222
 20
996.6257182221852
 30
0.0
 11
1078.736490381363
 21
1049.125709095229
 31
0.0
  0
LINE
  5
18B
330
A3
100
AcDbEntity
  8
0 - Systemaufbauten
  6
Continuous
 62
     7
370
     0
100
AcDbLine
 10
1088.736490381362
 20
996.6257182221852
 30
0.0
 11
1144.736491215829
 21
1136.625718222187
 31
0.0
  0
LINE
  5
18C
330
A3
100
AcDbEntity
  8
0 - Systemaufbauten
  6
Continuous
 62
     7
370
     0
100
AcDbLine
 10
1144.736491215829
 20
1136.625718222187
 30
0.0
 11
1200.736492050292
 21
996.6257182221852
 31
0.0
  0
LINE
  5
18D
330
A3
100
AcDbEntity
  8
0 - Systemaufbauten
  6
Continuous
 62
     7
370
     0
100
AcDbLine
 10
1200.736492050292
 20
996.6257182221852
 30
0.0
 11
1256.736492884759
 21
1136.625718222187
 31
0.0
  0
LINE
  5
18E
330
A3
100
AcDbEntity
  8
0 - Systemaufbauten
  6
Continuous
 62
     7
370
     0
100
AcDbLine
 10
1256.736492884759
 20
1136.625718222187
 30
0.0
 11
1312.736493719222
 21
996.6257182221852
 31
0.0
  0
LINE
  5
18F
330
A3
100
AcDbEntity
  8
0 - Systemaufbauten
  6
Continuous
 62
     7
370
     0
100
AcDbLine
 10
1312.736493719222
 20
996.6257182221852
 30
0.0
 11
1368.736494553689
 21
1136.625718222187
 31
0.0
  0
LINE
  5
190
330
A3
100
AcDbEntity
  8
0 - Systemaufbauten
  6
Continuous
 62
     7
370
     0
100
AcDbLine
 10
1368.736494553689
 20
1136.625718222187
 30
0.0
 11
1424.736495388154
 21
996.6257182221852
 31
0.0
  0
LINE
  5
191
330
A3
100
AcDbEntity
  8
0 - Systemaufbauten
  6
Continuous
 62
     7
370
     0
100
AcDbLine
 10
1424.736495388154
 20
996.6257182221852
 30
0.0
 11
1480.736496222619
 21
1136.625718222187
 31
0.0
  0
LINE
  5
192
330
A3
100
AcDbEntity
  8
0 - Systemaufbauten
  6
Continuous
 62
     7
370
     0
100
AcDbLine
 10
1480.736496222619
 20
1136.625718222187
 30
0.0
 11
1536.736497057084
 21
996.6257182221852
 31
0.0
  0
LINE
  5
193
330
A3
100
AcDbEntity
  8
0 - Systemaufbauten
  6
Continuous
 62
     7
370
     0
100
AcDbLine
 10
1536.736497057084
 20
996.6257182221852
 30
0.0
 11
1592.736497891549
 21
1136.625718222187
 31
0.0
  0
LINE
  5
194
330
A3
100
AcDbEntity
  8
0 - Systemaufbauten
  6
Continuous
 62
     7
370
     0
100
AcDbLine
 10
1592.736497891549
 20
1136.625718222187
 30
0.0
 11
1648.736498726016
 21
996.6257182221852
 31
0.0
  0
LINE
  5
195
330
A3
100
AcDbEntity
  8
0 - Systemaufbauten
  6
Continuous
 62
     7
370
     0
100
AcDbLine
 10
1648.736498726016
 20
996.6257182221852
 30
0.0
 11
1704.736499560479
 21
1136.625718222187
 31
0.0
  0
LINE
  5
196
330
A3
100
AcDbEntity
  8
0 - Systemaufbauten
  6
Continuous
 62
     7
370
     0
100
AcDbLine
 10
1704.736499560479
 20
1136.625718222187
 30
0.0
 11
1760.736500394946
 21
996.6257182221852
 31
0.0
  0
LINE
  5
197
330
A3
100
AcDbEntity
  8
0 - Systemaufbauten
  6
Continuous
 62
     7
370
     0
100
AcDbLine
 10
1760.736500394946
 20
996.6257182221852
 30
0.0
 11
1816.736501229411
 21
1136.625718222187
 31
0.0
  0
LINE
  5
198
330
A3
100
AcDbEntity
  8
0 - Systemaufbauten
  6
Continuous
 62
     7
370
     0
100
AcDbLine
 10
1816.736501229411
 20
1136.625718222187
 30
0.0
 11
1833.736490381362
 21
1094.125745975607
 31
0.0
  0
LINE
  5
199
330
A3
100
AcDbEntity
  8
0 - Systemaufbauten
  6
Continuous
 62
     7
370
     0
100
AcDbLine
 10
1088.736490381362
 20
856.6257182221852
 30
0.0
 11
1144.736491215829
 21
996.6257182221852
 31
0.0
  0
LINE
  5
19A
330
A3
100
AcDbEntity
  8
0 - Systemaufbauten
  6
Continuous
 62
     7
370
     0
100
AcDbLine
 10
1144.736491215829
 20
996.6257182221852
 30
0.0
 11
1200.736492050292
 21
856.6257182221852
 31
0.0
  0
LINE
  5
19B
330
A3
100
AcDbEntity
  8
0 - Systemaufbauten
  6
Continuous
 62
     7
370
     0
100
AcDbLine
 10
1200.736492050292
 20
856.6257182221852
 30
0.0
 11
1256.736492884759
 21
996.6257182221852
 31
0.0
  0
LINE
  5
19C
330
A3
100
AcDbEntity
  8
0 - Systemaufbauten
  6
Continuous
 62
     7
370
     0
100
AcDbLine
 10
1256.736492884759
 20
996.6257182221852
 30
0.0
 11
1312.736493719222
 21
856.6257182221852
 31
0.0
  0
LINE
  5
19D
330
A3
100
AcDbEntity
  8
0 - Systemaufbauten
  6
Continuous
 62
     7
370
     0
100
AcDbLine
 10
1312.736493719222
 20
856.6257182221852
 30
0.0
 11
1333.736490381364
 21
909.125709095224
 31
0.0
  0
LINE
  5
19E
330
A3
100
AcDbEntity
  8
0 - Systemaufbauten
  6
Continuous
 62
     7
370
     0
100
AcDbLine
 10
1333.736490381364
 20
856.6257182221852
 30
0.0
 11
1389.736491215831
 21
996.6257182221852
 31
0.0
  0
LINE
  5
19F
330
A3
100
AcDbEntity
  8
0 - Systemaufbauten
  6
Continuous
 62
     7
370
     0
100
AcDbLine
 10
1389.736491215831
 20
996.6257182221852
 30
0.0
 11
1445.736492050294
 21
856.6257182221852
 31
0.0
  0
LINE
  5
1A0
330
A3
100
AcDbEntity
  8
0 - Systemaufbauten
  6
Continuous
 62
     7
370
     0
100
AcDbLine
 10
1445.736492050294
 20
856.6257182221852
 30
0.0
 11
1501.736492884761
 21
996.6257182221852
 31
0.0
  0
LINE
  5
1A1
330
A3
100
AcDbEntity
  8
0 - Systemaufbauten
  6
Continuous
 62
     7
370
     0
100
AcDbLine
 10
1501.736492884761
 20
996.6257182221852
 30
0.0
 11
1557.736493719224
 21
856.6257182221852
 31
0.0
  0
LINE
  5
1A2
330
A3
100
AcDbEntity
  8
0 - Systemaufbauten
  6
Continuous
 62
     7
370
     0
100
AcDbLine
 10
1557.736493719224
 20
856.6257182221852
 30
0.0
 11
1613.736494553691
 21
996.6257182221852
 31
0.0
  0
LINE
  5
1A3
330
A3
100
AcDbEntity
  8
0 - Systemaufbauten
  6
Continuous
 62
     7
370
     0
100
AcDbLine
 10
1613.736494553691
 20
996.6257182221852
 30
0.0
 11
1669.736495388156
 21
856.6257182221852
 31
0.0
  0
LINE
  5
1A4
330
A3
100
AcDbEntity
  8
0 - Systemaufbauten
  6
Continuous
 62
     7
370
     0
100
AcDbLine
 10
1669.736495388156
 20
856.6257182221852
 30
0.0
 11
1725.736496222621
 21
996.6257182221852
 31
0.0
  0
LINE
  5
1A5
330
A3
100
AcDbEntity
  8
0 - Systemaufbauten
  6
Continuous
 62
     7
370
     0
100
AcDbLine
 10
1725.736496222621
 20
996.6257182221852
 30
0.0
 11
1781.736497057086
 21
856.6257182221852
 31
0.0
  0
LINE
  5
1A6
330
A3
100
AcDbEntity
  8
0 - Systemaufbauten
  6
Continuous
 62
     7
370
     0
100
AcDbLine
 10
1781.736497057086
 20
856.6257182221852
 30
0.0
 11
1833.736490381362
 21
986.6256995957265
 31
0.0
  0
LINE
  5
1A7
330
A3
100
AcDbEntity
  8
0 - Systemaufbauten
  6
Continuous
 62
     7
370
     0
100
AcDbLine
 10
1088.736490381362
 20
1146.625718222185
 30
0.0
 11
1094.509990585449
 21
1156.625718222183
 31
0.0
  0
LINE
  5
1A8
330
A3
100
AcDbEntity
  8
0 - Systemaufbauten
  6
Continuous
 62
     7
370
     0
100
AcDbLine
 10
1094.509990585449
 20
1156.625718222183
 30
0.0
 11
1100.283490789535
 21
1146.625718222185
 31
0.0
  0
LINE
  5
1A9
330
A3
100
AcDbEntity
  8
0 - Systemaufbauten
  6
Continuous
 62
     7
370
     0
100
AcDbLine
 10
1100.283490789535
 20
1146.625718222185
 30
0.0
 11
1088.736490381362
 21
1146.625718222185
 31
0.0
  0
LINE
  5
1AA
330
A3
100
AcDbEntity
  8
0 - Systemaufbauten
  6
Continuous
 62
     7
370
     0
100
AcDbLine
 10
1108.736490381362
 20
1146.625718222185
 30
0.0
 11
1114.509990585447
 21
1156.625718222183
 31
0.0
  0
LINE
  5
1AB
330
A3
100
AcDbEntity
  8
0 - Systemaufbauten
  6
Continuous
 62
     7
370
     0
100
AcDbLine
 10
1114.509990585447
 20
1156.625718222183
 30
0.0
 11
1120.283490789533
 21
1146.625718222185
 31
0.0
  0
LINE
  5
1AC
330
A3
100
AcDbEntity
  8
0 - Systemaufbauten
  6
Continuous
 62
     7
370
     0
100
AcDbLine
 10
1120.283490789533
 20
1146.625718222185
 30
0.0
 11
1108.736490381362
 21
1146.625718222185
 31
0.0
  0
LINE
  5
1AD
330
A3
100
AcDbEntity
  8
0 - Systemaufbauten
  6
Continuous
 62
     7
370
     0
100
AcDbLine
 10
1128.73649038136
 20
1146.625718222185
 30
0.0
 11
1134.509990585447
 21
1156.625718222183
 31
0.0
  0
LINE
  5
1AE
330
A3
100
AcDbEntity
  8
0 - Systemaufbauten
  6
Continuous
 62
     7
370
     0
100
AcDbLine
 10
1134.509990585447
 20
1156.625718222183
 30
0.0
 11
1140.283490789531
 21
1146.625718222185
 31
0.0
  0
LINE
  5
1AF
330
A3
100
AcDbEntity
  8
0 - Systemaufbauten
  6
Continuous
 62
     7
370
     0
100
AcDbLine
 10
1140.283490789531
 20
1146.625718222185
 30
0.0
 11
1128.73649038136
 21
1146.625718222185
 31
0.0
  0
LINE
  5
1B0
330
A3
100
AcDbEntity
  8
0 - Systemaufbauten
  6
Continuous
 62
     7
370
     0
100
AcDbLine
 10
1148.736490381359
 20
1146.625718222185
 30
0.0
 11
1154.509990585445
 21
1156.625718222183
 31
0.0
  0
LINE
  5
1B1
330
A3
100
AcDbEntity
  8
0 - Systemaufbauten
  6
Continuous
 62
     7
370
     0
100
AcDbLine
 10
1154.509990585445
 20
1156.625718222183
 30
0.0
 11
1160.283490789531
 21
1146.625718222185
 31
0.0
  0
LINE
  5
1B2
330
A3
100
AcDbEntity
  8
0 - Systemaufbauten
  6
Continuous
 62
     7
370
     0
100
AcDbLine
 10
1160.283490789531
 20
1146.625718222185
 30
0.0
 11
1148.736490381359
 21
1146.625718222185
 31
0.0
  0
LINE
  5
1B3
330
A3
100
AcDbEntity
  8
0 - Systemaufbauten
  6
Continuous
 62
     7
370
     0
100
AcDbLine
 10
1168.736490381359
 20
1146.625718222185
 30
0.0
 11
1174.509990585443
 21
1156.625718222183
 31
0.0
  0
LINE
  5
1B4
330
A3
100
AcDbEntity
  8
0 - Systemaufbauten
  6
Continuous
 62
     7
370
     0
100
AcDbLine
 10
1174.509990585443
 20
1156.625718222183
 30
0.0
 11
1180.283490789529
 21
1146.625718222185
 31
0.0
  0
LINE
  5
1B5
330
A3
100
AcDbEntity
  8
0 - Systemaufbauten
  6
Continuous
 62
     7
370
     0
100
AcDbLine
 10
1180.283490789529
 20
1146.625718222185
 30
0.0
 11
1168.736490381359
 21
1146.625718222185
 31
0.0
  0
LINE
  5
1B6
330
A3
100
AcDbEntity
  8
0 - Systemaufbauten
  6
Continuous
 62
     7
370
     0
100
AcDbLine
 10
1188.736490381357
 20
1146.625718222185
 30
0.0
 11
1194.509990585443
 21
1156.625718222183
 31
0.0
  0
LINE
  5
1B7
330
A3
100
AcDbEntity
  8
0 - Systemaufbauten
  6
Continuous
 62
     7
370
     0
100
AcDbLine
 10
1194.509990585443
 20
1156.625718222183
 30
0.0
 11
1200.283490789528
 21
1146.625718222185
 31
0.0
  0
LINE
  5
1B8
330
A3
100
AcDbEntity
  8
0 - Systemaufbauten
  6
Continuous
 62
     7
370
     0
100
AcDbLine
 10
1200.283490789528
 20
1146.625718222185
 30
0.0
 11
1188.736490381357
 21
1146.625718222185
 31
0.0
  0
LINE
  5
1B9
330
A3
100
AcDbEntity
  8
0 - Systemaufbauten
  6
Continuous
 62
     7
370
     0
100
AcDbLine
 10
1208.736490381355
 20
1146.625718222185
 30
0.0
 11
1214.509990585441
 21
1156.625718222183
 31
0.0
  0
LINE
  5
1BA
330
A3
100
AcDbEntity
  8
0 - Systemaufbauten
  6
Continuous
 62
     7
370
     0
100
AcDbLine
 10
1214.509990585441
 20
1156.625718222183
 30
0.0
 11
1220.283490789528
 21
1146.625718222185
 31
0.0
  0
LINE
  5
1BB
330
A3
100
AcDbEntity
  8
0 - Systemaufbauten
  6
Continuous
 62
     7
370
     0
100
AcDbLine
 10
1220.283490789528
 20
1146.625718222185
 30
0.0
 11
1208.736490381355
 21
1146.625718222185
 31
0.0
  0
LINE
  5
1BC
330
A3
100
AcDbEntity
  8
0 - Systemaufbauten
  6
Continuous
 62
     7
370
     0
100
AcDbLine
 10
1228.736490381355
 20
1146.625718222185
 30
0.0
 11
1234.509990585439
 21
1156.625718222183
 31
0.0
  0
LINE
  5
1BD
330
A3
100
AcDbEntity
  8
0 - Systemaufbauten
  6
Continuous
 62
     7
370
     0
100
AcDbLine
 10
1234.509990585439
 20
1156.625718222183
 30
0.0
 11
1240.283490789526
 21
1146.625718222185
 31
0.0
  0
LINE
  5
1BE
330
A3
100
AcDbEntity
  8
0 - Systemaufbauten
  6
Continuous
 62
     7
370
     0
100
AcDbLine
 10
1240.283490789526
 20
1146.625718222185
 30
0.0
 11
1228.736490381355
 21
1146.625718222185
 31
0.0
  0
LINE
  5
1BF
330
A3
100
AcDbEntity
  8
0 - Systemaufbauten
  6
Continuous
 62
     7
370
     0
100
AcDbLine
 10
1248.736490381353
 20
1146.625718222185
 30
0.0
 11
1254.509990585439
 21
1156.625718222183
 31
0.0
  0
LINE
  5
1C0
330
A3
100
AcDbEntity
  8
0 - Systemaufbauten
  6
Continuous
 62
     7
370
     0
100
AcDbLine
 10
1254.509990585439
 20
1156.625718222183
 30
0.0
 11
1260.283490789524
 21
1146.625718222185
 31
0.0
  0
LINE
  5
1C1
330
A3
100
AcDbEntity
  8
0 - Systemaufbauten
  6
Continuous
 62
     7
370
     0
100
AcDbLine
 10
1260.283490789524
 20
1146.625718222185
 30
0.0
 11
1248.736490381353
 21
1146.625718222185
 31
0.0
  0
LINE
  5
1C2
330
A3
100
AcDbEntity
  8
0 - Systemaufbauten
  6
Continuous
 62
     7
370
     0
100
AcDbLine
 10
1268.736490381351
 20
1146.625718222185
 30
0.0
 11
1274.509990585438
 21
1156.625718222183
 31
0.0
  0
LINE
  5
1C3
330
A3
100
AcDbEntity
  8
0 - Systemaufbauten
  6
Continuous
 62
     7
370
     0
100
AcDbLine
 10
1274.509990585438
 20
1156.625718222183
 30
0.0
 11
1280.283490789524
 21
1146.625718222185
 31
0.0
  0
LINE
  5
1C4
330
A3
100
AcDbEntity
  8
0 - Systemaufbauten
  6
Continuous
 62
     7
370
     0
100
AcDbLine
 10
1280.283490789524
 20
1146.625718222185
 30
0.0
 11
1268.736490381351
 21
1146.625718222185
 31
0.0
  0
LINE
  5
1C5
330
A3
100
AcDbEntity
  8
0 - Systemaufbauten
  6
Continuous
 62
     7
370
     0
100
AcDbLine
 10
1288.736490381351
 20
1146.625718222185
 30
0.0
 11
1294.509990585438
 21
1156.625718222183
 31
0.0
  0
LINE
  5
1C6
330
A3
100
AcDbEntity
  8
0 - Systemaufbauten
  6
Continuous
 62
     7
370
     0
100
AcDbLine
 10
1294.509990585438
 20
1156.625718222183
 30
0.0
 11
1300.283490789522
 21
1146.625718222185
 31
0.0
  0
LINE
  5
1C7
330
A3
100
AcDbEntity
  8
0 - Systemaufbauten
  6
Continuous
 62
     7
370
     0
100
AcDbLine
 10
1300.283490789522
 20
1146.625718222185
 30
0.0
 11
1288.736490381351
 21
1146.625718222185
 31
0.0
  0
LINE
  5
1C8
330
A3
100
AcDbEntity
  8
0 - Systemaufbauten
  6
Continuous
 62
     7
370
     0
100
AcDbLine
 10
1308.73649038135
 20
1146.625718222185
 30
0.0
 11
1314.509990585436
 21
1156.625718222183
 31
0.0
  0
LINE
  5
1C9
330
A3
100
AcDbEntity
  8
0 - Systemaufbauten
  6
Continuous
 62
     7
370
     0
100
AcDbLine
 10
1314.509990585436
 20
1156.625718222183
 30
0.0
 11
1320.283490789522
 21
1146.625718222185
 31
0.0
  0
LINE
  5
1CA
330
A3
100
AcDbEntity
  8
0 - Systemaufbauten
  6
Continuous
 62
     7
370
     0
100
AcDbLine
 10
1320.283490789522
 20
1146.625718222185
 30
0.0
 11
1308.73649038135
 21
1146.625718222185
 31
0.0
  0
LINE
  5
1CB
330
A3
100
AcDbEntity
  8
0 - Systemaufbauten
  6
Continuous
 62
     7
370
     0
100
AcDbLine
 10
1328.73649038135
 20
1146.625718222185
 30
0.0
 11
1334.509990585434
 21
1156.625718222183
 31
0.0
  0
LINE
  5
1CC
330
A3
100
AcDbEntity
  8
0 - Systemaufbauten
  6
Continuous
 62
     7
370
     0
100
AcDbLine
 10
1334.509990585434
 20
1156.625718222183
 30
0.0
 11
1340.28349078952
 21
1146.625718222185
 31
0.0
  0
LINE
  5
1CD
330
A3
100
AcDbEntity
  8
0 - Systemaufbauten
  6
Continuous
 62
     7
370
     0
100
AcDbLine
 10
1340.28349078952
 20
1146.625718222185
 30
0.0
 11
1328.73649038135
 21
1146.625718222185
 31
0.0
  0
LINE
  5
1CE
330
A3
100
AcDbEntity
  8
0 - Systemaufbauten
  6
Continuous
 62
     7
370
     0
100
AcDbLine
 10
1348.736490381348
 20
1146.625718222185
 30
0.0
 11
1354.509990585434
 21
1156.625718222183
 31
0.0
  0
LINE
  5
1CF
330
A3
100
AcDbEntity
  8
0 - Systemaufbauten
  6
Continuous
 62
     7
370
     0
100
AcDbLine
 10
1354.509990585434
 20
1156.625718222183
 30
0.0
 11
1360.283490789519
 21
1146.625718222185
 31
0.0
  0
LINE
  5
1D0
330
A3
100
AcDbEntity
  8
0 - Systemaufbauten
  6
Continuous
 62
     7
370
     0
100
AcDbLine
 10
1360.283490789519
 20
1146.625718222185
 30
0.0
 11
1348.736490381348
 21
1146.625718222185
 31
0.0
  0
LINE
  5
1D1
330
A3
100
AcDbEntity
  8
0 - Systemaufbauten
  6
Continuous
 62
     7
370
     0
100
AcDbLine
 10
1368.736490381346
 20
1146.625718222185
 30
0.0
 11
1374.509990585432
 21
1156.625718222183
 31
0.0
  0
LINE
  5
1D2
330
A3
100
AcDbEntity
  8
0 - Systemaufbauten
  6
Continuous
 62
     7
370
     0
100
AcDbLine
 10
1374.509990585432
 20
1156.625718222183
 30
0.0
 11
1380.283490789519
 21
1146.625718222185
 31
0.0
  0
LINE
  5
1D3
330
A3
100
AcDbEntity
  8
0 - Systemaufbauten
  6
Continuous
 62
     7
370
     0
100
AcDbLine
 10
1380.283490789519
 20
1146.625718222185
 30
0.0
 11
1368.736490381346
 21
1146.625718222185
 31
0.0
  0
LINE
  5
1D4
330
A3
100
AcDbEntity
  8
0 - Systemaufbauten
  6
Continuous
 62
     7
370
     0
100
AcDbLine
 10
1388.736490381346
 20
1146.625718222185
 30
0.0
 11
1394.50999058543
 21
1156.625718222183
 31
0.0
  0
LINE
  5
1D5
330
A3
100
AcDbEntity
  8
0 - Systemaufbauten
  6
Continuous
 62
     7
370
     0
100
AcDbLine
 10
1394.50999058543
 20
1156.625718222183
 30
0.0
 11
1400.283490789517
 21
1146.625718222185
 31
0.0
  0
LINE
  5
1D6
330
A3
100
AcDbEntity
  8
0 - Systemaufbauten
  6
Continuous
 62
     7
370
     0
100
AcDbLine
 10
1400.283490789517
 20
1146.625718222185
 30
0.0
 11
1388.736490381346
 21
1146.625718222185
 31
0.0
  0
LINE
  5
1D7
330
A3
100
AcDbEntity
  8
0 - Systemaufbauten
  6
Continuous
 62
     7
370
     0
100
AcDbLine
 10
1408.736490381344
 20
1146.625718222185
 30
0.0
 11
1414.50999058543
 21
1156.625718222183
 31
0.0
  0
LINE
  5
1D8
330
A3
100
AcDbEntity
  8
0 - Systemaufbauten
  6
Continuous
 62
     7
370
     0
100
AcDbLine
 10
1414.50999058543
 20
1156.625718222183
 30
0.0
 11
1420.283490789517
 21
1146.625718222185
 31
0.0
  0
LINE
  5
1D9
330
A3
100
AcDbEntity
  8
0 - Systemaufbauten
  6
Continuous
 62
     7
370
     0
100
AcDbLine
 10
1420.283490789517
 20
1146.625718222185
 30
0.0
 11
1408.736490381344
 21
1146.625718222185
 31
0.0
  0
LINE
  5
1DA
330
A3
100
AcDbEntity
  8
0 - Systemaufbauten
  6
Continuous
 62
     7
370
     0
100
AcDbLine
 10
1428.736490381344
 20
1146.625718222185
 30
0.0
 11
1434.509990585429
 21
1156.625718222183
 31
0.0
  0
LINE
  5
1DB
330
A3
100
AcDbEntity
  8
0 - Systemaufbauten
  6
Continuous
 62
     7
370
     0
100
AcDbLine
 10
1434.509990585429
 20
1156.625718222183
 30
0.0
 11
1440.283490789515
 21
1146.625718222185
 31
0.0
  0
LINE
  5
1DC
330
A3
100
AcDbEntity
  8
0 - Systemaufbauten
  6
Continuous
 62
     7
370
     0
100
AcDbLine
 10
1440.283490789515
 20
1146.625718222185
 30
0.0
 11
1428.736490381344
 21
1146.625718222185
 31
0.0
  0
LINE
  5
1DD
330
A3
100
AcDbEntity
  8
0 - Systemaufbauten
  6
Continuous
 62
     7
370
     0
100
AcDbLine
 10
1448.736490381342
 20
1146.625718222185
 30
0.0
 11
1454.509990585429
 21
1156.625718222183
 31
0.0
  0
LINE
  5
1DE
330
A3
100
AcDbEntity
  8
0 - Systemaufbauten
  6
Continuous
 62
     7
370
     0
100
AcDbLine
 10
1454.509990585429
 20
1156.625718222183
 30
0.0
 11
1460.283490789513
 21
1146.625718222185
 31
0.0
  0
LINE
  5
1DF
330
A3
100
AcDbEntity
  8
0 - Systemaufbauten
  6
Continuous
 62
     7
370
     0
100
AcDbLine
 10
1460.283490789513
 20
1146.625718222185
 30
0.0
 11
1448.736490381342
 21
1146.625718222185
 31
0.0
  0
LINE
  5
1E0
330
A3
100
AcDbEntity
  8
0 - Systemaufbauten
  6
Continuous
 62
     7
370
     0
100
AcDbLine
 10
1468.73649038134
 20
1146.625718222185
 30
0.0
 11
1474.509990585427
 21
1156.625718222183
 31
0.0
  0
LINE
  5
1E1
330
A3
100
AcDbEntity
  8
0 - Systemaufbauten
  6
Continuous
 62
     7
370
     0
100
AcDbLine
 10
1474.509990585427
 20
1156.625718222183
 30
0.0
 11
1480.283490789513
 21
1146.625718222185
 31
0.0
  0
LINE
  5
1E2
330
A3
100
AcDbEntity
  8
0 - Systemaufbauten
  6
Continuous
 62
     7
370
     0
100
AcDbLine
 10
1480.283490789513
 20
1146.625718222185
 30
0.0
 11
1468.73649038134
 21
1146.625718222185
 31
0.0
  0
LINE
  5
1E3
330
A3
100
AcDbEntity
  8
0 - Systemaufbauten
  6
Continuous
 62
     7
370
     0
100
AcDbLine
 10
1488.73649038134
 20
1146.625718222185
 30
0.0
 11
1494.509990585425
 21
1156.625718222183
 31
0.0
  0
LINE
  5
1E4
330
A3
100
AcDbEntity
  8
0 - Systemaufbauten
  6
Continuous
 62
     7
370
     0
100
AcDbLine
 10
1494.509990585425
 20
1156.625718222183
 30
0.0
 11
1500.283490789511
 21
1146.625718222185
 31
0.0
  0
LINE
  5
1E5
330
A3
100
AcDbEntity
  8
0 - Systemaufbauten
  6
Continuous
 62
     7
370
     0
100
AcDbLine
 10
1500.283490789511
 20
1146.625718222185
 30
0.0
 11
1488.73649038134
 21
1146.625718222185
 31
0.0
  0
LINE
  5
1E6
330
A3
100
AcDbEntity
  8
0 - Systemaufbauten
  6
Continuous
 62
     7
370
     0
100
AcDbLine
 10
1508.736490381339
 20
1146.625718222185
 30
0.0
 11
1514.509990585425
 21
1156.625718222183
 31
0.0
  0
LINE
  5
1E7
330
A3
100
AcDbEntity
  8
0 - Systemaufbauten
  6
Continuous
 62
     7
370
     0
100
AcDbLine
 10
1514.509990585425
 20
1156.625718222183
 30
0.0
 11
1520.283490789509
 21
1146.625718222185
 31
0.0
  0
LINE
  5
1E8
330
A3
100
AcDbEntity
  8
0 - Systemaufbauten
  6
Continuous
 62
     7
370
     0
100
AcDbLine
 10
1520.283490789509
 20
1146.625718222185
 30
0.0
 11
1508.736490381339
 21
1146.625718222185
 31
0.0
  0
LINE
  5
1E9
330
A3
100
AcDbEntity
  8
0 - Systemaufbauten
  6
Continuous
 62
     7
370
     0
100
AcDbLine
 10
1528.736490381337
 20
1146.625718222185
 30
0.0
 11
1534.509990585423
 21
1156.625718222183
 31
0.0
  0
LINE
  5
1EA
330
A3
100
AcDbEntity
  8
0 - Systemaufbauten
  6
Continuous
 62
     7
370
     0
100
AcDbLine
 10
1534.509990585423
 20
1156.625718222183
 30
0.0
 11
1540.283490789509
 21
1146.625718222185
 31
0.0
  0
LINE
  5
1EB
330
A3
100
AcDbEntity
  8
0 - Systemaufbauten
  6
Continuous
 62
     7
370
     0
100
AcDbLine
 10
1540.283490789509
 20
1146.625718222185
 30
0.0
 11
1528.736490381337
 21
1146.625718222185
 31
0.0
  0
LINE
  5
1EC
330
A3
100
AcDbEntity
  8
0 - Systemaufbauten
  6
Continuous
 62
     7
370
     0
100
AcDbLine
 10
1548.736490381337
 20
1146.625718222185
 30
0.0
 11
1554.509990585421
 21
1156.625718222183
 31
0.0
  0
LINE
  5
1ED
330
A3
100
AcDbEntity
  8
0 - Systemaufbauten
  6
Continuous
 62
     7
370
     0
100
AcDbLine
 10
1554.509990585421
 20
1156.625718222183
 30
0.0
 11
1560.283490789508
 21
1146.625718222185
 31
0.0
  0
LINE
  5
1EE
330
A3
100
AcDbEntity
  8
0 - Systemaufbauten
  6
Continuous
 62
     7
370
     0
100
AcDbLine
 10
1560.283490789508
 20
1146.625718222185
 30
0.0
 11
1548.736490381337
 21
1146.625718222185
 31
0.0
  0
LINE
  5
1EF
330
A3
100
AcDbEntity
  8
0 - Systemaufbauten
  6
Continuous
 62
     7
370
     0
100
AcDbLine
 10
1568.736490381335
 20
1146.625718222185
 30
0.0
 11
1574.509990585421
 21
1156.625718222183
 31
0.0
  0
LINE
  5
1F0
330
A3
100
AcDbEntity
  8
0 - Systemaufbauten
  6
Continuous
 62
     7
370
     0
100
AcDbLine
 10
1574.509990585421
 20
1156.625718222183
 30
0.0
 11
1580.283490789506
 21
1146.625718222185
 31
0.0
  0
LINE
  5
1F1
330
A3
100
AcDbEntity
  8
0 - Systemaufbauten
  6
Continuous
 62
     7
370
     0
100
AcDbLine
 10
1580.283490789506
 20
1146.625718222185
 30
0.0
 11
1568.736490381335
 21
1146.625718222185
 31
0.0
  0
LINE
  5
1F2
330
A3
100
AcDbEntity
  8
0 - Systemaufbauten
  6
Continuous
 62
     7
370
     0
100
AcDbLine
 10
1588.736490381333
 20
1146.625718222185
 30
0.0
 11
1594.509990585419
 21
1156.625718222183
 31
0.0
  0
LINE
  5
1F3
330
A3
100
AcDbEntity
  8
0 - Systemaufbauten
  6
Continuous
 62
     7
370
     0
100
AcDbLine
 10
1594.509990585419
 20
1156.625718222183
 30
0.0
 11
1600.283490789506
 21
1146.625718222185
 31
0.0
  0
LINE
  5
1F4
330
A3
100
AcDbEntity
  8
0 - Systemaufbauten
  6
Continuous
 62
     7
370
     0
100
AcDbLine
 10
1600.283490789506
 20
1146.625718222185
 30
0.0
 11
1588.736490381333
 21
1146.625718222185
 31
0.0
  0
LINE
  5
1F5
330
A3
100
AcDbEntity
  8
0 - Systemaufbauten
  6
Continuous
 62
     7
370
     0
100
AcDbLine
 10
1608.736490381333
 20
1146.625718222185
 30
0.0
 11
1614.509990585419
 21
1156.625718222183
 31
0.0
  0
LINE
  5
1F6
330
A3
100
AcDbEntity
  8
0 - Systemaufbauten
  6
Continuous
 62
     7
370
     0
100
AcDbLine
 10
1614.509990585419
 20
1156.625718222183
 30
0.0
 11
1620.283490789504
 21
1146.625718222185
 31
0.0
  0
LINE
  5
1F7
330
A3
100
AcDbEntity
  8
0 - Systemaufbauten
  6
Continuous
 62
     7
370
     0
100
AcDbLine
 10
1620.283490789504
 20
1146.625718222185
 30
0.0
 11
1608.736490381333
 21
1146.625718222185
 31
0.0
  0
LINE
  5
1F8
330
A3
100
AcDbEntity
  8
0 - Systemaufbauten
  6
Continuous
 62
     7
370
     0
100
AcDbLine
 10
1628.736490381331
 20
1146.625718222185
 30
0.0
 11
1634.509990585418
 21
1156.625718222183
 31
0.0
  0
LINE
  5
1F9
330
A3
100
AcDbEntity
  8
0 - Systemaufbauten
  6
Continuous
 62
     7
370
     0
100
AcDbLine
 10
1634.509990585418
 20
1156.625718222183
 30
0.0
 11
1640.283490789504
 21
1146.625718222185
 31
0.0
  0
LINE
  5
1FA
330
A3
100
AcDbEntity
  8
0 - Systemaufbauten
  6
Continuous
 62
     7
370
     0
100
AcDbLine
 10
1640.283490789504
 20
1146.625718222185
 30
0.0
 11
1628.736490381331
 21
1146.625718222185
 31
0.0
  0
LINE
  5
1FB
330
A3
100
AcDbEntity
  8
0 - Systemaufbauten
  6
Continuous
 62
     7
370
     0
100
AcDbLine
 10
1648.736490381331
 20
1146.625718222185
 30
0.0
 11
1654.509990585416
 21
1156.625718222183
 31
0.0
  0
LINE
  5
1FC
330
A3
100
AcDbEntity
  8
0 - Systemaufbauten
  6
Continuous
 62
     7
370
     0
100
AcDbLine
 10
1654.509990585416
 20
1156.625718222183
 30
0.0
 11
1660.283490789502
 21
1146.625718222185
 31
0.0
  0
LINE
  5
1FD
330
A3
100
AcDbEntity
  8
0 - Systemaufbauten
  6
Continuous
 62
     7
370
     0
100
AcDbLine
 10
1660.283490789502
 20
1146.625718222185
 30
0.0
 11
1648.736490381331
 21
1146.625718222185
 31
0.0
  0
LINE
  5
1FE
330
A3
100
AcDbEntity
  8
0 - Systemaufbauten
  6
Continuous
 62
     7
370
     0
100
AcDbLine
 10
1668.73649038133
 20
1146.625718222185
 30
0.0
 11
1674.509990585416
 21
1156.625718222183
 31
0.0
  0
LINE
  5
1FF
330
A3
100
AcDbEntity
  8
0 - Systemaufbauten
  6
Continuous
 62
     7
370
     0
100
AcDbLine
 10
1674.509990585416
 20
1156.625718222183
 30
0.0
 11
1680.2834907895
 21
1146.625718222185
 31
0.0
  0
LINE
  5
200
330
A3
100
AcDbEntity
  8
0 - Systemaufbauten
  6
Continuous
 62
     7
370
     0
100
AcDbLine
 10
1680.2834907895
 20
1146.625718222185
 30
0.0
 11
1668.73649038133
 21
1146.625718222185
 31
0.0
  0
LINE
  5
201
330
A3
100
AcDbEntity
  8
0 - Systemaufbauten
  6
Continuous
 62
     7
370
     0
100
AcDbLine
 10
1688.736490381328
 20
1146.625718222185
 30
0.0
 11
1694.509990585414
 21
1156.625718222183
 31
0.0
  0
LINE
  5
202
330
A3
100
AcDbEntity
  8
0 - Systemaufbauten
  6
Continuous
 62
     7
370
     0
100
AcDbLine
 10
1694.509990585414
 20
1156.625718222183
 30
0.0
 11
1700.2834907895
 21
1146.625718222185
 31
0.0
  0
LINE
  5
203
330
A3
100
AcDbEntity
  8
0 - Systemaufbauten
  6
Continuous
 62
     7
370
     0
100
AcDbLine
 10
1700.2834907895
 20
1146.625718222185
 30
0.0
 11
1688.736490381328
 21
1146.625718222185
 31
0.0
  0
LINE
  5
204
330
A3
100
AcDbEntity
  8
0 - Systemaufbauten
  6
Continuous
 62
     7
370
     0
100
AcDbLine
 10
1708.736490381328
 20
1146.625718222185
 30
0.0
 11
1714.509990585412
 21
1156.625718222183
 31
0.0
  0
LINE
  5
205
330
A3
100
AcDbEntity
  8
0 - Systemaufbauten
  6
Continuous
 62
     7
370
     0
100
AcDbLine
 10
1714.509990585412
 20
1156.625718222183
 30
0.0
 11
1720.283490789499
 21
1146.625718222185
 31
0.0
  0
LINE
  5
206
330
A3
100
AcDbEntity
  8
0 - Systemaufbauten
  6
Continuous
 62
     7
370
     0
100
AcDbLine
 10
1720.283490789499
 20
1146.625718222185
 30
0.0
 11
1708.736490381328
 21
1146.625718222185
 31
0.0
  0
LINE
  5
207
330
A3
100
AcDbEntity
  8
0 - Systemaufbauten
  6
Continuous
 62
     7
370
     0
100
AcDbLine
 10
1728.736490381326
 20
1146.625718222185
 30
0.0
 11
1734.509990585412
 21
1156.625718222183
 31
0.0
  0
LINE
  5
208
330
A3
100
AcDbEntity
  8
0 - Systemaufbauten
  6
Continuous
 62
     7
370
     0
100
AcDbLine
 10
1734.509990585412
 20
1156.625718222183
 30
0.0
 11
1740.283490789499
 21
1146.625718222185
 31
0.0
  0
LINE
  5
209
330
A3
100
AcDbEntity
  8
0 - Systemaufbauten
  6
Continuous
 62
     7
370
     0
100
AcDbLine
 10
1740.283490789499
 20
1146.625718222185
 30
0.0
 11
1728.736490381326
 21
1146.625718222185
 31
0.0
  0
LINE
  5
20A
330
A3
100
AcDbEntity
  8
0 - Systemaufbauten
  6
Continuous
 62
     7
370
     0
100
AcDbLine
 10
1748.736490381326
 20
1146.625718222185
 30
0.0
 11
1754.50999058541
 21
1156.625718222183
 31
0.0
  0
LINE
  5
20B
330
A3
100
AcDbEntity
  8
0 - Systemaufbauten
  6
Continuous
 62
     7
370
     0
100
AcDbLine
 10
1754.50999058541
 20
1156.625718222183
 30
0.0
 11
1760.283490789497
 21
1146.625718222185
 31
0.0
  0
LINE
  5
20C
330
A3
100
AcDbEntity
  8
0 - Systemaufbauten
  6
Continuous
 62
     7
370
     0
100
AcDbLine
 10
1760.283490789497
 20
1146.625718222185
 30
0.0
 11
1748.736490381326
 21
1146.625718222185
 31
0.0
  0
LINE
  5
20D
330
A3
100
AcDbEntity
  8
0 - Systemaufbauten
  6
Continuous
 62
     7
370
     0
100
AcDbLine
 10
1768.736490381324
 20
1146.625718222185
 30
0.0
 11
1774.50999058541
 21
1156.625718222183
 31
0.0
  0
LINE
  5
20E
330
A3
100
AcDbEntity
  8
0 - Systemaufbauten
  6
Continuous
 62
     7
370
     0
100
AcDbLine
 10
1774.50999058541
 20
1156.625718222183
 30
0.0
 11
1780.283490789495
 21
1146.625718222185
 31
0.0
  0
LINE
  5
20F
330
A3
100
AcDbEntity
  8
0 - Systemaufbauten
  6
Continuous
 62
     7
370
     0
100
AcDbLine
 10
1780.283490789495
 20
1146.625718222185
 30
0.0
 11
1768.736490381324
 21
1146.625718222185
 31
0.0
  0
LINE
  5
210
330
A3
100
AcDbEntity
  8
0 - Systemaufbauten
  6
Continuous
 62
     7
370
     0
100
AcDbLine
 10
1788.736490381322
 20
1146.625718222185
 30
0.0
 11
1794.509990585409
 21
1156.625718222183
 31
0.0
  0
LINE
  5
211
330
A3
100
AcDbEntity
  8
0 - Systemaufbauten
  6
Continuous
 62
     7
370
     0
100
AcDbLine
 10
1794.509990585409
 20
1156.625718222183
 30
0.0
 11
1800.283490789495
 21
1146.625718222185
 31
0.0
  0
LINE
  5
212
330
A3
100
AcDbEntity
  8
0 - Systemaufbauten
  6
Continuous
 62
     7
370
     0
100
AcDbLine
 10
1800.283490789495
 20
1146.625718222185
 30
0.0
 11
1788.736490381322
 21
1146.625718222185
 31
0.0
  0
LINE
  5
213
330
A3
100
AcDbEntity
  8
0 - Systemaufbauten
  6
Continuous
 62
     7
370
     0
100
AcDbLine
 10
1808.736490381322
 20
1146.625718222185
 30
0.0
 11
1814.509990585407
 21
1156.625718222183
 31
0.0
  0
LINE
  5
214
330
A3
100
AcDbEntity
  8
0 - Systemaufbauten
  6
Continuous
 62
     7
370
     0
100
AcDbLine
 10
1814.509990585407
 20
1156.625718222183
 30
0.0
 11
1820.283490789493
 21
1146.625718222185
 31
0.0
  0
LINE
  5
215
330
A3
100
AcDbEntity
  8
0 - Systemaufbauten
  6
Continuous
 62
     7
370
     0
100
AcDbLine
 10
1820.283490789493
 20
1146.625718222185
 30
0.0
 11
1808.736490381322
 21
1146.625718222185
 31
0.0
  0
LINE
  5
216
330
A3
100
AcDbEntity
  8
0 - Systemaufbauten
  6
Continuous
 62
     7
370
     0
100
AcDbLine
 10
1828.73649038132
 20
1146.625718222185
 30
0.0
 11
1833.736490381362
 21
1155.285975991819
 31
0.0
  0
LINE
  5
217
330
A3
100
AcDbEntity
  8
0 - Systemaufbauten
  6
Continuous
 62
     7
370
     0
100
AcDbLine
 10
1833.736490381362
 20
1146.625718222185
 30
0.0
 11
1828.73649038132
 21
1146.625718222185
 31
0.0
  0
HATCH
  5
218
330
A3
100
AcDbEntity
  8
0 - Systemaufbauten
  6
Continuous
 62
     7
370
     0
100
AcDbHatch
 10
0.0
 20
0.0
 30
0.0
210
0.0
220
0.0
230
1.0
  2
ANSI31
 70
     0
 71
     0
 91
        1
 92
        0
 93
        4
 72
     1
 10
333.7364903813641
 20
1226.625718222185
 11
1078.736490381363
 21
1226.625718222185
 72
     1
 10
1078.736490381363
 20
1226.625718222185
 11
1078.736490381363
 21
1166.625718222183
 72
     1
 10
1078.736490381363
 20
1166.625718222183
 11
333.7364903813641
 21
1166.625718222183
 72
     1
 10
333.7364903813641
 20
1166.625718222183
 11
333.7364903813641
 21
1226.625718222185
 97
        0
 75
     0
 76
     1
 52
0.0
 41
250.0
 77
     0
 78
     1
 53
45.0
 43
-7063.527487660003
 44
-7606.14266526963
 45
-22.0970869120796
 46
22.0970869120796
 79
     0
 98
        0
  0
HATCH
  5
219
330
A3
100
AcDbEntity
  8
0 - Systemaufbauten
  6
Continuous
 62
     7
370
     0
100
AcDbHatch
 10
0.0
 20
0.0
 30
0.0
210
0.0
220
0.0
230
1.0
  2
SOLID
 70
     1
 71
     0
 91
        1
 92
        0
 93
        4
 72
     1
 10
468.7364903813641
 20
1232.625718222185
 11
473.7364903813632
 21
1232.625718222185
 72
     1
 10
473.7364903813632
 20
1232.625718222185
 11
473.7364903813632
 21
1226.625718222185
 72
     1
 10
473.7364903813632
 20
1226.625718222185
 11
468.7364903813641
 21
1226.625718222185
 72
     1
 10
468.7364903813641
 20
1226.625718222185
 11
468.7364903813641
 21
1232.625718222185
 97
        0
 75
     0
 76
     1
 98
        0
  0
HATCH
  5
21A
330
A3
100
AcDbEntity
  8
0 - Systemaufbauten
  6
Continuous
 62
     7
370
     0
100
AcDbHatch
 10
0.0
 20
0.0
 30
0.0
210
0.0
220
0.0
230
1.0
  2
SOLID
 70
     1
 71
     0
 91
        1
 92
        0
 93
        4
 72
     1
 10
873.7364903813632
 20
1232.625718222185
 11
878.7364903813632
 21
1232.625718222185
 72
     1
 10
878.7364903813632
 20
1232.625718222185
 11
878.7364903813632
 21
1226.625718222185
 72
     1
 10
878.7364903813632
 20
1226.625718222185
 11
873.7364903813632
 21
1226.625718222185
 72
     1
 10
873.7364903813632
 20
1226.625718222185
 11
873.7364903813632
 21
1232.625718222185
 97
        0
 75
     0
 76
     1
 98
        0
  0
HATCH
  5
21B
330
A3
100
AcDbEntity
  8
0 - Systemaufbauten
  6
Continuous
 62
    30
370
     0
100
AcDbHatch
 10
0.0
 20
0.0
 30
0.0
210
0.0
220
0.0
230
1.0
  2
SOLID
 70
     1
 71
     0
 91
        1
 92
        0
 93
        4
 72
     1
 10
1088.736490381362
 20
1146.625718222185
 11
1833.736490381362
 21
1146.625718222185
 72
     1
 10
1833.736490381362
 20
1146.625718222185
 11
1833.736490381362
 21
1136.625718222185
 72
     1
 10
1833.736490381362
 20
1136.625718222185
 11
1088.736490381362
 21
1136.625718222185
 72
     1
 10
1088.736490381362
 20
1136.625718222185
 11
1088.736490381362
 21
1146.625718222185
 97
        0
 75
     0
 76
     1
 98
        0
  0
HATCH
  5
21C
330
A3
100
AcDbEntity
  8
0 - Systemaufbauten
  6
Continuous
 62
     7
370
     0
100
AcDbHatch
 10
0.0
 20
0.0
 30
0.0
210
0.0
220
0.0
230
1.0
  2
ANSI32
 70
     0
 71
     0
 91
        1
 92
        0
 93
        4
 72
     1
 10
1088.736490381362
 20
1241.625718222185
 11
1288.736490381362
 21
1241.625718222185
 72
     1
 10
1288.736490381362
 20
1241.625718222185
 11
1288.736490381362
 21
1216.625718222185
 72
     1
 10
1288.736490381362
 20
1216.625718222185
 11
1088.736490381362
 21
1216.625718222185
 72
     1
 10
1088.736490381362
 20
1216.625718222185
 11
1088.736490381362
 21
1241.625718222185
 97
        0
 75
     0
 76
     1
 52
0.0
 41
100.0
 77
     0
 78
     2
 53
45.0
 43
-7011.415656466983
 44
-7552.783217176306
 45
-26.51650429449553
 46
26.51650429449554
 79
     0
 53
45.0
 43
-6993.737986966983
 44
-7552.783217176306
 45
-26.51650429449553
 46
26.51650429449554
 79
     0
 98
        0
  0
HATCH
  5
21D
330
A3
100
AcDbEntity
  8
0 - Systemaufbauten
  6
Continuous
 62
     7
370
     0
100
AcDbHatch
 10
0.0
 20
0.0
 30
0.0
210
0.0
220
0.0
230
1.0
  2
ANSI32
 70
     0
 71
     0
 91
        1
 92
        0
 93
        4
 72
     1
 10
1293.736490381362
 20
1241.625718222185
 11
1693.736490381362
 21
1241.625718222185
 72
     1
 10
1693.736490381362
 20
1241.625718222185
 11
1693.736490381362
 21
1216.625718222185
 72
     1
 10
1693.736490381362
 20
1216.625718222185
 11
1293.736490381362
 21
1216.625718222185
 72
     1
 10
1293.736490381362
 20
1216.625718222185
 11
1293.736490381362
 21
1241.625718222185
 97
        0
 75
     0
 76
     1
 52
0.0
 41
100.0
 77
     0
 78
     2
 53
45.0
 43
-7009.365656466984
 44
-7552.783217176306
 45
-26.51650429449553
 46
26.51650429449554
 79
     0
 53
45.0
 43
-6991.687986966984
 44
-7552.783217176306
 45
-26.51650429449553
 46
26.51650429449554
 79
     0
 98
        0
  0
HATCH
  5
21E
330
A3
100
AcDbEntity
  8
0 - Systemaufbauten
  6
Continuous
 62
     7
370
     0
100
AcDbHatch
 10
0.0
 20
0.0
 30
0.0
210
0.0
220
0.0
230
1.0
  2
ANSI32
 70
     0
 71
     0
 91
        1
 92
        0
 93
        4
 72
     1
 10
1698.736490381362
 20
1241.625718222185
 11
1833.736490381362
 21
1241.625718222185
 72
     1
 10
1833.736490381362
 20
1241.625718222185
 11
1833.736490381362
 21
1216.625718222185
 72
     1
 10
1833.736490381362
 20
1216.625718222185
 11
1698.736490381362
 21
1216.625718222185
 72
     1
 10
1698.736490381362
 20
1216.625718222185
 11
1698.736490381362
 21
1241.625718222185
 97
        0
 75
     0
 76
     1
 52
0.0
 41
100.0
 77
     0
 78
     2
 53
45.0
 43
-7005.315656466983
 44
-7552.783217176306
 45
-26.51650429449553
 46
26.51650429449554
 79
     0
 53
45.0
 43
-6987.637986966984
 44
-7552.783217176306
 45
-26.51650429449553
 46
26.51650429449554
 79
     0
 98
        0
  0
HATCH
  5
21F
330
A3
100
AcDbEntity
  8
0 - Systemaufbauten
  6
Continuous
 62
     7
370
     0
100
AcDbHatch
 10
0.0
 20
0.0
 30
0.0
210
0.0
220
0.0
230
1.0
  2
ANSI32
 70
     0
 71
     0
 91
        1
 92
        0
 93
        4
 72
     1
 10
333.7364903813641
 20
1232.625718222185
 11
468.7364903813641
 21
1232.625718222185
 72
     1
 10
468.7364903813641
 20
1232.625718222185
 11
468.7364903813641
 21
1226.625718222185
 72
     1
 10
468.7364903813641
 20
1226.625718222185
 11
333.7364903813641
 21
1226.625718222185
 72
     1
 10
333.7364903813641
 20
1226.625718222185
 11
333.7364903813641
 21
1232.625718222185
 97
        0
 75
     0
 76
     1
 52
0.0
 41
100.0
 77
     0
 78
     2
 53
45.0
 43
-7018.965656466983
 44
-7552.873217176306
 45
-26.51650429449553
 46
26.51650429449554
 79
     0
 53
45.0
 43
-7001.287986966983
 44
-7552.873217176306
 45
-26.51650429449553
 46
26.51650429449554
 79
     0
 98
        0
  0
HATCH
  5
220
330
A3
100
AcDbEntity
  8
0 - Systemaufbauten
  6
Continuous
 62
     7
370
     0
100
AcDbHatch
 10
0.0
 20
0.0
 30
0.0
210
0.0
220
0.0
230
1.0
  2
ANSI32
 70
     0
 71
     0
 91
        1
 92
        0
 93
        4
 72
     1
 10
473.7364903813632
 20
1232.625718222185
 11
873.7364903813632
 21
1232.625718222185
 72
     1
 10
873.7364903813632
 20
1232.625718222185
 11
873.7364903813632
 21
1226.625718222185
 72
     1
 10
873.7364903813632
 20
1226.625718222185
 11
473.7364903813632
 21
1226.625718222185
 72
     1
 10
473.7364903813632
 20
1226.625718222185
 11
473.7364903813632
 21
1232.625718222185
 97
        0
 75
     0
 76
     1
 52
0.0
 41
100.0
 77
     0
 78
     2
 53
45.0
 43
-7017.565656466983
 44
-7552.873217176306
 45
-26.51650429449553
 46
26.51650429449554
 79
     0
 53
45.0
 43
-6999.887986966984
 44
-7552.873217176306
 45
-26.51650429449553
 46
26.51650429449554
 79
     0
 98
        0
  0
HATCH
  5
221
330
A3
100
AcDbEntity
  8
0 - Systemaufbauten
  6
Continuous
 62
     7
370
     0
100
AcDbHatch
 10
0.0
 20
0.0
 30
0.0
210
0.0
220
0.0
230
1.0
  2
ANSI32
 70
     0
 71
     0
 91
        1
 92
        0
 93
        4
 72
     1
 10
878.7364903813632
 20
1232.625718222185
 11
1078.736490381363
 21
1232.625718222185
 72
     1
 10
1078.736490381363
 20
1232.625718222185
 11
1078.736490381363
 21
1226.625718222185
 72
     1
 10
1078.736490381363
 20
1226.625718222185
 11
878.7364903813632
 21
1226.625718222185
 72
     1
 10
878.7364903813632
 20
1226.625718222185
 11
878.7364903813632
 21
1232.625718222185
 97
        0
 75
     0
 76
     1
 52
0.0
 41
100.0
 77
     0
 78
     2
 53
45.0
 43
-7013.515656466983
 44
-7552.873217176306
 45
-26.51650429449553
 46
26.51650429449554
 79
     0
 53
45.0
 43
-6995.837986966983
 44
-7552.873217176306
 45
-26.51650429449553
 46
26.51650429449554
 79
     0
 98
        0
  0
LINE
  5
222
330
A3
100
AcDbEntity
  8
0 - Systemaufbauten
  6
Continuous
 62
     7
370
     0
100
AcDbLine
 10
1099.796490592363
 20
1179.87571750693
 30
0.0
 11
1100.166491267685
 21
1180.245718182252
 31
0.0
  0
LINE
  5
223
330
A3
100
AcDbEntity
  8
0 - Systemaufbauten
  6
Continuous
 62
     7
370
     0
100
AcDbLine
 10
1199.796490592363
 20
1179.87571750693
 30
0.0
 11
1200.166491267685
 21
1180.245718182252
 31
0.0
  0
LINE
  5
224
330
A3
100
AcDbEntity
  8
0 - Systemaufbauten
  6
Continuous
 62
     7
370
     0
100
AcDbLine
 10
1299.796490592363
 20
1179.87571750693
 30
0.0
 11
1300.166491267685
 21
1180.245718182252
 31
0.0
  0
LINE
  5
225
330
A3
100
AcDbEntity
  8
0 - Systemaufbauten
  6
Continuous
 62
     7
370
     0
100
AcDbLine
 10
1399.796490592363
 20
1179.87571750693
 30
0.0
 11
1400.166491267687
 21
1180.245718182252
 31
0.0
  0
LINE
  5
226
330
A3
100
AcDbEntity
  8
0 - Systemaufbauten
  6
Continuous
 62
     7
370
     0
100
AcDbLine
 10
1499.796490592363
 20
1179.87571750693
 30
0.0
 11
1500.166491267687
 21
1180.245718182252
 31
0.0
  0
LINE
  5
227
330
A3
100
AcDbEntity
  8
0 - Systemaufbauten
  6
Continuous
 62
     7
370
     0
100
AcDbLine
 10
1599.796490592366
 20
1179.87571750693
 30
0.0
 11
1600.166491267687
 21
1180.245718182252
 31
0.0
  0
LINE
  5
228
330
A3
100
AcDbEntity
  8
0 - Systemaufbauten
  6
Continuous
 62
     7
370
     0
100
AcDbLine
 10
1699.796490592366
 20
1179.87571750693
 30
0.0
 11
1700.166491267687
 21
1180.245718182252
 31
0.0
  0
LINE
  5
229
330
A3
100
AcDbEntity
  8
0 - Systemaufbauten
  6
Continuous
 62
     7
370
     0
100
AcDbLine
 10
1799.796490592366
 20
1179.87571750693
 30
0.0
 11
1800.166491267687
 21
1180.245718182252
 31
0.0
  0
LINE
  5
22A
330
A3
100
AcDbEntity
  8
0 - Systemaufbauten
  6
Continuous
 62
     7
370
     0
100
AcDbLine
 10
1100.166490150096
 20
1180.245719299837
 30
0.0
 11
1100.226490420701
 21
1179.135719881579
 31
0.0
  0
LINE
  5
22B
330
A3
100
AcDbEntity
  8
0 - Systemaufbauten
  6
Continuous
 62
     7
370
     0
100
AcDbLine
 10
1200.166490150096
 20
1180.245719299837
 30
0.0
 11
1200.226490420701
 21
1179.135719881579
 31
0.0
  0
LINE
  5
22C
330
A3
100
AcDbEntity
  8
0 - Systemaufbauten
  6
Continuous
 62
     7
370
     0
100
AcDbLine
 10
1300.166490150096
 20
1180.245719299837
 30
0.0
 11
1300.226490420701
 21
1179.135719881579
 31
0.0
  0
LINE
  5
22D
330
A3
100
AcDbEntity
  8
0 - Systemaufbauten
  6
Continuous
 62
     7
370
     0
100
AcDbLine
 10
1400.166490150096
 20
1180.245719299837
 30
0.0
 11
1400.226490420701
 21
1179.135719881579
 31
0.0
  0
LINE
  5
22E
330
A3
100
AcDbEntity
  8
0 - Systemaufbauten
  6
Continuous
 62
     7
370
     0
100
AcDbLine
 10
1500.166490150096
 20
1180.245719299837
 30
0.0
 11
1500.226490420701
 21
1179.135719881579
 31
0.0
  0
LINE
  5
22F
330
A3
100
AcDbEntity
  8
0 - Systemaufbauten
  6
Continuous
 62
     7
370
     0
100
AcDbLine
 10
1600.166490150096
 20
1180.245719299837
 30
0.0
 11
1600.226490420701
 21
1179.135719881579
 31
0.0
  0
LINE
  5
230
330
A3
100
AcDbEntity
  8
0 - Systemaufbauten
  6
Continuous
 62
     7
370
     0
100
AcDbLine
 10
1700.166490150096
 20
1180.245719299837
 30
0.0
 11
1700.226490420701
 21
1179.135719881579
 31
0.0
  0
LINE
  5
231
330
A3
100
AcDbEntity
  8
0 - Systemaufbauten
  6
Continuous
 62
     7
370
     0
100
AcDbLine
 10
1800.166490150096
 20
1180.245719299837
 30
0.0
 11
1800.226490420701
 21
1179.135719881579
 31
0.0
  0
LINE
  5
232
330
A3
100
AcDbEntity
  8
0 - Systemaufbauten
  6
Continuous
 62
     7
370
     0
100
AcDbLine
 10
1172.086493147018
 20
1189.805720196291
 30
0.0
 11
1172.116492164733
 21
1189.265719996019
 31
0.0
  0
LINE
  5
233
330
A3
100
AcDbEntity
  8
0 - Systemaufbauten
  6
Continuous
 62
     7
370
     0
100
AcDbLine
 10
1272.086493147018
 20
1189.805720196291
 30
0.0
 11
1272.116492164733
 21
1189.265719996019
 31
0.0
  0
LINE
  5
234
330
A3
100
AcDbEntity
  8
0 - Systemaufbauten
  6
Continuous
 62
     7
370
     0
100
AcDbLine
 10
1372.086493147018
 20
1189.805720196291
 30
0.0
 11
1372.116492164733
 21
1189.265719996019
 31
0.0
  0
LINE
  5
235
330
A3
100
AcDbEntity
  8
0 - Systemaufbauten
  6
Continuous
 62
     7
370
     0
100
AcDbLine
 10
1472.086493147018
 20
1189.805720196291
 30
0.0
 11
1472.116492164733
 21
1189.265719996019
 31
0.0
  0
LINE
  5
236
330
A3
100
AcDbEntity
  8
0 - Systemaufbauten
  6
Continuous
 62
     7
370
     0
100
AcDbLine
 10
1572.086493147018
 20
1189.805720196291
 30
0.0
 11
1572.116492164733
 21
1189.265719996019
 31
0.0
  0
LINE
  5
237
330
A3
100
AcDbEntity
  8
0 - Systemaufbauten
  6
Continuous
 62
     7
370
     0
100
AcDbLine
 10
1672.086493147018
 20
1189.805720196291
 30
0.0
 11
1672.116492164733
 21
1189.265719996019
 31
0.0
  0
LINE
  5
238
330
A3
100
AcDbEntity
  8
0 - Systemaufbauten
  6
Continuous
 62
     7
370
     0
100
AcDbLine
 10
1772.086493147018
 20
1189.805720196291
 30
0.0
 11
1772.116492164733
 21
1189.265719996019
 31
0.0
  0
LINE
  5
239
330
A3
100
AcDbEntity
  8
0 - Systemaufbauten
  6
Continuous
 62
     7
370
     0
100
AcDbLine
 10
1093.566490558388
 20
1211.635718689486
 30
0.0
 11
1094.296490249636
 21
1209.43571721129
 31
0.0
  0
LINE
  5
23A
330
A3
100
AcDbEntity
  8
0 - Systemaufbauten
  6
Continuous
 62
     7
370
     0
100
AcDbLine
 10
1193.566490558388
 20
1211.635718689486
 30
0.0
 11
1194.296490249636
 21
1209.43571721129
 31
0.0
  0
LINE
  5
23B
330
A3
100
AcDbEntity
  8
0 - Systemaufbauten
  6
Continuous
 62
     7
370
     0
100
AcDbLine
 10
1293.566490558388
 20
1211.635718689486
 30
0.0
 11
1294.296490249636
 21
1209.43571721129
 31
0.0
  0
LINE
  5
23C
330
A3
100
AcDbEntity
  8
0 - Systemaufbauten
  6
Continuous
 62
     7
370
     0
100
AcDbLine
 10
1393.566490558388
 20
1211.635718689486
 30
0.0
 11
1394.296490249636
 21
1209.43571721129
 31
0.0
  0
LINE
  5
23D
330
A3
100
AcDbEntity
  8
0 - Systemaufbauten
  6
Continuous
 62
     7
370
     0
100
AcDbLine
 10
1493.566490558388
 20
1211.635718689486
 30
0.0
 11
1494.296490249636
 21
1209.43571721129
 31
0.0
  0
LINE
  5
23E
330
A3
100
AcDbEntity
  8
0 - Systemaufbauten
  6
Continuous
 62
     7
370
     0
100
AcDbLine
 10
1593.566490558388
 20
1211.635718689486
 30
0.0
 11
1594.296490249636
 21
1209.43571721129
 31
0.0
  0
LINE
  5
23F
330
A3
100
AcDbEntity
  8
0 - Systemaufbauten
  6
Continuous
 62
     7
370
     0
100
AcDbLine
 10
1693.566490558388
 20
1211.635718689486
 30
0.0
 11
1694.296490249636
 21
1209.43571721129
 31
0.0
  0
LINE
  5
240
330
A3
100
AcDbEntity
  8
0 - Systemaufbauten
  6
Continuous
 62
     7
370
     0
100
AcDbLine
 10
1793.566490558388
 20
1211.635718689486
 30
0.0
 11
1794.296490249636
 21
1209.43571721129
 31
0.0
  0
LINE
  5
241
330
A3
100
AcDbEntity
  8
0 - Systemaufbauten
  6
Continuous
 62
     7
370
     0
100
AcDbLine
 10
1092.096490261557
 20
1210.53572093062
 30
0.0
 11
1092.826490325334
 21
1208.515719519182
 31
0.0
  0
LINE
  5
242
330
A3
100
AcDbEntity
  8
0 - Systemaufbauten
  6
Continuous
 62
     7
370
     0
100
AcDbLine
 10
1192.096490261557
 20
1210.53572093062
 30
0.0
 11
1192.826490325334
 21
1208.515719519182
 31
0.0
  0
LINE
  5
243
330
A3
100
AcDbEntity
  8
0 - Systemaufbauten
  6
Continuous
 62
     7
370
     0
100
AcDbLine
 10
1292.096490261557
 20
1210.53572093062
 30
0.0
 11
1292.826490325334
 21
1208.515719519182
 31
0.0
  0
LINE
  5
244
330
A3
100
AcDbEntity
  8
0 - Systemaufbauten
  6
Continuous
 62
     7
370
     0
100
AcDbLine
 10
1392.096490261557
 20
1210.53572093062
 30
0.0
 11
1392.826490325334
 21
1208.515719519182
 31
0.0
  0
LINE
  5
245
330
A3
100
AcDbEntity
  8
0 - Systemaufbauten
  6
Continuous
 62
     7
370
     0
100
AcDbLine
 10
1492.096490261557
 20
1210.53572093062
 30
0.0
 11
1492.826490325334
 21
1208.515719519182
 31
0.0
  0
LINE
  5
246
330
A3
100
AcDbEntity
  8
0 - Systemaufbauten
  6
Continuous
 62
     7
370
     0
100
AcDbLine
 10
1592.096490261557
 20
1210.53572093062
 30
0.0
 11
1592.826490325334
 21
1208.515719519182
 31
0.0
  0
LINE
  5
247
330
A3
100
AcDbEntity
  8
0 - Systemaufbauten
  6
Continuous
 62
     7
370
     0
100
AcDbLine
 10
1692.096490261557
 20
1210.53572093062
 30
0.0
 11
1692.826490325334
 21
1208.515719519182
 31
0.0
  0
LINE
  5
248
330
A3
100
AcDbEntity
  8
0 - Systemaufbauten
  6
Continuous
 62
     7
370
     0
100
AcDbLine
 10
1792.096490261557
 20
1210.53572093062
 30
0.0
 11
1792.826490325334
 21
1208.515719519182
 31
0.0
  0
LINE
  5
249
330
A3
100
AcDbEntity
  8
0 - Systemaufbauten
  6
Continuous
 62
     7
370
     0
100
AcDbLine
 10
1147.346488607528
 20
1179.415718660875
 30
0.0
 11
1147.866491449478
 21
1178.095720158144
 31
0.0
  0
LINE
  5
24A
330
A3
100
AcDbEntity
  8
0 - Systemaufbauten
  6
Continuous
 62
     7
370
     0
100
AcDbLine
 10
1247.346488607528
 20
1179.415718660875
 30
0.0
 11
1247.866491449478
 21
1178.095720158144
 31
0.0
  0
LINE
  5
24B
330
A3
100
AcDbEntity
  8
0 - Systemaufbauten
  6
Continuous
 62
     7
370
     0
100
AcDbLine
 10
1347.346488607528
 20
1179.415718660875
 30
0.0
 11
1347.866491449478
 21
1178.095720158144
 31
0.0
  0
LINE
  5
24C
330
A3
100
AcDbEntity
  8
0 - Systemaufbauten
  6
Continuous
 62
     7
370
     0
100
AcDbLine
 10
1447.346488607528
 20
1179.415718660875
 30
0.0
 11
1447.866491449478
 21
1178.095720158144
 31
0.0
  0
LINE
  5
24D
330
A3
100
AcDbEntity
  8
0 - Systemaufbauten
  6
Continuous
 62
     7
370
     0
100
AcDbLine
 10
1547.346488607528
 20
1179.415718660875
 30
0.0
 11
1547.866491449478
 21
1178.095720158144
 31
0.0
  0
LINE
  5
24E
330
A3
100
AcDbEntity
  8
0 - Systemaufbauten
  6
Continuous
 62
     7
370
     0
100
AcDbLine
 10
1647.346488607528
 20
1179.415718660875
 30
0.0
 11
1647.866491449478
 21
1178.095720158144
 31
0.0
  0
LINE
  5
24F
330
A3
100
AcDbEntity
  8
0 - Systemaufbauten
  6
Continuous
 62
     7
370
     0
100
AcDbLine
 10
1747.346488607528
 20
1179.415718660875
 30
0.0
 11
1747.866491449478
 21
1178.095720158144
 31
0.0
  0
LINE
  5
250
330
A3
100
AcDbEntity
  8
0 - Systemaufbauten
  6
Continuous
 62
     7
370
     0
100
AcDbLine
 10
1183.756492508056
 20
1159.0357193809
 30
0.0
 11
1184.276489389541
 21
1158.005718336626
 31
0.0
  0
LINE
  5
251
330
A3
100
AcDbEntity
  8
0 - Systemaufbauten
  6
Continuous
 62
     7
370
     0
100
AcDbLine
 10
1283.756492508056
 20
1159.0357193809
 30
0.0
 11
1284.276489389541
 21
1158.005718336626
 31
0.0
  0
LINE
  5
252
330
A3
100
AcDbEntity
  8
0 - Systemaufbauten
  6
Continuous
 62
     7
370
     0
100
AcDbLine
 10
1383.756492508056
 20
1159.0357193809
 30
0.0
 11
1384.276489389541
 21
1158.005718336626
 31
0.0
  0
LINE
  5
253
330
A3
100
AcDbEntity
  8
0 - Systemaufbauten
  6
Continuous
 62
     7
370
     0
100
AcDbLine
 10
1483.756492508056
 20
1159.0357193809
 30
0.0
 11
1484.276489389541
 21
1158.005718336626
 31
0.0
  0
LINE
  5
254
330
A3
100
AcDbEntity
  8
0 - Systemaufbauten
  6
Continuous
 62
     7
370
     0
100
AcDbLine
 10
1583.756492508056
 20
1159.0357193809
 30
0.0
 11
1584.276489389541
 21
1158.005718336626
 31
0.0
  0
LINE
  5
255
330
A3
100
AcDbEntity
  8
0 - Systemaufbauten
  6
Continuous
 62
     7
370
     0
100
AcDbLine
 10
1683.756492508056
 20
1159.0357193809
 30
0.0
 11
1684.276489389541
 21
1158.005718336626
 31
0.0
  0
LINE
  5
256
330
A3
100
AcDbEntity
  8
0 - Systemaufbauten
  6
Continuous
 62
     7
370
     0
100
AcDbLine
 10
1783.756492508056
 20
1159.035719380901
 30
0.0
 11
1784.276489389541
 21
1158.005718336628
 31
0.0
  0
LINE
  5
257
330
A3
100
AcDbEntity
  8
0 - Systemaufbauten
  6
Continuous
 62
     7
370
     0
100
AcDbLine
 10
1099.796490592363
 20
1179.87571750693
 30
0.0
 11
1100.226490420701
 21
1179.135719881579
 31
0.0
  0
LINE
  5
258
330
A3
100
AcDbEntity
  8
0 - Systemaufbauten
  6
Continuous
 62
     7
370
     0
100
AcDbLine
 10
1199.796490592363
 20
1179.87571750693
 30
0.0
 11
1200.226490420701
 21
1179.135719881579
 31
0.0
  0
LINE
  5
259
330
A3
100
AcDbEntity
  8
0 - Systemaufbauten
  6
Continuous
 62
     7
370
     0
100
AcDbLine
 10
1299.796490592363
 20
1179.87571750693
 30
0.0
 11
1300.226490420701
 21
1179.135719881579
 31
0.0
  0
LINE
  5
25A
330
A3
100
AcDbEntity
  8
0 - Systemaufbauten
  6
Continuous
 62
     7
370
     0
100
AcDbLine
 10
1399.796490592363
 20
1179.875717506931
 30
0.0
 11
1400.226490420701
 21
1179.13571988158
 31
0.0
  0
LINE
  5
25B
330
A3
100
AcDbEntity
  8
0 - Systemaufbauten
  6
Continuous
 62
     7
370
     0
100
AcDbLine
 10
1499.796490592363
 20
1179.87571750693
 30
0.0
 11
1500.226490420701
 21
1179.135719881579
 31
0.0
  0
LINE
  5
25C
330
A3
100
AcDbEntity
  8
0 - Systemaufbauten
  6
Continuous
 62
     7
370
     0
100
AcDbLine
 10
1599.796490592365
 20
1179.87571750693
 30
0.0
 11
1600.226490420703
 21
1179.135719881579
 31
0.0
  0
LINE
  5
25D
330
A3
100
AcDbEntity
  8
0 - Systemaufbauten
  6
Continuous
 62
     7
370
     0
100
AcDbLine
 10
1699.796490592363
 20
1179.87571750693
 30
0.0
 11
1700.226490420701
 21
1179.135719881579
 31
0.0
  0
LINE
  5
25E
330
A3
100
AcDbEntity
  8
0 - Systemaufbauten
  6
Continuous
 62
     7
370
     0
100
AcDbLine
 10
1799.796490592363
 20
1179.87571750693
 30
0.0
 11
1800.226490420701
 21
1179.135719881579
 31
0.0
  0
LINE
  5
25F
330
A3
100
AcDbEntity
  8
0 - Systemaufbauten
  6
Continuous
 62
     7
370
     0
100
AcDbLine
 10
1129.566491616371
 20
1196.765718803927
 30
0.0
 11
1132.386491668823
 21
1193.53571926169
 31
0.0
  0
LINE
  5
260
330
A3
100
AcDbEntity
  8
0 - Systemaufbauten
  6
Continuous
 62
     7
370
     0
100
AcDbLine
 10
1229.566491616371
 20
1196.765718803927
 30
0.0
 11
1232.386491668823
 21
1193.53571926169
 31
0.0
  0
LINE
  5
261
330
A3
100
AcDbEntity
  8
0 - Systemaufbauten
  6
Continuous
 62
     7
370
     0
100
AcDbLine
 10
1329.566491616371
 20
1196.765718803927
 30
0.0
 11
1332.386491668823
 21
1193.53571926169
 31
0.0
  0
LINE
  5
262
330
A3
100
AcDbEntity
  8
0 - Systemaufbauten
  6
Continuous
 62
     7
370
     0
100
AcDbLine
 10
1429.566491616371
 20
1196.765718803927
 30
0.0
 11
1432.386491668823
 21
1193.53571926169
 31
0.0
  0
LINE
  5
263
330
A3
100
AcDbEntity
  8
0 - Systemaufbauten
  6
Continuous
 62
     7
370
     0
100
AcDbLine
 10
1529.566491616371
 20
1196.765718803927
 30
0.0
 11
1532.386491668823
 21
1193.53571926169
 31
0.0
  0
LINE
  5
264
330
A3
100
AcDbEntity
  8
0 - Systemaufbauten
  6
Continuous
 62
     7
370
     0
100
AcDbLine
 10
1629.566491616371
 20
1196.765718803927
 30
0.0
 11
1632.386491668823
 21
1193.53571926169
 31
0.0
  0
LINE
  5
265
330
A3
100
AcDbEntity
  8
0 - Systemaufbauten
  6
Continuous
 62
     7
370
     0
100
AcDbLine
 10
1729.566491616371
 20
1196.765718803927
 30
0.0
 11
1732.386491668823
 21
1193.53571926169
 31
0.0
  0
LINE
  5
266
330
A3
100
AcDbEntity
  8
0 - Systemaufbauten
  6
Continuous
 62
     7
370
     0
100
AcDbLine
 10
1829.566491616371
 20
1196.765718803927
 30
0.0
 11
1832.386491668823
 21
1193.53571926169
 31
0.0
  0
LINE
  5
267
330
A3
100
AcDbEntity
  8
0 - Systemaufbauten
  6
Continuous
 62
     7
370
     0
100
AcDbLine
 10
1147.086493147018
 20
1178.885720119997
 30
0.0
 11
1147.866491449478
 21
1178.095720158144
 31
0.0
  0
LINE
  5
268
330
A3
100
AcDbEntity
  8
0 - Systemaufbauten
  6
Continuous
 62
     7
370
     0
100
AcDbLine
 10
1247.086493147018
 20
1178.885720119997
 30
0.0
 11
1247.866491449478
 21
1178.095720158144
 31
0.0
  0
LINE
  5
269
330
A3
100
AcDbEntity
  8
0 - Systemaufbauten
  6
Continuous
 62
     7
370
     0
100
AcDbLine
 10
1347.086493147018
 20
1178.885720119997
 30
0.0
 11
1347.866491449478
 21
1178.095720158144
 31
0.0
  0
LINE
  5
26A
330
A3
100
AcDbEntity
  8
0 - Systemaufbauten
  6
Continuous
 62
     7
370
     0
100
AcDbLine
 10
1447.086493147018
 20
1178.885720119997
 30
0.0
 11
1447.866491449478
 21
1178.095720158144
 31
0.0
  0
LINE
  5
26B
330
A3
100
AcDbEntity
  8
0 - Systemaufbauten
  6
Continuous
 62
     7
370
     0
100
AcDbLine
 10
1547.086493147018
 20
1178.885720119997
 30
0.0
 11
1547.866491449478
 21
1178.095720158144
 31
0.0
  0
LINE
  5
26C
330
A3
100
AcDbEntity
  8
0 - Systemaufbauten
  6
Continuous
 62
     7
370
     0
100
AcDbLine
 10
1647.086493147018
 20
1178.885720119997
 30
0.0
 11
1647.866491449478
 21
1178.095720158144
 31
0.0
  0
LINE
  5
26D
330
A3
100
AcDbEntity
  8
0 - Systemaufbauten
  6
Continuous
 62
     7
370
     0
100
AcDbLine
 10
1747.086493147018
 20
1178.885720119997
 30
0.0
 11
1747.866491449478
 21
1178.095720158144
 31
0.0
  0
LINE
  5
26E
330
A3
100
AcDbEntity
  8
0 - Systemaufbauten
  6
Continuous
 62
     7
370
     0
100
AcDbLine
 10
1131.986490858199
 20
1198.775718555971
 30
0.0
 11
1134.816489589813
 21
1196.765718803927
 31
0.0
  0
LINE
  5
26F
330
A3
100
AcDbEntity
  8
0 - Systemaufbauten
  6
Continuous
 62
     7
370
     0
100
AcDbLine
 10
1231.986490858199
 20
1198.775718555971
 30
0.0
 11
1234.816489589813
 21
1196.765718803927
 31
0.0
  0
LINE
  5
270
330
A3
100
AcDbEntity
  8
0 - Systemaufbauten
  6
Continuous
 62
     7
370
     0
100
AcDbLine
 10
1331.986490858199
 20
1198.775718555971
 30
0.0
 11
1334.816489589813
 21
1196.765718803927
 31
0.0
  0
LINE
  5
271
330
A3
100
AcDbEntity
  8
0 - Systemaufbauten
  6
Continuous
 62
     7
370
     0
100
AcDbLine
 10
1431.986490858199
 20
1198.775718555971
 30
0.0
 11
1434.816489589813
 21
1196.765718803927
 31
0.0
  0
LINE
  5
272
330
A3
100
AcDbEntity
  8
0 - Systemaufbauten
  6
Continuous
 62
     7
370
     0
100
AcDbLine
 10
1531.986490858199
 20
1198.775718555971
 30
0.0
 11
1534.816489589813
 21
1196.765718803927
 31
0.0
  0
LINE
  5
273
330
A3
100
AcDbEntity
  8
0 - Systemaufbauten
  6
Continuous
 62
     7
370
     0
100
AcDbLine
 10
1631.986490858199
 20
1198.775718555971
 30
0.0
 11
1634.816489589813
 21
1196.765718803927
 31
0.0
  0
LINE
  5
274
330
A3
100
AcDbEntity
  8
0 - Systemaufbauten
  6
Continuous
 62
     7
370
     0
100
AcDbLine
 10
1731.986490858199
 20
1198.775718555971
 30
0.0
 11
1734.816489589813
 21
1196.765718803927
 31
0.0
  0
LINE
  5
275
330
A3
100
AcDbEntity
  8
0 - Systemaufbauten
  6
Continuous
 62
     7
370
     0
100
AcDbLine
 10
1831.986490858199
 20
1198.775718555971
 30
0.0
 11
1833.736490381362
 21
1197.532785628708
 31
0.0
  0
LINE
  5
276
330
A3
100
AcDbEntity
  8
0 - Systemaufbauten
  6
Continuous
 62
     7
370
     0
100
AcDbLine
 10
1157.246492279174
 20
1210.555718288942
 30
0.0
 11
1158.716491830947
 21
1209.82571636252
 31
0.0
  0
LINE
  5
277
330
A3
100
AcDbEntity
  8
0 - Systemaufbauten
  6
Continuous
 62
     7
370
     0
100
AcDbLine
 10
1257.246492279174
 20
1210.555718288942
 30
0.0
 11
1258.716491830947
 21
1209.82571636252
 31
0.0
  0
LINE
  5
278
330
A3
100
AcDbEntity
  8
0 - Systemaufbauten
  6
Continuous
 62
     7
370
     0
100
AcDbLine
 10
1357.246492279174
 20
1210.555718288942
 30
0.0
 11
1358.716491830947
 21
1209.82571636252
 31
0.0
  0
LINE
  5
279
330
A3
100
AcDbEntity
  8
0 - Systemaufbauten
  6
Continuous
 62
     7
370
     0
100
AcDbLine
 10
1457.246492279174
 20
1210.555718288942
 30
0.0
 11
1458.716491830947
 21
1209.82571636252
 31
0.0
  0
LINE
  5
27A
330
A3
100
AcDbEntity
  8
0 - Systemaufbauten
  6
Continuous
 62
     7
370
     0
100
AcDbLine
 10
1557.246492279174
 20
1210.555718288942
 30
0.0
 11
1558.716491830947
 21
1209.82571636252
 31
0.0
  0
LINE
  5
27B
330
A3
100
AcDbEntity
  8
0 - Systemaufbauten
  6
Continuous
 62
     7
370
     0
100
AcDbLine
 10
1657.246492279174
 20
1210.555718288942
 30
0.0
 11
1658.716491830947
 21
1209.82571636252
 31
0.0
  0
LINE
  5
27C
330
A3
100
AcDbEntity
  8
0 - Systemaufbauten
  6
Continuous
 62
     7
370
     0
100
AcDbLine
 10
1757.246492279174
 20
1210.555718288942
 30
0.0
 11
1758.716491830947
 21
1209.82571636252
 31
0.0
  0
LINE
  5
27D
330
A3
100
AcDbEntity
  8
0 - Systemaufbauten
  6
Continuous
 62
     7
370
     0
100
AcDbLine
 10
1122.166491521003
 20
1157.705719218775
 30
0.0
 11
1123.116491211059
 21
1157.515717492624
 31
0.0
  0
LINE
  5
27E
330
A3
100
AcDbEntity
  8
0 - Systemaufbauten
  6
Continuous
 62
     7
370
     0
100
AcDbLine
 10
1222.166491521003
 20
1157.705719218775
 30
0.0
 11
1223.116491211059
 21
1157.515717492624
 31
0.0
  0
LINE
  5
27F
330
A3
100
AcDbEntity
  8
0 - Systemaufbauten
  6
Continuous
 62
     7
370
     0
100
AcDbLine
 10
1322.166491521003
 20
1157.705719218775
 30
0.0
 11
1323.116491211059
 21
1157.515717492624
 31
0.0
  0
LINE
  5
280
330
A3
100
AcDbEntity
  8
0 - Systemaufbauten
  6
Continuous
 62
     7
370
     0
100
AcDbLine
 10
1422.166491521003
 20
1157.705719218775
 30
0.0
 11
1423.116491211059
 21
1157.515717492624
 31
0.0
  0
LINE
  5
281
330
A3
100
AcDbEntity
  8
0 - Systemaufbauten
  6
Continuous
 62
     7
370
     0
100
AcDbLine
 10
1522.166491521003
 20
1157.705719218775
 30
0.0
 11
1523.116491211059
 21
1157.515717492624
 31
0.0
  0
LINE
  5
282
330
A3
100
AcDbEntity
  8
0 - Systemaufbauten
  6
Continuous
 62
     7
370
     0
100
AcDbLine
 10
1622.166491521003
 20
1157.705719218775
 30
0.0
 11
1623.116491211059
 21
1157.515717492624
 31
0.0
  0
LINE
  5
283
330
A3
100
AcDbEntity
  8
0 - Systemaufbauten
  6
Continuous
 62
     7
370
     0
100
AcDbLine
 10
1722.166491521003
 20
1157.705719218775
 30
0.0
 11
1723.116491211059
 21
1157.515717492624
 31
0.0
  0
LINE
  5
284
330
A3
100
AcDbEntity
  8
0 - Systemaufbauten
  6
Continuous
 62
     7
370
     0
100
AcDbLine
 10
1822.166491521003
 20
1157.705719218775
 30
0.0
 11
1823.116491211059
 21
1157.515717492624
 31
0.0
  0
LINE
  5
285
330
A3
100
AcDbEntity
  8
0 - Systemaufbauten
  6
Continuous
 62
     7
370
     0
100
AcDbLine
 10
1157.986489904525
 20
1211.665717707201
 30
0.0
 11
1158.906487596633
 21
1211.845717773958
 31
0.0
  0
LINE
  5
286
330
A3
100
AcDbEntity
  8
0 - Systemaufbauten
  6
Continuous
 62
     7
370
     0
100
AcDbLine
 10
1257.986489904525
 20
1211.665717707201
 30
0.0
 11
1258.906487596633
 21
1211.845717773958
 31
0.0
  0
LINE
  5
287
330
A3
100
AcDbEntity
  8
0 - Systemaufbauten
  6
Continuous
 62
     7
370
     0
100
AcDbLine
 10
1357.986489904525
 20
1211.665717707201
 30
0.0
 11
1358.906487596633
 21
1211.845717773958
 31
0.0
  0
LINE
  5
288
330
A3
100
AcDbEntity
  8
0 - Systemaufbauten
  6
Continuous
 62
     7
370
     0
100
AcDbLine
 10
1457.986489904525
 20
1211.665717707201
 30
0.0
 11
1458.906487596633
 21
1211.845717773958
 31
0.0
  0
LINE
  5
289
330
A3
100
AcDbEntity
  8
0 - Systemaufbauten
  6
Continuous
 62
     7
370
     0
100
AcDbLine
 10
1557.986489904525
 20
1211.665717707201
 30
0.0
 11
1558.906487596633
 21
1211.845717773958
 31
0.0
  0
LINE
  5
28A
330
A3
100
AcDbEntity
  8
0 - Systemaufbauten
  6
Continuous
 62
     7
370
     0
100
AcDbLine
 10
1657.986489904525
 20
1211.665717707201
 30
0.0
 11
1658.906487596633
 21
1211.845717773958
 31
0.0
  0
LINE
  5
28B
330
A3
100
AcDbEntity
  8
0 - Systemaufbauten
  6
Continuous
 62
     7
370
     0
100
AcDbLine
 10
1757.986489904525
 20
1211.665717707201
 30
0.0
 11
1758.906487596633
 21
1211.845717773958
 31
0.0
  0
LINE
  5
28C
330
A3
100
AcDbEntity
  8
0 - Systemaufbauten
  6
Continuous
 62
     7
370
     0
100
AcDbLine
 10
1172.066489828231
 20
1189.255718336626
 30
0.0
 11
1172.116492164733
 21
1189.265719996019
 31
0.0
  0
LINE
  5
28D
330
A3
100
AcDbEntity
  8
0 - Systemaufbauten
  6
Continuous
 62
     7
370
     0
100
AcDbLine
 10
1272.066489828231
 20
1189.255718336626
 30
0.0
 11
1272.116492164733
 21
1189.265719996019
 31
0.0
  0
LINE
  5
28E
330
A3
100
AcDbEntity
  8
0 - Systemaufbauten
  6
Continuous
 62
     7
370
     0
100
AcDbLine
 10
1372.066489828231
 20
1189.255718336626
 30
0.0
 11
1372.116492164733
 21
1189.265719996019
 31
0.0
  0
LINE
  5
28F
330
A3
100
AcDbEntity
  8
0 - Systemaufbauten
  6
Continuous
 62
     7
370
     0
100
AcDbLine
 10
1472.066489828231
 20
1189.255718336626
 30
0.0
 11
1472.116492164733
 21
1189.265719996019
 31
0.0
  0
LINE
  5
290
330
A3
100
AcDbEntity
  8
0 - Systemaufbauten
  6
Continuous
 62
     7
370
     0
100
AcDbLine
 10
1572.066489828231
 20
1189.255718336626
 30
0.0
 11
1572.116492164733
 21
1189.265719996019
 31
0.0
  0
LINE
  5
291
330
A3
100
AcDbEntity
  8
0 - Systemaufbauten
  6
Continuous
 62
     7
370
     0
100
AcDbLine
 10
1672.066489828231
 20
1189.255718336626
 30
0.0
 11
1672.116492164733
 21
1189.265719996019
 31
0.0
  0
LINE
  5
292
330
A3
100
AcDbEntity
  8
0 - Systemaufbauten
  6
Continuous
 62
     7
370
     0
100
AcDbLine
 10
1772.066489828231
 20
1189.255718336626
 30
0.0
 11
1772.116492164733
 21
1189.265719996019
 31
0.0
  0
LINE
  5
293
330
A3
100
AcDbEntity
  8
0 - Systemaufbauten
  6
Continuous
 62
     7
370
     0
100
AcDbLine
 10
1183.2464913255
 20
1157.745716915651
 30
0.0
 11
1184.276489389541
 21
1158.005718336626
 31
0.0
  0
LINE
  5
294
330
A3
100
AcDbEntity
  8
0 - Systemaufbauten
  6
Continuous
 62
     7
370
     0
100
AcDbLine
 10
1283.2464913255
 20
1157.745716915651
 30
0.0
 11
1284.276489389541
 21
1158.005718336626
 31
0.0
  0
LINE
  5
295
330
A3
100
AcDbEntity
  8
0 - Systemaufbauten
  6
Continuous
 62
     7
370
     0
100
AcDbLine
 10
1383.2464913255
 20
1157.745716915651
 30
0.0
 11
1384.276489389541
 21
1158.005718336626
 31
0.0
  0
LINE
  5
296
330
A3
100
AcDbEntity
  8
0 - Systemaufbauten
  6
Continuous
 62
     7
370
     0
100
AcDbLine
 10
1483.2464913255
 20
1157.745716915651
 30
0.0
 11
1484.276489389541
 21
1158.005718336626
 31
0.0
  0
LINE
  5
297
330
A3
100
AcDbEntity
  8
0 - Systemaufbauten
  6
Continuous
 62
     7
370
     0
100
AcDbLine
 10
1583.2464913255
 20
1157.745716915651
 30
0.0
 11
1584.276489389541
 21
1158.005718336626
 31
0.0
  0
LINE
  5
298
330
A3
100
AcDbEntity
  8
0 - Systemaufbauten
  6
Continuous
 62
     7
370
     0
100
AcDbLine
 10
1683.2464913255
 20
1157.745716915651
 30
0.0
 11
1684.276489389541
 21
1158.005718336626
 31
0.0
  0
LINE
  5
299
330
A3
100
AcDbEntity
  8
0 - Systemaufbauten
  6
Continuous
 62
     7
370
     0
100
AcDbLine
 10
1783.2464913255
 20
1157.745716915651
 30
0.0
 11
1784.276489389541
 21
1158.005718336626
 31
0.0
  0
LINE
  5
29A
330
A3
100
AcDbEntity
  8
0 - Systemaufbauten
  6
Continuous
 62
     7
370
     0
100
AcDbLine
 10
1092.826490325334
 20
1208.515719519182
 30
0.0
 11
1094.296490249636
 21
1209.43571721129
 31
0.0
  0
LINE
  5
29B
330
A3
100
AcDbEntity
  8
0 - Systemaufbauten
  6
Continuous
 62
     7
370
     0
100
AcDbLine
 10
1192.826490325334
 20
1208.515719519182
 30
0.0
 11
1194.296490249636
 21
1209.43571721129
 31
0.0
  0
LINE
  5
29C
330
A3
100
AcDbEntity
  8
0 - Systemaufbauten
  6
Continuous
 62
     7
370
     0
100
AcDbLine
 10
1292.826490325334
 20
1208.515719519182
 30
0.0
 11
1294.296490249636
 21
1209.43571721129
 31
0.0
  0
LINE
  5
29D
330
A3
100
AcDbEntity
  8
0 - Systemaufbauten
  6
Continuous
 62
     7
370
     0
100
AcDbLine
 10
1392.826490325334
 20
1208.515719519182
 30
0.0
 11
1394.296490249636
 21
1209.43571721129
 31
0.0
  0
LINE
  5
29E
330
A3
100
AcDbEntity
  8
0 - Systemaufbauten
  6
Continuous
 62
     7
370
     0
100
AcDbLine
 10
1492.826490325334
 20
1208.515719519182
 30
0.0
 11
1494.296490249636
 21
1209.43571721129
 31
0.0
  0
LINE
  5
29F
330
A3
100
AcDbEntity
  8
0 - Systemaufbauten
  6
Continuous
 62
     7
370
     0
100
AcDbLine
 10
1592.826490325334
 20
1208.515719519182
 30
0.0
 11
1594.296490249636
 21
1209.43571721129
 31
0.0
  0
LINE
  5
2A0
330
A3
100
AcDbEntity
  8
0 - Systemaufbauten
  6
Continuous
 62
     7
370
     0
100
AcDbLine
 10
1692.826490325334
 20
1208.515719519182
 30
0.0
 11
1694.296490249636
 21
1209.43571721129
 31
0.0
  0
LINE
  5
2A1
330
A3
100
AcDbEntity
  8
0 - Systemaufbauten
  6
Continuous
 62
     7
370
     0
100
AcDbLine
 10
1792.826490325334
 20
1208.515719519182
 30
0.0
 11
1794.296490249636
 21
1209.43571721129
 31
0.0
  0
LINE
  5
2A2
330
A3
100
AcDbEntity
  8
0 - Systemaufbauten
  6
Continuous
 62
     7
370
     0
100
AcDbLine
 10
1092.096490261557
 20
1210.53572093062
 30
0.0
 11
1093.566490558388
 21
1211.635718689486
 31
0.0
  0
LINE
  5
2A3
330
A3
100
AcDbEntity
  8
0 - Systemaufbauten
  6
Continuous
 62
     7
370
     0
100
AcDbLine
 10
1192.096490261557
 20
1210.53572093062
 30
0.0
 11
1193.566490558388
 21
1211.635718689486
 31
0.0
  0
LINE
  5
2A4
330
A3
100
AcDbEntity
  8
0 - Systemaufbauten
  6
Continuous
 62
     7
370
     0
100
AcDbLine
 10
1292.096490261555
 20
1210.53572093062
 30
0.0
 11
1293.566490558386
 21
1211.635718689486
 31
0.0
  0
LINE
  5
2A5
330
A3
100
AcDbEntity
  8
0 - Systemaufbauten
  6
Continuous
 62
     7
370
     0
100
AcDbLine
 10
1392.096490261557
 20
1210.53572093062
 30
0.0
 11
1393.566490558388
 21
1211.635718689486
 31
0.0
  0
LINE
  5
2A6
330
A3
100
AcDbEntity
  8
0 - Systemaufbauten
  6
Continuous
 62
     7
370
     0
100
AcDbLine
 10
1492.096490261557
 20
1210.53572093062
 30
0.0
 11
1493.566490558388
 21
1211.635718689486
 31
0.0
  0
LINE
  5
2A7
330
A3
100
AcDbEntity
  8
0 - Systemaufbauten
  6
Continuous
 62
     7
370
     0
100
AcDbLine
 10
1592.096490261557
 20
1210.53572093062
 30
0.0
 11
1593.566490558388
 21
1211.635718689486
 31
0.0
  0
LINE
  5
2A8
330
A3
100
AcDbEntity
  8
0 - Systemaufbauten
  6
Continuous
 62
     7
370
     0
100
AcDbLine
 10
1692.096490261557
 20
1210.53572093062
 30
0.0
 11
1693.566490558388
 21
1211.635718689486
 31
0.0
  0
LINE
  5
2A9
330
A3
100
AcDbEntity
  8
0 - Systemaufbauten
  6
Continuous
 62
     7
370
     0
100
AcDbLine
 10
1792.096490261557
 20
1210.53572093062
 30
0.0
 11
1793.566490558388
 21
1211.635718689486
 31
0.0
  0
LINE
  5
2AA
330
A3
100
AcDbEntity
  8
0 - Systemaufbauten
  6
Continuous
 62
     7
370
     0
100
AcDbLine
 10
1129.566491616371
 20
1196.765718803927
 30
0.0
 11
1131.986490858199
 21
1198.775718555971
 31
0.0
  0
LINE
  5
2AB
330
A3
100
AcDbEntity
  8
0 - Systemaufbauten
  6
Continuous
 62
     7
370
     0
100
AcDbLine
 10
1229.566491616371
 20
1196.765718803927
 30
0.0
 11
1231.986490858199
 21
1198.775718555971
 31
0.0
  0
LINE
  5
2AC
330
A3
100
AcDbEntity
  8
0 - Systemaufbauten
  6
Continuous
 62
     7
370
     0
100
AcDbLine
 10
1329.566491616371
 20
1196.765718803927
 30
0.0
 11
1331.986490858199
 21
1198.775718555971
 31
0.0
  0
LINE
  5
2AD
330
A3
100
AcDbEntity
  8
0 - Systemaufbauten
  6
Continuous
 62
     7
370
     0
100
AcDbLine
 10
1429.566491616371
 20
1196.765718803927
 30
0.0
 11
1431.986490858199
 21
1198.775718555971
 31
0.0
  0
LINE
  5
2AE
330
A3
100
AcDbEntity
  8
0 - Systemaufbauten
  6
Continuous
 62
     7
370
     0
100
AcDbLine
 10
1529.566491616371
 20
1196.765718803927
 30
0.0
 11
1531.986490858199
 21
1198.775718555969
 31
0.0
  0
LINE
  5
2AF
330
A3
100
AcDbEntity
  8
0 - Systemaufbauten
  6
Continuous
 62
     7
370
     0
100
AcDbLine
 10
1629.566491616371
 20
1196.765718803927
 30
0.0
 11
1631.986490858199
 21
1198.775718555971
 31
0.0
  0
LINE
  5
2B0
330
A3
100
AcDbEntity
  8
0 - Systemaufbauten
  6
Continuous
 62
     7
370
     0
100
AcDbLine
 10
1729.566491616371
 20
1196.765718803927
 30
0.0
 11
1731.986490858199
 21
1198.775718555971
 31
0.0
  0
LINE
  5
2B1
330
A3
100
AcDbEntity
  8
0 - Systemaufbauten
  6
Continuous
 62
     7
370
     0
100
AcDbLine
 10
1829.566491616371
 20
1196.765718803927
 30
0.0
 11
1831.986490858199
 21
1198.775718555971
 31
0.0
  0
LINE
  5
2B2
330
A3
100
AcDbEntity
  8
0 - Systemaufbauten
  6
Continuous
 62
     7
370
     0
100
AcDbLine
 10
1132.386491668823
 20
1193.53571926169
 30
0.0
 11
1134.816489589813
 21
1196.765718803927
 31
0.0
  0
LINE
  5
2B3
330
A3
100
AcDbEntity
  8
0 - Systemaufbauten
  6
Continuous
 62
     7
370
     0
100
AcDbLine
 10
1232.386491668823
 20
1193.53571926169
 30
0.0
 11
1234.816489589813
 21
1196.765718803927
 31
0.0
  0
LINE
  5
2B4
330
A3
100
AcDbEntity
  8
0 - Systemaufbauten
  6
Continuous
 62
     7
370
     0
100
AcDbLine
 10
1332.386491668823
 20
1193.53571926169
 30
0.0
 11
1334.816489589813
 21
1196.765718803927
 31
0.0
  0
LINE
  5
2B5
330
A3
100
AcDbEntity
  8
0 - Systemaufbauten
  6
Continuous
 62
     7
370
     0
100
AcDbLine
 10
1432.386491668823
 20
1193.53571926169
 30
0.0
 11
1434.816489589813
 21
1196.765718803927
 31
0.0
  0
LINE
  5
2B6
330
A3
100
AcDbEntity
  8
0 - Systemaufbauten
  6
Continuous
 62
     7
370
     0
100
AcDbLine
 10
1532.386491668823
 20
1193.53571926169
 30
0.0
 11
1534.816489589813
 21
1196.765718803927
 31
0.0
  0
LINE
  5
2B7
330
A3
100
AcDbEntity
  8
0 - Systemaufbauten
  6
Continuous
 62
     7
370
     0
100
AcDbLine
 10
1632.386491668823
 20
1193.53571926169
 30
0.0
 11
1634.816489589813
 21
1196.765718803927
 31
0.0
  0
LINE
  5
2B8
330
A3
100
AcDbEntity
  8
0 - Systemaufbauten
  6
Continuous
 62
     7
370
     0
100
AcDbLine
 10
1732.386491668823
 20
1193.53571926169
 30
0.0
 11
1734.816489589813
 21
1196.765718803927
 31
0.0
  0
LINE
  5
2B9
330
A3
100
AcDbEntity
  8
0 - Systemaufbauten
  6
Continuous
 62
     7
370
     0
100
AcDbLine
 10
1832.386491668823
 20
1193.53571926169
 30
0.0
 11
1833.736490381362
 21
1195.330163275761
 31
0.0
  0
LINE
  5
2BA
330
A3
100
AcDbEntity
  8
0 - Systemaufbauten
  6
Continuous
 62
     7
370
     0
100
AcDbLine
 10
1157.246492279174
 20
1210.555718288942
 30
0.0
 11
1157.986489904525
 21
1211.665717707201
 31
0.0
  0
LINE
  5
2BB
330
A3
100
AcDbEntity
  8
0 - Systemaufbauten
  6
Continuous
 62
     7
370
     0
100
AcDbLine
 10
1257.246492279174
 20
1210.555718288942
 30
0.0
 11
1257.986489904525
 21
1211.665717707201
 31
0.0
  0
LINE
  5
2BC
330
A3
100
AcDbEntity
  8
0 - Systemaufbauten
  6
Continuous
 62
     7
370
     0
100
AcDbLine
 10
1357.246492279174
 20
1210.555718288942
 30
0.0
 11
1357.986489904525
 21
1211.665717707201
 31
0.0
  0
LINE
  5
2BD
330
A3
100
AcDbEntity
  8
0 - Systemaufbauten
  6
Continuous
 62
     7
370
     0
100
AcDbLine
 10
1457.246492279174
 20
1210.555718288942
 30
0.0
 11
1457.986489904525
 21
1211.665717707201
 31
0.0
  0
LINE
  5
2BE
330
A3
100
AcDbEntity
  8
0 - Systemaufbauten
  6
Continuous
 62
     7
370
     0
100
AcDbLine
 10
1557.246492279174
 20
1210.555718288942
 30
0.0
 11
1557.986489904525
 21
1211.665717707201
 31
0.0
  0
LINE
  5
2BF
330
A3
100
AcDbEntity
  8
0 - Systemaufbauten
  6
Continuous
 62
     7
370
     0
100
AcDbLine
 10
1657.246492279174
 20
1210.555718288942
 30
0.0
 11
1657.986489904525
 21
1211.665717707201
 31
0.0
  0
LINE
  5
2C0
330
A3
100
AcDbEntity
  8
0 - Systemaufbauten
  6
Continuous
 62
     7
370
     0
100
AcDbLine
 10
1757.246492279174
 20
1210.555718288942
 30
0.0
 11
1757.986489904525
 21
1211.665717707201
 31
0.0
  0
LINE
  5
2C1
330
A3
100
AcDbEntity
  8
0 - Systemaufbauten
  6
Continuous
 62
     7
370
     0
100
AcDbLine
 10
1121.495139608926
 20
1156.625718222183
 30
0.0
 11
1122.166491521003
 21
1157.705719218775
 31
0.0
  0
LINE
  5
2C2
330
A3
100
AcDbEntity
  8
0 - Systemaufbauten
  6
Continuous
 62
     7
370
     0
100
AcDbLine
 10
1221.495139608928
 20
1156.625718222183
 30
0.0
 11
1222.166491521003
 21
1157.705719218775
 31
0.0
  0
LINE
  5
2C3
330
A3
100
AcDbEntity
  8
0 - Systemaufbauten
  6
Continuous
 62
     7
370
     0
100
AcDbLine
 10
1321.495139608926
 20
1156.625718222183
 30
0.0
 11
1322.166491521003
 21
1157.705719218775
 31
0.0
  0
LINE
  5
2C4
330
A3
100
AcDbEntity
  8
0 - Systemaufbauten
  6
Continuous
 62
     7
370
     0
100
AcDbLine
 10
1421.495139608926
 20
1156.625718222183
 30
0.0
 11
1422.166491521003
 21
1157.705719218775
 31
0.0
  0
LINE
  5
2C5
330
A3
100
AcDbEntity
  8
0 - Systemaufbauten
  6
Continuous
 62
     7
370
     0
100
AcDbLine
 10
1521.495139608926
 20
1156.625718222183
 30
0.0
 11
1522.166491521001
 21
1157.705719218775
 31
0.0
  0
LINE
  5
2C6
330
A3
100
AcDbEntity
  8
0 - Systemaufbauten
  6
Continuous
 62
     7
370
     0
100
AcDbLine
 10
1621.495139608926
 20
1156.625718222185
 30
0.0
 11
1622.166491521003
 21
1157.705719218775
 31
0.0
  0
LINE
  5
2C7
330
A3
100
AcDbEntity
  8
0 - Systemaufbauten
  6
Continuous
 62
     7
370
     0
100
AcDbLine
 10
1721.495139608928
 20
1156.625718222183
 30
0.0
 11
1722.166491521003
 21
1157.705719218775
 31
0.0
  0
LINE
  5
2C8
330
A3
100
AcDbEntity
  8
0 - Systemaufbauten
  6
Continuous
 62
     7
370
     0
100
AcDbLine
 10
1821.495139608926
 20
1156.625718222183
 30
0.0
 11
1822.166491521003
 21
1157.705719218775
 31
0.0
  0
LINE
  5
2C9
330
A3
100
AcDbEntity
  8
0 - Systemaufbauten
  6
Continuous
 62
     7
370
     0
100
AcDbLine
 10
1147.086493147018
 20
1178.885720119997
 30
0.0
 11
1147.346488607528
 21
1179.415718660875
 31
0.0
  0
LINE
  5
2CA
330
A3
100
AcDbEntity
  8
0 - Systemaufbauten
  6
Continuous
 62
     7
370
     0
100
AcDbLine
 10
1247.086493147018
 20
1178.885720119997
 30
0.0
 11
1247.346488607528
 21
1179.415718660875
 31
0.0
  0
LINE
  5
2CB
330
A3
100
AcDbEntity
  8
0 - Systemaufbauten
  6
Continuous
 62
     7
370
     0
100
AcDbLine
 10
1347.086493147018
 20
1178.885720119997
 30
0.0
 11
1347.346488607528
 21
1179.415718660875
 31
0.0
  0
LINE
  5
2CC
330
A3
100
AcDbEntity
  8
0 - Systemaufbauten
  6
Continuous
 62
     7
370
     0
100
AcDbLine
 10
1447.086493147018
 20
1178.885720119997
 30
0.0
 11
1447.346488607528
 21
1179.415718660875
 31
0.0
  0
LINE
  5
2CD
330
A3
100
AcDbEntity
  8
0 - Systemaufbauten
  6
Continuous
 62
     7
370
     0
100
AcDbLine
 10
1547.086493147018
 20
1178.885720119997
 30
0.0
 11
1547.346488607528
 21
1179.415718660875
 31
0.0
  0
LINE
  5
2CE
330
A3
100
AcDbEntity
  8
0 - Systemaufbauten
  6
Continuous
 62
     7
370
     0
100
AcDbLine
 10
1647.086493147018
 20
1178.885720119997
 30
0.0
 11
1647.346488607528
 21
1179.415718660875
 31
0.0
  0
LINE
  5
2CF
330
A3
100
AcDbEntity
  8
0 - Systemaufbauten
  6
Continuous
 62
     7
370
     0
100
AcDbLine
 10
1747.086493147018
 20
1178.885720119997
 30
0.0
 11
1747.346488607528
 21
1179.415718660875
 31
0.0
  0
LINE
  5
2D0
330
A3
100
AcDbEntity
  8
0 - Systemaufbauten
  6
Continuous
 62
     7
370
     0
100
AcDbLine
 10
1183.2464913255
 20
1157.745716915653
 30
0.0
 11
1183.756492508056
 21
1159.035719380901
 31
0.0
  0
LINE
  5
2D1
330
A3
100
AcDbEntity
  8
0 - Systemaufbauten
  6
Continuous
 62
     7
370
     0
100
AcDbLine
 10
1283.2464913255
 20
1157.745716915651
 30
0.0
 11
1283.756492508056
 21
1159.0357193809
 31
0.0
  0
LINE
  5
2D2
330
A3
100
AcDbEntity
  8
0 - Systemaufbauten
  6
Continuous
 62
     7
370
     0
100
AcDbLine
 10
1383.2464913255
 20
1157.745716915651
 30
0.0
 11
1383.756492508056
 21
1159.0357193809
 31
0.0
  0
LINE
  5
2D3
330
A3
100
AcDbEntity
  8
0 - Systemaufbauten
  6
Continuous
 62
     7
370
     0
100
AcDbLine
 10
1483.2464913255
 20
1157.745716915651
 30
0.0
 11
1483.756492508056
 21
1159.0357193809
 31
0.0
  0
LINE
  5
2D4
330
A3
100
AcDbEntity
  8
0 - Systemaufbauten
  6
Continuous
 62
     7
370
     0
100
AcDbLine
 10
1583.2464913255
 20
1157.745716915651
 30
0.0
 11
1583.756492508056
 21
1159.0357193809
 31
0.0
  0
LINE
  5
2D5
330
A3
100
AcDbEntity
  8
0 - Systemaufbauten
  6
Continuous
 62
     7
370
     0
100
AcDbLine
 10
1683.2464913255
 20
1157.745716915651
 30
0.0
 11
1683.756492508056
 21
1159.0357193809
 31
0.0
  0
LINE
  5
2D6
330
A3
100
AcDbEntity
  8
0 - Systemaufbauten
  6
Continuous
 62
     7
370
     0
100
AcDbLine
 10
1783.2464913255
 20
1157.745716915651
 30
0.0
 11
1783.756492508056
 21
1159.0357193809
 31
0.0
  0
LINE
  5
2D7
330
A3
100
AcDbEntity
  8
0 - Systemaufbauten
  6
Continuous
 62
     7
370
     0
100
AcDbLine
 10
1158.716491830947
 20
1209.82571636252
 30
0.0
 11
1158.906487596633
 21
1211.845717773958
 31
0.0
  0
LINE
  5
2D8
330
A3
100
AcDbEntity
  8
0 - Systemaufbauten
  6
Continuous
 62
     7
370
     0
100
AcDbLine
 10
1258.716491830947
 20
1209.82571636252
 30
0.0
 11
1258.906487596633
 21
1211.845717773958
 31
0.0
  0
LINE
  5
2D9
330
A3
100
AcDbEntity
  8
0 - Systemaufbauten
  6
Continuous
 62
     7
370
     0
100
AcDbLine
 10
1358.716491830947
 20
1209.82571636252
 30
0.0
 11
1358.906487596633
 21
1211.845717773958
 31
0.0
  0
LINE
  5
2DA
330
A3
100
AcDbEntity
  8
0 - Systemaufbauten
  6
Continuous
 62
     7
370
     0
100
AcDbLine
 10
1458.716491830947
 20
1209.82571636252
 30
0.0
 11
1458.906487596633
 21
1211.845717773958
 31
0.0
  0
LINE
  5
2DB
330
A3
100
AcDbEntity
  8
0 - Systemaufbauten
  6
Continuous
 62
     7
370
     0
100
AcDbLine
 10
1558.716491830947
 20
1209.82571636252
 30
0.0
 11
1558.906487596633
 21
1211.845717773958
 31
0.0
  0
LINE
  5
2DC
330
A3
100
AcDbEntity
  8
0 - Systemaufbauten
  6
Continuous
 62
     7
370
     0
100
AcDbLine
 10
1658.716491830947
 20
1209.82571636252
 30
0.0
 11
1658.906487596633
 21
1211.845717773958
 31
0.0
  0
LINE
  5
2DD
330
A3
100
AcDbEntity
  8
0 - Systemaufbauten
  6
Continuous
 62
     7
370
     0
100
AcDbLine
 10
1758.716491830947
 20
1209.82571636252
 30
0.0
 11
1758.906487596633
 21
1211.845717773958
 31
0.0
  0
LINE
  5
2DE
330
A3
100
AcDbEntity
  8
0 - Systemaufbauten
  6
Continuous
 62
     7
370
     0
100
AcDbLine
 10
1172.066489828231
 20
1189.255718336626
 30
0.0
 11
1172.086493147018
 21
1189.805720196291
 31
0.0
  0
LINE
  5
2DF
330
A3
100
AcDbEntity
  8
0 - Systemaufbauten
  6
Continuous
 62
     7
370
     0
100
AcDbLine
 10
1272.066489828231
 20
1189.255718336626
 30
0.0
 11
1272.086493147018
 21
1189.805720196291
 31
0.0
  0
LINE
  5
2E0
330
A3
100
AcDbEntity
  8
0 - Systemaufbauten
  6
Continuous
 62
     7
370
     0
100
AcDbLine
 10
1372.066489828231
 20
1189.255718336626
 30
0.0
 11
1372.086493147018
 21
1189.805720196291
 31
0.0
  0
LINE
  5
2E1
330
A3
100
AcDbEntity
  8
0 - Systemaufbauten
  6
Continuous
 62
     7
370
     0
100
AcDbLine
 10
1472.066489828231
 20
1189.255718336626
 30
0.0
 11
1472.086493147018
 21
1189.805720196291
 31
0.0
  0
LINE
  5
2E2
330
A3
100
AcDbEntity
  8
0 - Systemaufbauten
  6
Continuous
 62
     7
370
     0
100
AcDbLine
 10
1572.066489828231
 20
1189.255718336626
 30
0.0
 11
1572.086493147018
 21
1189.805720196291
 31
0.0
  0
LINE
  5
2E3
330
A3
100
AcDbEntity
  8
0 - Systemaufbauten
  6
Continuous
 62
     7
370
     0
100
AcDbLine
 10
1672.066489828231
 20
1189.255718336626
 30
0.0
 11
1672.086493147018
 21
1189.805720196291
 31
0.0
  0
LINE
  5
2E4
330
A3
100
AcDbEntity
  8
0 - Systemaufbauten
  6
Continuous
 62
     7
370
     0
100
AcDbLine
 10
1772.066489828231
 20
1189.255718336626
 30
0.0
 11
1772.086493147018
 21
1189.805720196291
 31
0.0
  0
LINE
  5
2E5
330
A3
100
AcDbEntity
  8
0 - Systemaufbauten
  6
Continuous
 62
     7
370
     0
100
AcDbLine
 10
1123.104354040824
 20
1156.625718222183
 30
0.0
 11
1123.116491211059
 21
1157.515717492624
 31
0.0
  0
LINE
  5
2E6
330
A3
100
AcDbEntity
  8
0 - Systemaufbauten
  6
Continuous
 62
     7
370
     0
100
AcDbLine
 10
1223.104354040825
 20
1156.625718222183
 30
0.0
 11
1223.116491211059
 21
1157.515717492624
 31
0.0
  0
LINE
  5
2E7
330
A3
100
AcDbEntity
  8
0 - Systemaufbauten
  6
Continuous
 62
     7
370
     0
100
AcDbLine
 10
1323.104354040824
 20
1156.625718222183
 30
0.0
 11
1323.116491211059
 21
1157.515717492624
 31
0.0
  0
LINE
  5
2E8
330
A3
100
AcDbEntity
  8
0 - Systemaufbauten
  6
Continuous
 62
     7
370
     0
100
AcDbLine
 10
1423.104354040825
 20
1156.625718222183
 30
0.0
 11
1423.116491211059
 21
1157.515717492624
 31
0.0
  0
LINE
  5
2E9
330
A3
100
AcDbEntity
  8
0 - Systemaufbauten
  6
Continuous
 62
     7
370
     0
100
AcDbLine
 10
1523.104354040824
 20
1156.625718222183
 30
0.0
 11
1523.116491211059
 21
1157.515717492624
 31
0.0
  0
LINE
  5
2EA
330
A3
100
AcDbEntity
  8
0 - Systemaufbauten
  6
Continuous
 62
     7
370
     0
100
AcDbLine
 10
1623.104354040825
 20
1156.625718222183
 30
0.0
 11
1623.116491211059
 21
1157.515717492624
 31
0.0
  0
LINE
  5
2EB
330
A3
100
AcDbEntity
  8
0 - Systemaufbauten
  6
Continuous
 62
     7
370
     0
100
AcDbLine
 10
1723.104354040824
 20
1156.625718222183
 30
0.0
 11
1723.116491211059
 21
1157.515717492624
 31
0.0
  0
LINE
  5
2EC
330
A3
100
AcDbEntity
  8
0 - Systemaufbauten
  6
Continuous
 62
     7
370
     0
100
AcDbLine
 10
1823.104354040824
 20
1156.625718222185
 30
0.0
 11
1823.116491211059
 21
1157.515717492624
 31
0.0
  0
LWPOLYLINE
  5
2ED
330
A3
100
AcDbEntity
  8
0 - Systemaufbauten
  6
Continuous
 62
     7
370
     0
100
AcDbPolyline
 90
        4
 70
     1
 43
0.0
 10
1.220070422535173
 20
0.9586267605636749
 10
2971.220070422533
 20
0.9586267605636749
 10
2971.220070422533
 20
2100.958626760563
 10
1.220070422535173
 20
2100.958626760563
  0
LWPOLYLINE
  5
2EE
330
A3
100
AcDbEntity
  8
0 - Systemaufbauten
  6
Continuous
 62
     7
370
     0
100
AcDbPolyline
 90
        4
 70
     1
 43
0.0
 10
251.2200704225352
 20
2050.958626760563
 10
2921.220070422533
 20
2050.958626760563
 10
2921.220070422533
 20
50.95862676056367
 10
251.2200704225352
 20
50.95862676056367
  0
LWPOLYLINE
  5
2EF
330
A3
100
AcDbEntity
  8
0 - Systemaufbauten
  6
Continuous
 62
     7
370
     0
100
AcDbPolyline
 90
        3
 70
     0
 43
0.0
 10
1571.220070422535
 20
50.95862676056367
 10
1571.220070422535
 20
500.9586267605637
 10
2921.220070422533
 20
500.9586267605637
  0
LINE
  5
2F0
330
A3
100
AcDbEntity
  8
0 - Systemaufbauten
  6
Continuous
 62
     7
370
     0
100
AcDbLine
 10
1571.220070422535
 20
150.9586267605637
 30
0.0
 11
2921.220070422533
 21
150.9586267605637
 31
0.0
  0
LINE
  5
2F1
330
A3
100
AcDbEntity
  8
0 - Systemaufbauten
  6
Continuous
 62
     7
370
     0
100
AcDbLine
 10
1571.220070422535
 20
350.9586267605637
 30
0.0
 11
2921.220070422533
 21
350.9586267605637
 31
0.0
  0
LINE
  5
2F2
330
A3
100
AcDbEntity
  8
0 - Systemaufbauten
  6
Continuous
 62
     7
370
     0
100
AcDbLine
 10
1841.220070422537
 20
150.9586267605637
 30
0.0
 11
1841.220070422537
 21
50.95862676056367
 31
0.0
  0
LINE
  5
2F3
330
A3
100
AcDbEntity
  8
0 - Systemaufbauten
  6
Continuous
 62
     7
370
     0
100
AcDbLine
 10
2111.220070422535
 20
150.9586267605637
 30
0.0
 11
2111.220070422535
 21
50.95862676056367
 31
0.0
  0
LINE
  5
2F4
330
A3
100
AcDbEntity
  8
0 - Systemaufbauten
  6
Continuous
 62
     7
370
     0
100
AcDbLine
 10
2381.220070422537
 20
150.9586267605637
 30
0.0
 11
2381.220070422537
 21
50.95862676056367
 31
0.0
  0
LINE
  5
2F5
330
A3
100
AcDbEntity
  8
0 - Systemaufbauten
  6
Continuous
 62
     7
370
     0
100
AcDbLine
 10
2651.220070422535
 20
150.9586267605637
 30
0.0
 11
2651.220070422535
 21
50.95862676056367
 31
0.0
  0
TEXT
  5
2F6
330
A3
100
AcDbEntity
  8
0 - Systemaufbauten
  6
Continuous
 62
     7
370
     0
100
AcDbText
 10
1591.220070422537
 20
470.9586267605637
 30
0.0
 40
22.69896125793457
  1
PLANINHALT:
 41
0.8579923483530327
  7
Style0
100
AcDbText
  0
TEXT
  5
2F7
330
A3
100
AcDbEntity
  8
0 - Systemaufbauten
  6
Continuous
 62
     7
370
     0
100
AcDbText
 10
1591.220070422537
 20
120.9586267605637
 30
0.0
 40
22.69896125793457
  1
MASSSTAB:
 41
0.9111284619623434
  7
Style0
100
AcDbText
  0
TEXT
  5
2F8
330
A3
100
AcDbEntity
  8
0 - Systemaufbauten
  6
Continuous
 62
     7
370
     0
100
AcDbText
 10
1861.220070422537
 20
120.9586267605637
 30
0.0
 40
22.69896125793457
  1
ERSTELLT:
 41
0.8423641974483923
  7
Style0
100
AcDbText
  0
TEXT
  5
2F9
330
A3
100
AcDbEntity
  8
0 - Systemaufbauten
  6
Continuous
 62
     7
370
     0
100
AcDbText
 10
2131.220070422537
 20
120.9586267605637
 30
0.0
 40
22.69896125793457
  1
BLATT NR.:
 41
0.8458022923346369
  7
Style0
100
AcDbText
  0
TEXT
  5
2FA
330
A3
100
AcDbEntity
  8
0 - Systemaufbauten
  6
Continuous
 62
     7
370
     0
100
AcDbText
 10
2401.220070422535
 20
120.9586267605637
 30
0.0
 40
22.69896125793457
  1
DETAIL NR.:
 41
0.8204844463352615
  7
Style0
100
AcDbText
  0
TEXT
  5
2FB
330
A3
100
AcDbEntity
  8
0 - Systemaufbauten
  6
Continuous
 62
     7
370
     0
100
AcDbText
 10
2671.220070422537
 20
120.9586267605637
 30
0.0
 40
22.69896125793457
  1
GEZEICHNET:
 41
0.8908118839923805
  7
Style0
100
AcDbText
  0
TEXT
  5
2FC
330
A3
100
AcDbEntity
  8
0 - Systemaufbauten
  6
Continuous
 62
     7
370
     0
100
AcDbText
 10
1592.494675053508
 20
325.0530920531255
 30
0.0
 40
9.079585075378418
  1
Die oben dargestellte Detailzeichnung bezieht sich auf eine Regelkonstruktion, d.h. sie ist zu überprüfen,
 41
0.8426884399575822
  7
Style0
100
AcDbText
  0
TEXT
  5
2FD
330
A3
100
AcDbEntity
  8
0 - Systemaufbauten
  6
Continuous
 62
     7
370
     0
100
AcDbText
 10
1592.494675053508
 20
305.8800816725034
 30
0.0
 40
9.079585075378418
  1
objektgebunden anzupassen, abzustimmen und gegebenfalls zu ergänzen.
 41
0.9123924215372422
  7
Style0
100
AcDbText
  0
TEXT
  5
2FE
330
A3
100
AcDbEntity
  8
0 - Systemaufbauten
  6
Continuous
 62
     7
370
     0
100
AcDbText
 10
1592.494675053508
 20
286.7070712918812
 30
0.0
 40
9.079585075378418
  1
Die empfohlenen Anwendungsbereiche sind auf Grund der Erfahrungen und Normen ausgearbeitet.
 41
0.9124509843910388
  7
Style0
100
AcDbText
  0
TEXT
  5
2FF
330
A3
100
AcDbEntity
  8
0 - Systemaufbauten
  6
Continuous
 62
     7
370
     0
100
AcDbText
 10
1592.494675053508
 20
267.5340609112573
 30
0.0
 40
9.079585075378418
  1
Eine Verbindlichkeit kann hieraus nicht abgeleitet werden. Technische Änderungen sind vorbehalten.
 41
0.8551696102436678
  7
Style0
100
AcDbText
  0
TEXT
  5
300
330
A3
100
AcDbEntity
  8
0 - Systemaufbauten
  6
Continuous
 62
     7
370
     0
100
AcDbText
 10
1592.494675053508
 20
248.3610505306342
 30
0.0
 40
9.079585075378418
  1
Die vorliegende Detailzeichnung verliert bei Erscheinen einer Neuausgabe ihre Gültigkeit.
 41
0.8332855365681433
  7
Style0
100
AcDbText
  0
TEXT
  5
301
330
A3
100
AcDbEntity
  8
0 - Systemaufbauten
  6
Continuous
 62
     7
370
     0
100
AcDbText
 10
1592.494675053508
 20
229.188040150013
 30
0.0
 40
9.079585075378418
  1
Jede Haftung von COVERiT bei leichter Fahrlässigkeit sowie für Beratung ohne nachfolgende Warenlieferung
 41
0.8747626777695675
  7
Style0
100
AcDbText
  0
TEXT
  5
302
330
A3
100
AcDbEntity
  8
0 - Systemaufbauten
  6
Continuous
 62
     7
370
     0
100
AcDbText
 10
1592.494675053508
 20
210.015029769389
 30
0.0
 40
9.079585075378418
  1
von COVERiT und gegenüber Dritten (andere als COVERiT-Vertragspartner) ist ausgeschlossen.
 41
0.8853418449037859
  7
Style0
100
AcDbText
  0
TEXT
  5
303
330
A3
100
AcDbEntity
  8
0 - Systemaufbauten
  6
Continuous
 62
     7
370
     0
100
AcDbText
 10
1592.494675053508
 20
190.8420193887659
 30
0.0
 40
9.079585075378418
  1
Verkauf und Lieferung von COVERiT erfolgt ausschließlich zu den allgemeinen Liefer-, Zahlungs- und Gewährleistungsbedingungen von COVERiT.
 41
0.7222222222222222
  7
Style0
100
AcDbText
  0
TEXT
  5
304
330
A3
100
AcDbEntity
  8
0 - Systemaufbauten
  6
Continuous
 62
     7
370
     0
100
AcDbText
 10
1592.494675053508
 20
171.6690090081438
 30
0.0
 40
9.079585075378418
  1
Es gilt österreichisches Recht (ohne UN Kaufrecht). Gerichtsstand ist Wels.
 41
0.8506157414920329
  7
Style0
100
AcDbText
  0
TEXT
  5
305
330
A3
100
AcDbEntity
  8
0 - Systemaufbauten
  6
Continuous
 62
     7
370
     0
100
AcDbText
 10
1591.220070422537
 20
60.95862676056458
 30
0.0
 40
31.7785472869873
  1
1:1
 41
0.6016886835724486
  7
Style0
100
AcDbText
  0
TEXT
  5
306
330
A3
100
AcDbEntity
  8
0 - Systemaufbauten
  6
Continuous
 62
     7
370
     0
100
AcDbText
 10
1861.220070422537
 20
60.95862676056458
 30
0.0
 40
31.7785472869873
  1
07/15
 41
0.990207449084411
  7
Style0
100
AcDbText
  0
TEXT
  5
307
330
A3
100
AcDbEntity
  8
0 - Systemaufbauten
  6
Continuous
 62
     7
370
     0
100
AcDbText
 10
2131.220070422537
 20
60.95862676056458
 30
0.0
 40
31.7785472869873
  1
03
 41
0.8767462746031762
  7
Style0
100
AcDbText
  0
TEXT
  5
308
330
A3
100
AcDbEntity
  8
0 - Systemaufbauten
  6
Continuous
 62
     7
370
     0
100
AcDbText
 10
2401.220070422535
 20
60.95862676056458
 30
0.0
 40
31.7785472869873
  1
03
 41
0.8767462746031762
  7
Style0
100
AcDbText
  0
TEXT
  5
309
330
A3
100
AcDbEntity
  8
0 - Systemaufbauten
  6
Continuous
 62
     7
370
     0
100
AcDbText
 10
2671.220070422537
 20
60.95862676056458
 30
0.0
 40
31.7785472869873
  1
TR/AP
 41
0.9695781525146926
  7
Style0
100
AcDbText
  0
LINE
  5
30A
330
A3
100
AcDbEntity
  8
0 - Systemaufbauten
  6
Continuous
 62
     7
370
     0
100
AcDbLine
 10
2446.021832237772
 20
350.9586267605637
 30
0.0
 11
2446.021832237772
 21
150.9586267605637
 31
0.0
  0
LINE
  5
30B
330
A3
100
AcDbEntity
  8
0 - Systemaufbauten
  6
Continuous
 62
     7
370
     0
100
AcDbLine
 10
433.7364903813641
 20
856.6257182221852
 30
0.0
 11
433.7364903813641
 21
846.6257182221852
 31
0.0
  0
LINE
  5
30C
330
A3
100
AcDbEntity
  8
0 - Systemaufbauten
  6
Continuous
 62
     7
370
     0
100
AcDbLine
 10
533.7364903813641
 20
856.6257182221852
 30
0.0
 11
533.7364903813641
 21
846.6257182221852
 31
0.0
  0
LINE
  5
30D
330
A3
100
AcDbEntity
  8
0 - Systemaufbauten
  6
Continuous
 62
     7
370
     0
100
AcDbLine
 10
633.7364903813641
 20
856.6257182221852
 30
0.0
 11
633.7364903813641
 21
846.6257182221852
 31
0.0
  0
LINE
  5
30E
330
A3
100
AcDbEntity
  8
0 - Systemaufbauten
  6
Continuous
 62
     7
370
     0
100
AcDbLine
 10
733.7364903813641
 20
856.6257182221852
 30
0.0
 11
733.7364903813641
 21
846.6257182221852
 31
0.0
  0
LINE
  5
30F
330
A3
100
AcDbEntity
  8
0 - Systemaufbauten
  6
Continuous
 62
     7
370
     0
100
AcDbLine
 10
833.7364903813632
 20
856.6257182221852
 30
0.0
 11
833.7364903813632
 21
846.6257182221852
 31
0.0
  0
LINE
  5
310
330
A3
100
AcDbEntity
  8
0 - Systemaufbauten
  6
Continuous
 62
     7
370
     0
100
AcDbLine
 10
933.7364903813641
 20
856.6257182221852
 30
0.0
 11
933.7364903813641
 21
846.6257182221852
 31
0.0
  0
LINE
  5
311
330
A3
100
AcDbEntity
  8
0 - Systemaufbauten
  6
Continuous
 62
     7
370
     0
100
AcDbLine
 10
1033.736490381364
 20
856.6257182221852
 30
0.0
 11
1033.736490381364
 21
846.6257182221852
 31
0.0
  0
LINE
  5
312
330
A3
100
AcDbEntity
  8
0 - Systemaufbauten
  6
Continuous
 62
     7
370
     0
100
AcDbLine
 10
1133.736490381364
 20
856.6257182221852
 30
0.0
 11
1133.736490381364
 21
846.6257182221852
 31
0.0
  0
LINE
  5
313
330
A3
100
AcDbEntity
  8
0 - Systemaufbauten
  6
Continuous
 62
     7
370
     0
100
AcDbLine
 10
1233.736490381364
 20
856.6257182221852
 30
0.0
 11
1233.736490381364
 21
846.6257182221852
 31
0.0
  0
LINE
  5
314
330
A3
100
AcDbEntity
  8
0 - Systemaufbauten
  6
Continuous
 62
     7
370
     0
100
AcDbLine
 10
1333.736490381364
 20
856.6257182221852
 30
0.0
 11
1333.736490381364
 21
846.6257182221852
 31
0.0
  0
LINE
  5
315
330
A3
100
AcDbEntity
  8
0 - Systemaufbauten
  6
Continuous
 62
     7
370
     0
100
AcDbLine
 10
1433.736490381364
 20
856.6257182221852
 30
0.0
 11
1433.736490381364
 21
846.6257182221852
 31
0.0
  0
LINE
  5
316
330
A3
100
AcDbEntity
  8
0 - Systemaufbauten
  6
Continuous
 62
     7
370
     0
100
AcDbLine
 10
1533.736490381364
 20
856.6257182221852
 30
0.0
 11
1533.736490381364
 21
846.6257182221852
 31
0.0
  0
LINE
  5
317
330
A3
100
AcDbEntity
  8
0 - Systemaufbauten
  6
Continuous
 62
     7
370
     0
100
AcDbLine
 10
1633.736490381362
 20
856.6257182221852
 30
0.0
 11
1633.736490381362
 21
846.6257182221852
 31
0.0
  0
LINE
  5
318
330
A3
100
AcDbEntity
  8
0 - Systemaufbauten
  6
Continuous
 62
     7
370
     0
100
AcDbLine
 10
1733.736490381362
 20
856.6257182221852
 30
0.0
 11
1733.736490381362
 21
846.6257182221852
 31
0.0
  0
LINE
  5
319
330
A3
100
AcDbEntity
  8
0 - Systemaufbauten
  6
Continuous
 62
     7
370
     0
100
AcDbLine
 10
833.7364903813632
 20
1136.625718222185
 30
0.0
 11
833.7364903813632
 21
996.6257182221852
 31
0.0
  0
TEXT
  5
31A
330
A3
100
AcDbEntity
  8
0 - Systemaufbauten
  6
Continuous
 62
     7
370
     0
100
AcDbText
 10
1591.514159237359
 20
418.6235615708765
 30
0.0
 40
31.7785472869873
  1
Warmdach - Stahlbeton Fliesen auf Estrich
 41
0.7222222222222222
  7
Style0
100
AcDbText
  0
TEXT
  5
31B
330
A3
100
AcDbEntity
  8
0 - Systemaufbauten
  6
Continuous
 62
     7
370
     0
100
AcDbText
 10
1591.514159237359
 20
364.0180252386963
 30
0.0
 40
31.7785472869873
  1
oder Plattenbelag in Einkornmörtelbett - Plane lose verlegt
 41
0.7222222222222222
  7
Style0
100
AcDbText
  0
LINE
  5
31C
330
A3
100
AcDbEntity
  8
0 - Systemaufbauten
  6
Continuous
 62
     7
370
     0
100
AcDbLine
 10
333.7364903813641
 20
596.6257182221852
 30
0.0
 11
1078.736490381363
 21
596.6257182221852
 31
0.0
  0
LINE
  5
31D
330
A3
100
AcDbEntity
  8
0 - Systemaufbauten
  6
Continuous
 62
     7
370
     0
100
AcDbLine
 10
1088.736490381362
 20
596.6257182221852
 30
0.0
 11
1833.736490381362
 21
596.6257182221852
 31
0.0
  0
LINE
  5
31E
330
A3
100
AcDbEntity
  8
0 - Systemaufbauten
  6
Continuous
 62
     7
370
     0
100
AcDbLine
 10
333.7364903813641
 20
1156.625718222185
 30
0.0
 11
1078.736490381363
 21
1156.625718222185
 31
0.0
  0
LINE
  5
31F
330
A3
100
AcDbEntity
  8
0 - Systemaufbauten
  6
Continuous
 62
     7
370
     0
100
AcDbLine
 10
333.7364903813641
 20
1146.625718222185
 30
0.0
 11
1078.736490381363
 21
1146.625718222185
 31
0.0
  0
LINE
  5
320
330
A3
100
AcDbEntity
  8
0 - Systemaufbauten
  6
Continuous
 62
     7
370
     0
100
AcDbLine
 10
1088.736490381362
 20
1146.625718222185
 30
0.0
 11
1833.736490381362
 21
1146.625718222185
 31
0.0
  0
LINE
  5
321
330
A3
100
AcDbEntity
  8
0 - Systemaufbauten
  6
Continuous
 62
     7
370
     0
100
AcDbLine
 10
333.7364903813641
 20
1136.625718222185
 30
0.0
 11
1078.736490381363
 21
1136.625718222185
 31
0.0
  0
LINE
  5
322
330
A3
100
AcDbEntity
  8
0 - Systemaufbauten
  6
Continuous
 62
     7
370
     0
100
AcDbLine
 10
1088.736490381362
 20
1136.625718222185
 30
0.0
 11
1833.736490381362
 21
1136.625718222185
 31
0.0
  0
LINE
  5
323
330
A3
100
AcDbEntity
  8
0 - Systemaufbauten
  6
Continuous
 62
     7
370
     0
100
AcDbLine
 10
333.7364903813641
 20
846.6257182221852
 30
0.0
 11
1078.736490381363
 21
846.6257182221852
 31
0.0
  0
LINE
  5
324
330
A3
100
AcDbEntity
  8
0 - Systemaufbauten
  6
Continuous
 62
     7
370
     0
100
AcDbLine
 10
1088.736490381362
 20
846.6257182221852
 30
0.0
 11
1833.736490381362
 21
846.6257182221852
 31
0.0
  0
LINE
  5
325
330
A3
100
AcDbEntity
  8
0 - Systemaufbauten
  6
Continuous
 62
     7
370
     0
100
AcDbLine
 10
1333.736490381362
 20
996.6257182221852
 30
0.0
 11
1333.736490381362
 21
856.6257182221852
 31
0.0
  0
LINE
  5
326
330
A3
100
AcDbEntity
  8
0 - Systemaufbauten
  6
Continuous
 62
     7
370
     0
100
AcDbLine
 10
333.7364903813641
 20
856.6257182221852
 30
0.0
 11
1078.736490381363
 21
856.6257182221852
 31
0.0
  0
LINE
  5
327
330
A3
100
AcDbEntity
  8
0 - Systemaufbauten
  6
Continuous
 62
     7
370
     0
100
AcDbLine
 10
1088.736490381362
 20
856.6257182221852
 30
0.0
 11
1833.736490381362
 21
856.6257182221852
 31
0.0
  0
LINE
  5
328
330
A3
100
AcDbEntity
  8
0 - Systemaufbauten
  6
Continuous
 62
     7
370
     0
100
AcDbLine
 10
333.7364903813641
 20
846.6257182221852
 30
0.0
 11
1078.736490381363
 21
846.6257182221852
 31
0.0
  0
LINE
  5
329
330
A3
100
AcDbEntity
  8
0 - Systemaufbauten
  6
Continuous
 62
     7
370
     0
100
AcDbLine
 10
1088.736490381362
 20
846.6257182221852
 30
0.0
 11
1833.736490381362
 21
846.6257182221852
 31
0.0
  0
LINE
  5
32A
330
A3
100
AcDbEntity
  8
0 - Systemaufbauten
  6
Continuous
 62
     7
370
     0
100
AcDbLine
 10
333.7364903813641
 20
996.6257182221852
 30
0.0
 11
1078.736490381363
 21
996.6257182221852
 31
0.0
  0
LINE
  5
32B
330
A3
100
AcDbEntity
  8
0 - Systemaufbauten
  6
Continuous
 62
     7
370
     0
100
AcDbLine
 10
1088.736490381362
 20
996.6257182221852
 30
0.0
 11
1833.736490381362
 21
996.6257182221852
 31
0.0
  0
LINE
  5
32C
330
A3
100
AcDbEntity
  8
0 - Systemaufbauten
  6
Continuous
 62
     7
370
     0
100
AcDbLine
 10
1293.736490381362
 20
1241.625718222185
 30
0.0
 11
1293.736490381362
 21
1216.625718222185
 31
0.0
  0
LINE
  5
32D
330
A3
100
AcDbEntity
  8
0 - Systemaufbauten
  6
Continuous
 62
     7
370
     0
100
AcDbLine
 10
1698.736490381362
 20
1241.625718222185
 30
0.0
 11
1698.736490381362
 21
1216.625718222185
 31
0.0
  0
LINE
  5
32E
330
A3
100
AcDbEntity
  8
0 - Systemaufbauten
  6
Continuous
 62
     7
370
     0
100
AcDbLine
 10
1288.736490381362
 20
1216.625718222185
 30
0.0
 11
1288.736490381362
 21
1241.625718222185
 31
0.0
  0
LINE
  5
32F
330
A3
100
AcDbEntity
  8
0 - Systemaufbauten
  6
Continuous
 62
     7
370
     0
100
AcDbLine
 10
1088.736490381362
 20
1216.625718222185
 30
0.0
 11
1288.736490381362
 21
1216.625718222185
 31
0.0
  0
LINE
  5
330
330
A3
100
AcDbEntity
  8
0 - Systemaufbauten
  6
Continuous
 62
     7
370
     0
100
AcDbLine
 10
1088.736490381362
 20
1241.625718222185
 30
0.0
 11
1288.736490381362
 21
1241.625718222185
 31
0.0
  0
LINE
  5
331
330
A3
100
AcDbEntity
  8
0 - Systemaufbauten
  6
Continuous
 62
     7
370
     0
100
AcDbLine
 10
1293.736490381362
 20
1241.625718222185
 30
0.0
 11
1693.736490381362
 21
1241.625718222185
 31
0.0
  0
LINE
  5
332
330
A3
100
AcDbEntity
  8
0 - Systemaufbauten
  6
Continuous
 62
     7
370
     0
100
AcDbLine
 10
1698.736490381362
 20
1241.625718222185
 30
0.0
 11
1833.736490381362
 21
1241.625718222185
 31
0.0
  0
LINE
  5
333
330
A3
100
AcDbEntity
  8
0 - Systemaufbauten
  6
Continuous
 62
     7
370
     0
100
AcDbLine
 10
1293.736490381362
 20
1216.625718222185
 30
0.0
 11
1693.736490381362
 21
1216.625718222185
 31
0.0
  0
LINE
  5
334
330
A3
100
AcDbEntity
  8
0 - Systemaufbauten
  6
Continuous
 62
     7
370
     0
100
AcDbLine
 10
1698.736490381362
 20
1216.625718222185
 30
0.0
 11
1833.736490381362
 21
1216.625718222185
 31
0.0
  0
LINE
  5
335
330
A3
100
AcDbEntity
  8
0 - Systemaufbauten
  6
Continuous
 62
     7
370
     0
100
AcDbLine
 10
1693.736490381362
 20
1241.625718222185
 30
0.0
 11
1693.736490381362
 21
1216.625718222185
 31
0.0
  0
LINE
  5
336
330
A3
100
AcDbEntity
  8
0 - Systemaufbauten
  6
Continuous
 62
     7
370
     0
100
AcDbLine
 10
1288.736490381362
 20
1241.625718222185
 30
0.0
 11
1293.736490381362
 21
1241.625718222185
 31
0.0
  0
LINE
  5
337
330
A3
100
AcDbEntity
  8
0 - Systemaufbauten
  6
Continuous
 62
     7
370
     0
100
AcDbLine
 10
1698.736490381362
 20
1241.625718222185
 30
0.0
 11
1693.736490381362
 21
1241.625718222185
 31
0.0
  0
LINE
  5
338
330
A3
100
AcDbEntity
  8
0 - Systemaufbauten
  6
Continuous
 62
     7
370
     0
100
AcDbLine
 10
1088.736490381362
 20
1156.625718222183
 30
0.0
 11
1833.736490381362
 21
1156.625718222183
 31
0.0
  0
LINE
  5
339
330
A3
100
AcDbEntity
  8
0 - Systemaufbauten
  6
Continuous
 62
     7
370
     0
100
AcDbLine
 10
333.7364903813641
 20
1161.625718222185
 30
0.0
 11
1078.736490381363
 21
1161.625718222185
 31
0.0
  0
LINE
  5
33A
330
A3
100
AcDbEntity
  8
0 - Systemaufbauten
  6
Continuous
 62
     7
370
     0
100
AcDbLine
 10
333.7364903813641
 20
1166.625718222185
 30
0.0
 11
1078.736490381363
 21
1166.625718222185
 31
0.0
  0
LINE
  5
33B
330
A3
100
AcDbEntity
  8
0 - Systemaufbauten
  6
Continuous
 62
     7
370
     0
100
AcDbLine
 10
468.7364903813641
 20
1226.625718222185
 30
0.0
 11
468.7364903813641
 21
1232.625718222185
 31
0.0
  0
LINE
  5
33C
330
A3
100
AcDbEntity
  8
0 - Systemaufbauten
  6
Continuous
 62
     7
370
     0
100
AcDbLine
 10
473.7364903813632
 20
1226.625718222185
 30
0.0
 11
473.7364903813632
 21
1232.625718222185
 31
0.0
  0
LINE
  5
33D
330
A3
100
AcDbEntity
  8
0 - Systemaufbauten
  6
Continuous
 62
     7
370
     0
100
AcDbLine
 10
873.7364903813632
 20
1226.625718222185
 30
0.0
 11
873.7364903813632
 21
1232.625718222185
 31
0.0
  0
LINE
  5
33E
330
A3
100
AcDbEntity
  8
0 - Systemaufbauten
  6
Continuous
 62
     7
370
     0
100
AcDbLine
 10
878.7364903813632
 20
1226.625718222185
 30
0.0
 11
878.7364903813632
 21
1232.625718222185
 31
0.0
  0
LINE
  5
33F
330
A3
100
AcDbEntity
  8
0 - Systemaufbauten
  6
Continuous
 62
     7
370
     0
100
AcDbLine
 10
333.7364903813641
 20
1232.625718222185
 30
0.0
 11
468.7364903813641
 21
1232.625718222185
 31
0.0
  0
LINE
  5
340
330
A3
100
AcDbEntity
  8
0 - Systemaufbauten
  6
Continuous
 62
     7
370
     0
100
AcDbLine
 10
333.7364903813641
 20
1226.625718222185
 30
0.0
 11
468.7364903813641
 21
1226.625718222185
 31
0.0
  0
LINE
  5
341
330
A3
100
AcDbEntity
  8
0 - Systemaufbauten
  6
Continuous
 62
     7
370
     0
100
AcDbLine
 10
473.7364903813632
 20
1232.625718222185
 30
0.0
 11
873.7364903813632
 21
1232.625718222185
 31
0.0
  0
LINE
  5
342
330
A3
100
AcDbEntity
  8
0 - Systemaufbauten
  6
Continuous
 62
     7
370
     0
100
AcDbLine
 10
878.7364903813632
 20
1232.625718222185
 30
0.0
 11
1078.736490381363
 21
1232.625718222185
 31
0.0
  0
LINE
  5
343
330
A3
100
AcDbEntity
  8
0 - Systemaufbauten
  6
Continuous
 62
     7
370
     0
100
AcDbLine
 10
473.7364903813632
 20
1226.625718222185
 30
0.0
 11
873.7364903813632
 21
1226.625718222185
 31
0.0
  0
LINE
  5
344
330
A3
100
AcDbEntity
  8
0 - Systemaufbauten
  6
Continuous
 62
     7
370
     0
100
AcDbLine
 10
878.7364903813632
 20
1226.625718222185
 30
0.0
 11
1078.736490381363
 21
1226.625718222185
 31
0.0
  0
LINE
  5
345
330
A3
100
AcDbEntity
  8
0 - Systemaufbauten
  6
Continuous
 62
     7
370
     0
100
AcDbLine
 10
468.7364903813641
 20
1232.625718222185
 30
0.0
 11
473.7364903813632
 21
1232.625718222185
 31
0.0
  0
LINE
  5
346
330
A3
100
AcDbEntity
  8
0 - Systemaufbauten
  6
Continuous
 62
     7
370
     0
100
AcDbLine
 10
873.7364903813632
 20
1232.625718222185
 30
0.0
 11
878.7364903813632
 21
1232.625718222185
 31
0.0
  0
LINE
  5
347
330
A3
100
AcDbEntity
  8
0 - Systemaufbauten
  6
Continuous
 62
     7
370
     0
100
AcDbLine
 10
1633.736490381364
 20
646.643363551073
 30
0.0
 11
1633.736490381364
 21
1916.643363551075
 31
0.0
  0
LINE
  5
348
330
A3
100
AcDbEntity
  8
0 - Systemaufbauten
  6
Continuous
 62
     7
370
     0
100
AcDbLine
 10
533.7364903813641
 20
646.643363551073
 30
0.0
 11
533.7364903813641
 21
1916.643363551075
 31
0.0
  0
TEXT
  5
349
330
A3
100
AcDbEntity
  8
0 - Systemaufbauten
  6
Continuous
 62
     7
370
     0
100
AcDbText
 10
533.7364903813641
 20
1902.703553728508
 30
0.0
 40
31.7785472869873
  1
- Fliesen
 41
0.7222222222222222
  7
Style0
100
AcDbText
  0
TEXT
  5
34A
330
A3
100
AcDbEntity
  8
0 - Systemaufbauten
  6
Continuous
 62
     7
370
     0
100
AcDbText
 10
533.7364903813641
 20
1848.098017396329
 30
0.0
 40
31.7785472869873
  1
- Estrich
 41
0.7222222222222222
  7
Style0
100
AcDbText
  0
TEXT
  5
34B
330
A3
100
AcDbEntity
  8
0 - Systemaufbauten
  6
Continuous
 62
     7
370
     0
100
AcDbText
 10
533.7364903813641
 20
1793.492481064148
 30
0.0
 40
31.7785472869873
  1
- Gleitschicht (*1)
 41
0.7222222222222222
  7
Style0
100
AcDbText
  0
TEXT
  5
34C
330
A3
100
AcDbEntity
  8
0 - Systemaufbauten
  6
Continuous
 62
     7
370
     0
100
AcDbText
 10
533.7364903813641
 20
1738.886944731968
 30
0.0
 40
31.7785472869873
  1
- Schutzlage (*2)
 41
0.7222222222222222
  7
Style0
100
AcDbText
  0
TEXT
  5
34D
330
A3
100
AcDbEntity
  8
0 - Systemaufbauten
  6
Continuous
 62
    30
370
     0
100
AcDbText
 10
533.7364903813641
 20
1684.281408399789
 30
0.0
 40
31.7785472869873
  1
- COVERiT NOVOtan EPDM Plane 1,5 mm
 41
0.7222222222222222
  7
Style0
100
AcDbText
  0
TEXT
  5
34E
330
A3
100
AcDbEntity
  8
0 - Systemaufbauten
  6
Continuous
 62
     7
370
     0
100
AcDbText
 10
533.7364903813641
 20
1629.675872067608
 30
0.0
 40
31.7785472869873
  1
- Wärmedämmung (*3)
 41
0.7222222222222222
  7
Style0
100
AcDbText
  0
TEXT
  5
34F
330
A3
100
AcDbEntity
  8
0 - Systemaufbauten
  6
Continuous
 62
     7
370
     0
100
AcDbText
 10
533.7364903813641
 20
1575.070335735429
 30
0.0
 40
31.7785472869873
  1
- Dampfsperre (*4)
 41
0.7222222222222222
  7
Style0
100
AcDbText
  0
TEXT
  5
350
330
A3
100
AcDbEntity
  8
0 - Systemaufbauten
  6
Continuous
 62
     7
370
     0
100
AcDbText
 10
533.7364903813641
 20
1520.464799403249
 30
0.0
 40
31.7785472869873
  1
- Voranstrich
 41
0.7222222222222222
  7
Style0
100
AcDbText
  0
TEXT
  5
351
330
A3
100
AcDbEntity
  8
0 - Systemaufbauten
  6
Continuous
 62
     7
370
     0
100
AcDbText
 10
533.7364903813641
 20
1465.85926307107
 30
0.0
 40
31.7785472869873
  1
- Stahlbetondecke
 41
0.7222222222222222
  7
Style0
100
AcDbText
  0
TEXT
  5
352
330
A3
100
AcDbEntity
  8
0 - Systemaufbauten
  6
Continuous
 62
     7
370
     0
100
AcDbText
 10
1632.329231725885
 20
1902.918073563005
 30
0.0
 40
31.7785472869873
  1
- Plattenbelag
 41
0.7222222222222222
  7
Style0
100
AcDbText
  0
TEXT
  5
353
330
A3
100
AcDbEntity
  8
0 - Systemaufbauten
  6
Continuous
 62
     7
370
     0
100
AcDbText
 10
1632.329231725885
 20
1848.312537230826
 30
0.0
 40
31.7785472869873
  1
- Einkornmörtelbett
 41
0.7222222222222222
  7
Style0
100
AcDbText
  0
TEXT
  5
354
330
A3
100
AcDbEntity
  8
0 - Systemaufbauten
  6
Continuous
 62
     7
370
     0
100
AcDbText
 10
1632.329231725885
 20
1793.707000898647
 30
0.0
 40
31.7785472869873
  1
- Filtervlies- Noppenbahn Nophadrain
 41
0.7222222222222222
  7
Style0
100
AcDbText
  0
TEXT
  5
355
330
A3
100
AcDbEntity
  8
0 - Systemaufbauten
  6
Continuous
 62
    30
370
     0
100
AcDbText
 10
1632.329231725885
 20
1739.101464566465
 30
0.0
 40
31.7785472869873
  1
- COVERiT NOVOtan EPDM Plane 1,5 mm
 41
0.7222222222222222
  7
Style0
100
AcDbText
  0
TEXT
  5
356
330
A3
100
AcDbEntity
  8
0 - Systemaufbauten
  6
Continuous
 62
     7
370
     0
100
AcDbText
 10
1632.329231725885
 20
1684.495928234286
 30
0.0
 40
31.7785472869873
  1
- Wärmedämmung (*3)
 41
0.7222222222222222
  7
Style0
100
AcDbText
  0
TEXT
  5
357
330
A3
100
AcDbEntity
  8
0 - Systemaufbauten
  6
Continuous
 62
     7
370
     0
100
AcDbText
 10
1632.329231725885
 20
1629.890391902107
 30
0.0
 40
31.7785472869873
  1
- Dampfsperre (*4)
 41
0.7222222222222222
  7
Style0
100
AcDbText
  0
TEXT
  5
358
330
A3
100
AcDbEntity
  8
0 - Systemaufbauten
  6
Continuous
 62
     7
370
     0
100
AcDbText
 10
1632.329231725885
 20
1575.284855569927
 30
0.0
 40
31.7785472869873
  1
- Voranstrich
 41
0.7222222222222222
  7
Style0
100
AcDbText
  0
TEXT
  5
359
330
A3
100
AcDbEntity
  8
0 - Systemaufbauten
  6
Continuous
 62
     7
370
     0
100
AcDbText
 10
1632.329231725885
 20
1520.679319237746
 30
0.0
 40
31.7785472869873
  1
- Stahlbetondecke
 41
0.7222222222222222
  7
Style0
100
AcDbText
  0
TEXT
  5
35A
330
A3
100
AcDbEntity
  8
0 - Systemaufbauten
  6
Continuous
 62
     7
370
     0
100
AcDbText
 10
333.1287068307311
 20
469.5744487388001
 30
0.0
 40
31.7785472869873
  1
(*1) Gleitschicht 2-lagig lt. ÖNORM B 3691
 41
0.7222222222222222
  7
Style0
100
AcDbText
  0
TEXT
  5
35B
330
A3
100
AcDbEntity
  8
0 - Systemaufbauten
  6
Continuous
 62
     7
370
     0
100
AcDbText
 10
333.1287068307311
 20
414.9689124066208
 30
0.0
 40
31.7785472869873
  1
(*2) Schutzlage lt. ÖNORM B 3691 erforderlich
 41
0.7222222222222222
  7
Style0
100
AcDbText
  0
TEXT
  5
35C
330
A3
100
AcDbEntity
  8
0 - Systemaufbauten
  6
Continuous
 62
     7
370
     0
100
AcDbText
 10
333.1287068307311
 20
360.3633760744406
 30
0.0
 40
31.7785472869873
  1
(*3) Wärmedämmung entrechend druckfest,
 41
0.7222222222222222
  7
Style0
100
AcDbText
  0
TEXT
  5
35D
330
A3
100
AcDbEntity
  8
0 - Systemaufbauten
  6
Continuous
 62
     7
370
     0
100
AcDbText
 10
333.1287068307311
 20
305.7578397422612
 30
0.0
 40
31.7785472869873
  1
2-lagig lt. ÖNORM B 3691
 41
0.7222222222222222
  7
Style0
100
AcDbText
  0
TEXT
  5
35E
330
A3
100
AcDbEntity
  8
0 - Systemaufbauten
  6
Continuous
 62
     7
370
     0
100
AcDbText
 10
333.1287068307311
 20
251.152303410081
 30
0.0
 40
31.7785472869873
  1
(*4) Ohne bauphysikalische
 41
0.7222222222222222
  7
Style0
100
AcDbText
  0
TEXT
  5
35F
330
A3
100
AcDbEntity
  8
0 - Systemaufbauten
  6
Continuous
 62
     7
370
     0
100
AcDbText
 10
333.1287068307311
 20
196.5467670779017
 30
0.0
 40
31.7785472869873
  1
Berechnung, Dampfsperre >1000m sd-Wert
 41
0.7222222222222222
  7
Style0
100
AcDbText
  0
TEXT
  5
360
330
A3
100
AcDbEntity
  8
0 - Systemaufbauten
  6
Continuous
 62
     7
370
     0
100
AcDbText
 10
333.1287068307311
 20
141.9412307457214
 30
0.0
 40
31.7785472869873
  1
lt. ÖNORM B 3691 erforderlich
 41
0.7222222222222222
  7
Style0
100
AcDbText
  0
LINE
  5
361
330
A3
100
AcDbEntity
  8
0 - Systemaufbauten
  6
Continuous
 62
     7
370
     0
100
AcDbLine
 10
1078.736490381363
 20
546.6257182221843
 30
0.0
 11
1078.736490381363
 21
1341.625718222185
 31
0.0
  0
LINE
  5
362
330
A3
100
AcDbEntity
  8
0 - Systemaufbauten
  6
Continuous
 62
     7
370
     0
100
AcDbLine
 10
1088.736490381362
 20
546.6257182221843
 30
0.0
 11
1088.736490381362
 21
1341.625718222185
 31
0.0
  0
LINE
  5
363
330
A3
100
AcDbEntity
  8
0 - Systemaufbauten
  6
Continuous
 62
     7
370
     0
100
AcDbLine
 10
533.7364903813641
 20
646.643363551073
 30
0.0
 11
533.7364903813641
 21
546.6257182221843
 31
0.0
  0
LINE
  5
364
330
A3
100
AcDbEntity
  8
0 - Systemaufbauten
  6
Continuous
 62
     7
370
     0
100
AcDbLine
 10
1633.736490381364
 20
646.643363551073
 30
0.0
 11
1633.736490381364
 21
546.6257182221843
 31
0.0
  0
IMAGE
  5
365
330
A3
100
AcDbEntity
  8
00_Allgemein - Systemaufbauten
  6
Continuous
 62
     7
370
     0
 92
      140
310
8C00000001000000840000000600000005000000D6F2567DD531A34040D80601AAE765400000000000000000D6F2565DA6BCA64040D80601AAE765400000000000000000D6F2565DA6BCA640206C8310D86A74400000000000000000D6F2567DD531A340206C8310D86A74400000000000000000D6F2567DD531A34040D806
310
01AAE765400000000000000000
100
AcDbRasterImage
 90
        0
 10
2456.916971890586
 20
175.2395024427115
 30
0.0
 11
0.2876954054469384
 21
0.0
 31
0.0
 12
0.0
 22
0.2873591037583758
 32
0.0
 13
1576.0
 23
527.0
340
A2
 70
     3
280
     0
281
    50
282
    50
283
     0
360
0
 71
     1
 91
        2
 14
-0.5
 24
-0.5
 14
1575.5
 24
526.5
  0
HATCH
  5
366
330
A3
100
AcDbEntity
  8
0 - Systemaufbauten
  6
Continuous
 62
     7
370
     0
100
AcDbHatch
 10
0.0
 20
0.0
 30
0.0
210
0.0
220
0.0
230
1.0
  2
SOLID
 70
     1
 71
     0
 91
        1
 92
        0
 93
        4
 72
     1
 10
333.7364903813641
 20
856.6257182221852
 11
433.7364903813641
 21
856.6257182221852
 72
     1
 10
433.7364903813641
 20
856.6257182221852
 11
433.7364903813641
 21
846.6257182221852
 72
     1
 10
433.7364903813641
 20
846.6257182221852
 11
333.7364903813641
 21
846.6257182221852
 72
     1
 10
333.7364903813641
 20
846.6257182221852
 11
333.7364903813641
 21
856.6257182221852
 97
        0
 75
     0
 76
     1
 98
        0
  0
ENDBLK
  5
369
330
A3
100
AcDbEntity
  8
0
100
AcDbBlockEnd
  0
ENDSEC
  0
SECTION
  2
ENTITIES
  0
IMAGE
  5
9F
330
1F
100
AcDbEntity
  8
00_Allgemein - Systemaufbauten
  6
Continuous
 62
     7
370
     0
 92
      140
310
8C00000001000000840000000600000005000000D6F2567DD531A34040D80601AAE765400000000000000000D6F2565DA6BCA64040D80601AAE765400000000000000000D6F2565DA6BCA640206C8310D86A74400000000000000000D6F2567DD531A340206C8310D86A74400000000000000000D6F2567DD531A34040D806
310
01AAE765400000000000000000
100
AcDbRasterImage
 90
        0
 10
2456.916971890586
 20
175.2395024427115
 30
0.0
 11
0.2876954054469384
 21
0.0
 31
0.0
 12
0.0
 22
0.2873591037583758
 32
0.0
 13
1576.0
 23
527.0
340
9E
 70
     3
280
     0
281
    50
282
    50
283
     0
360
A0
 71
     1
 91
        2
 14
-0.5
 24
-0.5
 14
1575.5
 24
526.5
  0
INSERT
  5
367
330
1F
100
AcDbEntity
  8
00_Allgemein - Systemaufbauten
  6
Continuous
 62
     7
370
     0
100
AcDbBlockReference
  2
dokument systemaufbauten.asc(id_1)
 10
0.0
 20
0.0
 30
0.0
  0
ENDSEC
  0
SECTION
  2
OBJECTS
  0
DICTIONARY
  5
C
330
0
100
AcDbDictionary
281
     1
  3
ACAD_DETAILVIEWSTYLE
350
3AF
  3
ACAD_GROUP
350
D
  3
ACAD_IMAGE_DICT
350
9D
  3
ACAD_LAYOUT
350
1A
  3
ACAD_MATERIAL
350
43
  3
ACAD_MLEADERSTYLE
350
6B
  3
ACAD_MLINESTYLE
350
17
  3
ACAD_PLOTSETTINGS
350
19
  3
ACAD_PLOTSTYLENAME
350
E
  3
ACAD_SCALELIST
350
47
  3
ACAD_SECTIONVIEWSTYLE
350
3B0
  3
ACAD_TABLESTYLE
350
69
  3
ACAD_VISUALSTYLE
350
2A
  3
ACDB_RECOMPOSE_DATA
350
3AC
  3
AcDbVariableDictionary
350
36C
  0
DICTIONARY
  5
36A
330
8
100
AcDbDictionary
280
     1
281
     1
  3
ACAD_XREC_ROUNDTRIP
360
36B
  0
IMAGEDEF_REACTOR
  5
A0
330
9F
100
AcDbRasterImageDefReactor
 90
        2
330
9F
  0
DICTIONARY
  5
3AF
102
{ACAD_REACTORS
330
C
102
}
330
C
100
AcDbDictionary
281
     1
  0
DICTIONARY
  5
D
102
{ACAD_REACTORS
330
C
102
}
330
C
100
AcDbDictionary
281
     1
  0
DICTIONARY
  5
9D
102
{ACAD_REACTORS
330
C
102
}
330
C
100
AcDbDictionary
281
     1
  3
Image0
350
9E
  3
Image1
350
A2
  0
DICTIONARY
  5
1A
102
{ACAD_REACTORS
330
C
102
}
330
C
100
AcDbDictionary
281
     1
  3
Layout1
350
1E
  3
Layout2
350
26
  3
Model
350
22
  0
DICTIONARY
  5
43
102
{ACAD_REACTORS
330
C
102
}
330
C
100
AcDbDictionary
281
     1
  3
ByBlock
350
45
  3
ByLayer
350
44
  3
Global
350
46
  0
DICTIONARY
  5
6B
102
{ACAD_REACTORS
330
C
102
}
330
C
100
AcDbDictionary
281
     1
  3
Standard
350
6C
  0
DICTIONARY
  5
17
102
{ACAD_REACTORS
330
C
102
}
330
C
100
AcDbDictionary
281
     1
  3
Standard
350
18
  0
DICTIONARY
  5
19
102
{ACAD_REACTORS
330
C
102
}
330
C
100
AcDbDictionary
281
     1
  0
ACDBDICTIONARYWDFLT
  5
E
102
{ACAD_REACTORS
330
C
102
}
330
C
100
AcDbDictionary
281
     1
  3
Normal
350
F
100
AcDbDictionaryWithDefault
340
F
  0
DICTIONARY
  5
47
102
{ACAD_REACTORS
330
C
102
}
330
C
100
AcDbDictionary
281
     1
  3
A0
350
48
  3
A1
350
49
  3
A2
350
4A
  3
A3
350
4B
  3
A4
350
4C
  3
A5
350
4D
  3
A6
350
4E
  3
A7
350
4F
  3
A8
350
50
  3
A9
350
51
  3
B0
350
52
  3
B1
350
53
  3
B2
350
54
  3
B3
350
55
  3
B4
350
56
  3
B5
350
57
  3
B6
350
58
  3
B7
350
59
  3
B8
350
5A
  3
B9
350
5B
  3
C0
350
5C
  3
C1
350
5D
  3
C2
350
5E
  3
C3
350
5F
  3
C4
350
60
  3
C5
350
61
  3
C6
350
62
  3
C7
350
63
  3
C8
350
64
  3
C9
350
65
  3
D0
350
66
  3
D1
350
67
  3
D2
350
68
  0
DICTIONARY
  5
3B0
102
{ACAD_REACTORS
330
C
102
}
330
C
100
AcDbDictionary
281
     1
  0
DICTIONARY
  5
69
102
{ACAD_REACTORS
330
C
102
}
330
C
100
AcDbDictionary
281
     1
  3
Standard
350
6A
  0
DICTIONARY
  5
2A
102
{ACAD_REACTORS
330
C
102
}
330
C
100
AcDbDictionary
281
     1
  3
2dWireframe
350
2F
  3
Basic
350
32
  3
Brighten
350
36
  3
ColorChange
350
3A
  3
Conceptual
350
34
  3
Dim
350
35
  3
EdgeColorOff
350
3D
  3
Facepattern
350
39
  3
Flat
350
2B
  3
FlatWithEdges
350
2C
  3
Gouraud
350
2D
  3
GouraudWithEdges
350
2E
  3
Hidden
350
31
  3
JitterOff
350
3B
  3
Linepattern
350
38
  3
OverhangOff
350
3C
  3
Realistic
350
33
  3
Shaded
350
42
  3
Shaded with edges
350
41
  3
Shades of Gray
350
3E
  3
Sketchy
350
3F
  3
Thicken
350
37
  3
Wireframe
350
30
  3
X-Ray
350
40
  0
XRECORD
  5
3AC
102
{ACAD_REACTORS
330
C
102
}
330
C
100
AcDbXrecord
280
     1
 90
        1
330
6A
  0
DICTIONARY
  5
36C
102
{ACAD_REACTORS
330
C
102
}
330
C
100
AcDbDictionary
281
     1
  3
CANNOSCALE
350
36D
  3
CMLEADERSTYLE
350
3AE
  3
CTABLESTYLE
350
3AD
  3
MSLTSCALE
350
36E
  3
XCLIPFRAME
350
36F
  0
XRECORD
  5
36B
102
{ACAD_REACTORS
330
36A
102
}
330
36A
100
AcDbXrecord
280
     1
102
VTR_0.000_0.000_1.000_1.000_VISUALSTYLE
340
2F
102
VTR_0.000_0.000_1.000_1.000_GRIDDISPLAY
 70
     3
102
VTR_0.000_0.000_1.000_1.000_GRIDMAJOR
 70
     5
102
VTR_0.000_0.000_1.000_1.000_DEFAULTLIGHTING
280
     1
102
VTR_0.000_0.000_1.000_1.000_DEFAULTLIGHTINGTYPE
 70
     1
102
VTR_0.000_0.000_1.000_1.000_BRIGHTNESS
141
0.0
102
VTR_0.000_0.000_1.000_1.000_CONTRAST
142
0.0
  0
IMAGEDEF
  5
9E
102
{ACAD_REACTORS
330
9D
330
A0
102
}
330
9D
100
AcDbRasterImageDef
 90
        0
  1
__ID13_Coverit+www.jpg
 10
1576.0
 20
527.0
 11
0.0006345177664974619
 21
0.0006345177664974619
280
     1
281
     1
  0
IMAGEDEF
  5
A2
102
{ACAD_REACTORS
330
9D
102
}
330
9D
100
AcDbRasterImageDef
 90
        0
  1
__ID13_Coverit+www.jpg
 10
1576.0
 20
527.0
 11
0.0006345177664974619
 21
0.0006345177664974619
280
     1
281
     1
  0
LAYOUT
  5
1E
102
{ACAD_REACTORS
330
1A
102
}
330
1A
100
AcDbPlotSettings
  1

  2
none_device
  4

  6

 40
0.0
 41
0.0
 42
0.0
 43
0.0
 44
0.0
 45
0.0
 46
0.0
 47
0.0
 48
0.0
 49
0.0
140
0.0
141
0.0
142
1.0
143
1.0
 70
   688
 72
     0
 73
     0
 74
     5
  7

 75
    16
 76
     0
 77
     2
 78
   300
147
1.0
148
0.0
149
0.0
100
AcDbLayout
  1
Layout1
 70
     1
 71
     1
 10
0.0
 20
0.0
 11
12.0
 21
9.0
 12
0.0
 22
0.0
 32
0.0
 14
1.000000000000000E+20
 24
1.000000000000000E+20
 34
1.000000000000000E+20
 15
-1.000000000000000E+20
 25
-1.000000000000000E+20
 35
-1.000000000000000E+20
146
0.0
 13
0.0
 23
0.0
 33
0.0
 16
1.0
 26
0.0
 36
0.0
 17
0.0
 27
1.0
 37
0.0
 76
     0
330
1B
  0
LAYOUT
  5
26
102
{ACAD_REACTORS
330
1A
102
}
330
1A
100
AcDbPlotSettings
  1

  2
none_device
  4

  6

 40
0.0
 41
0.0
 42
0.0
 43
0.0
 44
0.0
 45
0.0
 46
0.0
 47
0.0
 48
0.0
 49
0.0
140
0.0
141
0.0
142
1.0
143
1.0
 70
   688
 72
     0
 73
     0
 74
     5
  7

 75
    16
 76
     0
 77
     2
 78
   300
147
1.0
148
0.0
149
0.0
100
AcDbLayout
  1
Layout2
 70
     1
 71
     2
 10
0.0
 20
0.0
 11
0.0
 21
0.0
 12
0.0
 22
0.0
 32
0.0
 14
0.0
 24
0.0
 34
0.0
 15
0.0
 25
0.0
 35
0.0
146
0.0
 13
0.0
 23
0.0
 33
0.0
 16
1.0
 26
0.0
 36
0.0
 17
0.0
 27
1.0
 37
0.0
 76
     0
330
23
  0
LAYOUT
  5
22
102
{ACAD_REACTORS
330
1A
102
}
330
1A
100
AcDbPlotSettings
  1

  2
none_device
  4
Letter_(8.50_x_11.00_Inches)
  6

 40
6.35
 41
6.35
 42
6.35000508
 43
6.35000508
 44
215.9
 45
279.4
 46
0.0
 47
0.0
 48
0.0
 49
0.0
140
0.0
141
0.0
142
1.0
143
1.0
 70
  1712
 72
     0
 73
     0
 74
     0
  7

 75
     0
 76
     0
 77
     2
 78
   300
147
1.0
148
0.0
149
0.0
100
AcDbLayout
  1
Model
 70
     1
 71
     0
 10
0.0
 20
0.0
 11
12.0
 21
9.0
 12
0.0
 22
0.0
 32
0.0
 14
1.220070422535173
 24
0.9586267605636749
 34
0.0
 15
2971.220070422535
 25
2100.958626760564
 35
0.0
146
0.0
 13
0.0
 23
0.0
 33
0.0
 16
1.0
 26
0.0
 36
0.0
 17
0.0
 27
1.0
 37
0.0
 76
     0
330
1F
331
29
  0
MATERIAL
  5
45
102
{ACAD_REACTORS
330
43
102
}
102
{ACAD_XDICTIONARY
360
3A2
102
}
330
43
100
AcDbMaterial
  1
ByBlock
  0
MATERIAL
  5
44
102
{ACAD_REACTORS
330
43
102
}
102
{ACAD_XDICTIONARY
360
3A0
102
}
330
43
100
AcDbMaterial
  1
ByLayer
  0
MATERIAL
  5
46
102
{ACAD_REACTORS
330
43
102
}
102
{ACAD_XDICTIONARY
360
3A4
102
}
330
43
100
AcDbMaterial
  1
Global
  0
MLEADERSTYLE
  5
6C
102
{ACAD_REACTORS
330
6B
102
}
102
{ACAD_XDICTIONARY
360
3AA
102
}
330
6B
100
AcDbMLeaderStyle
170
     2
171
     1
172
     0
 90
        2
 40
0.0
 41
0.0
173
     1
 91
-1056964608
340
14
 92
       -2
290
     1
 42
0.09
291
     1
 43
0.36
  3
Standard
341
0
 44
0.18
300

342
11
174
     1
178
     6
175
     1
176
     0
 93
-1056964608
 45
0.18
292
     0
297
     0
 46
0.18
343
0
 94
-1056964608
 47
1.0
 49
1.0
140
1.0
293
     1
141
0.0
294
     1
177
     0
142
1.0
295
     0
296
     0
143
0.125
1001
ACAD_MLEADERVER
1070
     2
  0
MLINESTYLE
  5
18
102
{ACAD_REACTORS
330
17
102
}
330
17
100
AcDbMlineStyle
  2
Standard
 70
     0
  3

 62
   256
 51
90.0
 52
90.0
 71
     2
 49
0.5
 62
   256
  6
BYLAYER
 49
-0.5
 62
   256
  6
BYLAYER
  0
ACDBPLACEHOLDER
  5
F
102
{ACAD_REACTORS
330
E
102
}
330
E
  0
SCALE
  5
48
102
{ACAD_REACTORS
330
47
102
}
330
47
100
AcDbScale
 70
     0
300
1:1
140
1.0
141
1.0
290
     1
  0
SCALE
  5
49
102
{ACAD_REACTORS
330
47
102
}
330
47
100
AcDbScale
 70
     0
300
1:2
140
1.0
141
2.0
290
     0
  0
SCALE
  5
4A
102
{ACAD_REACTORS
330
47
102
}
330
47
100
AcDbScale
 70
     0
300
1:4
140
1.0
141
4.0
290
     0
  0
SCALE
  5
4B
102
{ACAD_REACTORS
330
47
102
}
330
47
100
AcDbScale
 70
     0
300
1:5
140
1.0
141
5.0
290
     0
  0
SCALE
  5
4C
102
{ACAD_REACTORS
330
47
102
}
330
47
100
AcDbScale
 70
     0
300
1:8
140
1.0
141
8.0
290
     0
  0
SCALE
  5
4D
102
{ACAD_REACTORS
330
47
102
}
330
47
100
AcDbScale
 70
     0
300
1:10
140
1.0
141
10.0
290
     0
  0
SCALE
  5
4E
102
{ACAD_REACTORS
330
47
102
}
330
47
100
AcDbScale
 70
     0
300
1:16
140
1.0
141
16.0
290
     0
  0
SCALE
  5
4F
102
{ACAD_REACTORS
330
47
102
}
330
47
100
AcDbScale
 70
     0
300
1:20
140
1.0
141
20.0
290
     0
  0
SCALE
  5
50
102
{ACAD_REACTORS
330
47
102
}
330
47
100
AcDbScale
 70
     0
300
1:30
140
1.0
141
30.0
290
     0
  0
SCALE
  5
51
102
{ACAD_REACTORS
330
47
102
}
330
47
100
AcDbScale
 70
     0
300
1:40
140
1.0
141
40.0
290
     0
  0
SCALE
  5
52
102
{ACAD_REACTORS
330
47
102
}
330
47
100
AcDbScale
 70
     0
300
1:50
140
1.0
141
50.0
290
     0
  0
SCALE
  5
53
102
{ACAD_REACTORS
330
47
102
}
330
47
100
AcDbScale
 70
     0
300
1:100
140
1.0
141
100.0
290
     0
  0
SCALE
  5
54
102
{ACAD_REACTORS
330
47
102
}
330
47
100
AcDbScale
 70
     0
300
2:1
140
2.0
141
1.0
290
     0
  0
SCALE
  5
55
102
{ACAD_REACTORS
330
47
102
}
330
47
100
AcDbScale
 70
     0
300
4:1
140
4.0
141
1.0
290
     0
  0
SCALE
  5
56
102
{ACAD_REACTORS
330
47
102
}
330
47
100
AcDbScale
 70
     0
300
8:1
140
8.0
141
1.0
290
     0
  0
SCALE
  5
57
102
{ACAD_REACTORS
330
47
102
}
330
47
100
AcDbScale
 70
     0
300
10:1
140
10.0
141
1.0
290
     0
  0
SCALE
  5
58
102
{ACAD_REACTORS
330
47
102
}
330
47
100
AcDbScale
 70
     0
300
100:1
140
100.0
141
1.0
290
     0
  0
SCALE
  5
59
102
{ACAD_REACTORS
330
47
102
}
330
47
100
AcDbScale
 70
     0
300
1/128" = 1'-0"
140
0.0078125
141
12.0
290
     0
  0
SCALE
  5
5A
102
{ACAD_REACTORS
330
47
102
}
330
47
100
AcDbScale
 70
     0
300
1/64" = 1'-0"
140
0.015625
141
12.0
290
     0
  0
SCALE
  5
5B
102
{ACAD_REACTORS
330
47
102
}
330
47
100
AcDbScale
 70
     0
300
1/32" = 1'-0"
140
0.03125
141
12.0
290
     0
  0
SCALE
  5
5C
102
{ACAD_REACTORS
330
47
102
}
330
47
100
AcDbScale
 70
     0
300
1/16" = 1'-0"
140
0.0625
141
12.0
290
     0
  0
SCALE
  5
5D
102
{ACAD_REACTORS
330
47
102
}
330
47
100
AcDbScale
 70
     0
300
3/32" = 1'-0"
140
0.09375
141
12.0
290
     0
  0
SCALE
  5
5E
102
{ACAD_REACTORS
330
47
102
}
330
47
100
AcDbScale
 70
     0
300
1/8" = 1'-0"
140
0.125
141
12.0
290
     0
  0
SCALE
  5
5F
102
{ACAD_REACTORS
330
47
102
}
330
47
100
AcDbScale
 70
     0
300
3/16" = 1'-0"
140
0.1875
141
12.0
290
     0
  0
SCALE
  5
60
102
{ACAD_REACTORS
330
47
102
}
330
47
100
AcDbScale
 70
     0
300
1/4" = 1'-0"
140
0.25
141
12.0
290
     0
  0
SCALE
  5
61
102
{ACAD_REACTORS
330
47
102
}
330
47
100
AcDbScale
 70
     0
300
3/8" = 1'-0"
140
0.375
141
12.0
290
     0
  0
SCALE
  5
62
102
{ACAD_REACTORS
330
47
102
}
330
47
100
AcDbScale
 70
     0
300
1/2" = 1'-0"
140
0.5
141
12.0
290
     0
  0
SCALE
  5
63
102
{ACAD_REACTORS
330
47
102
}
330
47
100
AcDbScale
 70
     0
300
3/4" = 1'-0"
140
0.75
141
12.0
290
     0
  0
SCALE
  5
64
102
{ACAD_REACTORS
330
47
102
}
330
47
100
AcDbScale
 70
     0
300
1" = 1'-0"
140
1.0
141
12.0
290
     0
  0
SCALE
  5
65
102
{ACAD_REACTORS
330
47
102
}
330
47
100
AcDbScale
 70
     0
300
1-1/2" = 1'-0"
140
1.5
141
12.0
290
     0
  0
SCALE
  5
66
102
{ACAD_REACTORS
330
47
102
}
330
47
100
AcDbScale
 70
     0
300
3" = 1'-0"
140
3.0
141
12.0
290
     0
  0
SCALE
  5
67
102
{ACAD_REACTORS
330
47
102
}
330
47
100
AcDbScale
 70
     0
300
6" = 1'-0"
140
6.0
141
12.0
290
     0
  0
SCALE
  5
68
102
{ACAD_REACTORS
330
47
102
}
330
47
100
AcDbScale
 70
     0
300
1'-0" = 1'-0"
140
12.0
141
12.0
290
     0
  0
TABLESTYLE
  5
6A
102
{ACAD_REACTORS
330
69
102
}
102
{ACAD_XDICTIONARY
360
3A6
102
}
330
69
100
AcDbTableStyle
  3
Standard
 70
     0
 71
     0
 40
0.06
 41
0.06
280
     0
281
     0
  7
Standard
140
0.18
170
     2
 62
     0
 63
   257
283
     0
274
    -2
284
     1
 64
     0
275
    -2
285
     1
 65
     0
276
    -2
286
     1
 66
     0
277
    -2
287
     1
 67
     0
278
    -2
288
     1
 68
     0
279
    -2
289
     1
 69
     0
  7
Standard
140
0.25
170
     5
 62
     0
 63
   257
283
     0
274
    -2
284
     1
 64
     0
275
    -2
285
     1
 65
     0
276
    -2
286
     1
 66
     0
277
    -2
287
     1
 67
     0
278
    -2
288
     1
 68
     0
279
    -2
289
     1
 69
     0
  7
Standard
140
0.18
170
     5
 62
     0
 63
   257
283
     0
274
    -2
284
     1
 64
     0
275
    -2
285
     1
 65
     0
276
    -2
286
     1
 66
     0
277
    -2
287
     1
 67
     0
278
    -2
288
     1
 68
     0
279
    -2
289
     1
 69
     0
  0
VISUALSTYLE
  5
2F
102
{ACAD_REACTORS
330
2A
102
}
102
{ACAD_XDICTIONARY
360
378
102
}
330
2A
100
AcDbVisualStyle
  2
2dWireframe
 70
     4
 71
     0
 72
     2
 73
     0
 90
        0
 40
0.6
 41
30.0
 62
     5
 63
     7
421
 16777215
 74
     1
 91
        4
 64
     7
 65
   257
 75
     1
175
     1
 42
1.0
 92
        0
 66
   257
 43
1.0
 76
     1
 77
     6
 78
     2
 67
     7
 79
     5
170
     0
171
     0
290
     0
174
     0
 93
        1
 44
0.0
173
     0
291
     0
 45
0.0
1001
ACAD
1000
AcDbSavedByObjectVersion
1070
     0
  0
VISUALSTYLE
  5
32
102
{ACAD_REACTORS
330
2A
102
}
102
{ACAD_XDICTIONARY
360
37E
102
}
330
2A
100
AcDbVisualStyle
  2
Basic
 70
     7
 71
     1
 72
     0
 73
     1
 90
        0
 40
0.6
 41
30.0
 62
     5
 63
     7
421
 16777215
 74
     0
 91
        4
 64
     7
 65
   257
 75
     1
175
     1
 42
1.0
 92
        8
 66
     7
 43
1.0
 76
     1
 77
     6
 78
     2
 67
     7
 79
     5
170
     0
171
     0
290
     0
174
     0
 93
        1
 44
0.0
173
     0
291
     1
 45
0.0
1001
ACAD
1000
AcDbSavedByObjectVersion
1070
     0
  0
VISUALSTYLE
  5
36
102
{ACAD_REACTORS
330
2A
102
}
102
{ACAD_XDICTIONARY
360
386
102
}
330
2A
100
AcDbVisualStyle
  2
Brighten
 70
    12
 71
     2
 72
     2
 73
     0
 90
        0
 40
0.6
 41
30.0
 62
     5
 63
     7
421
 16777215
 74
     1
 91
        4
 64
     7
 65
   257
 75
     1
175
     1
 42
1.0
 92
        8
 66
     7
 43
1.0
 76
     1
 77
     6
 78
     2
 67
     7
 79
     5
170
     0
171
     0
290
     0
174
     0
 93
        1
 44
50.0
173
     0
291
     1
 45
0.0
1001
ACAD
1000
AcDbSavedByObjectVersion
1070
     0
  0
VISUALSTYLE
  5
3A
102
{ACAD_REACTORS
330
2A
102
}
102
{ACAD_XDICTIONARY
360
38E
102
}
330
2A
100
AcDbVisualStyle
  2
ColorChange
 70
    16
 71
     2
 72
     2
 73
     3
 90
        0
 40
0.6
 41
30.0
 62
     5
 63
     8
421
  8421504
 74
     1
 91
        4
 64
     7
 65
   257
 75
     1
175
     1
 42
1.0
 92
        8
 66
     8
424
  8421504
 43
1.0
 76
     1
 77
     6
 78
     2
 67
     7
 79
     5
170
     0
171
     0
290
     0
174
     0
 93
        1
 44
0.0
173
     0
291
     1
 45
0.0
1001
ACAD
1000
AcDbSavedByObjectVersion
1070
     0
  0
VISUALSTYLE
  5
34
102
{ACAD_REACTORS
330
2A
102
}
102
{ACAD_XDICTIONARY
360
382
102
}
330
2A
100
AcDbVisualStyle
  2
Conceptual
 70
     9
 71
     3
 72
     2
 73
     0
 90
        0
 40
0.6
 41
30.0
 62
     5
 63
     7
421
 16777215
 74
     2
 91
        2
 64
     7
 65
   257
 75
     1
175
     1
 42
179.0
 92
        8
 66
     7
 43
1.0
 76
     1
 77
     6
 78
     2
 67
     7
 79
     3
170
     0
171
     0
290
     0
174
     0
 93
        1
 44
0.0
173
     0
291
     0
 45
0.0
1001
ACAD
1000
AcDbSavedByObjectVersion
1070
     0
  0
VISUALSTYLE
  5
35
102
{ACAD_REACTORS
330
2A
102
}
102
{ACAD_XDICTIONARY
360
384
102
}
330
2A
100
AcDbVisualStyle
  2
Dim
 70
    11
 71
     2
 72
     2
 73
     0
 90
        0
 40
0.6
 41
30.0
 62
     5
 63
     7
421
 16777215
 74
     1
 91
        4
 64
     7
 65
   257
 75
     1
175
     1
 42
1.0
 92
        8
 66
     7
 43
1.0
 76
     1
 77
     6
 78
     2
 67
     7
 79
     5
170
     0
171
     0
290
     0
174
     0
 93
        1
 44
-50.0
173
     0
291
     1
 45
0.0
1001
ACAD
1000
AcDbSavedByObjectVersion
1070
     0
  0
VISUALSTYLE
  5
3D
102
{ACAD_REACTORS
330
2A
102
}
102
{ACAD_XDICTIONARY
360
394
102
}
330
2A
100
AcDbVisualStyle
  2
EdgeColorOff
 70
    22
 71
     2
 72
     2
 73
     0
 90
        0
 40
0.6
 41
30.0
 62
     5
 63
     7
421
 16777215
 74
     1
 91
        4
 64
     7
 65
   257
 75
     1
175
     1
 42
1.0
 92
        8
 66
     7
 43
1.0
 76
     1
 77
     6
 78
     2
 67
     7
 79
     5
170
     0
171
     0
290
     0
174
     0
 93
        1
 44
0.0
173
     0
291
     1
 45
0.0
1001
ACAD
1000
AcDbSavedByObjectVersion
1070
     0
  0
VISUALSTYLE
  5
39
102
{ACAD_REACTORS
330
2A
102
}
102
{ACAD_XDICTIONARY
360
38C
102
}
330
2A
100
AcDbVisualStyle
  2
Facepattern
 70
    15
 71
     2
 72
     2
 73
     0
 90
        0
 40
0.6
 41
30.0
 62
     5
 63
     7
421
 16777215
 74
     1
 91
        4
 64
     7
 65
   257
 75
     1
175
     1
 42
1.0
 92
        8
 66
     7
 43
1.0
 76
     1
 77
     6
 78
     2
 67
     7
 79
     5
170
     0
171
     0
290
     0
174
     0
 93
        1
 44
0.0
173
     0
291
     1
 45
0.0
1001
ACAD
1000
AcDbSavedByObjectVersion
1070
     0
  0
VISUALSTYLE
  5
2B
102
{ACAD_REACTORS
330
2A
102
}
102
{ACAD_XDICTIONARY
360
370
102
}
330
2A
100
AcDbVisualStyle
  2
Flat
 70
     0
 71
     2
 72
     1
 73
     1
 90
        2
 40
0.6
 41
30.0
 62
     5
 63
     7
421
 16777215
 74
     0
 91
        0
 64
     7
 65
   257
 75
     1
175
     1
 42
1.0
 92
        8
 66
     7
 43
1.0
 76
     1
 77
     6
 78
     2
 67
     7
 79
     5
170
     0
171
     0
290
     0
174
     0
 93
       13
 44
0.0
173
     0
291
     1
 45
0.0
1001
ACAD
1000
AcDbSavedByObjectVersion
1070
     0
  0
VISUALSTYLE
  5
2C
102
{ACAD_REACTORS
330
2A
102
}
102
{ACAD_XDICTIONARY
360
372
102
}
330
2A
100
AcDbVisualStyle
  2
FlatWithEdges
 70
     1
 71
     2
 72
     1
 73
     1
 90
        2
 40
0.6
 41
30.0
 62
     5
 63
     7
421
 16777215
 74
     1
 91
        0
 64
     7
 65
   257
 75
     1
175
     1
 42
1.0
 92
        0
 66
   257
 43
1.0
 76
     1
 77
     6
 78
     2
 67
     7
 79
     5
170
     0
171
     0
290
     0
174
     0
 93
       13
 44
0.0
173
     0
291
     1
 45
0.0
1001
ACAD
1000
AcDbSavedByObjectVersion
1070
     0
  0
VISUALSTYLE
  5
2D
102
{ACAD_REACTORS
330
2A
102
}
102
{ACAD_XDICTIONARY
360
374
102
}
330
2A
100
AcDbVisualStyle
  2
Gouraud
 70
     2
 71
     2
 72
     2
 73
     1
 90
        2
 40
0.6
 41
30.0
 62
     5
 63
     7
421
 16777215
 74
     0
 91
        0
 64
     7
 65
   257
 75
     1
175
     1
 42
1.0
 92
        0
 66
     7
 43
1.0
 76
     1
 77
     6
 78
     2
 67
     7
 79
     5
170
     0
171
     0
290
     0
174
     0
 93
       13
 44
0.0
173
     0
291
     1
 45
0.0
1001
ACAD
1000
AcDbSavedByObjectVersion
1070
     0
  0
VISUALSTYLE
  5
2E
102
{ACAD_REACTORS
330
2A
102
}
102
{ACAD_XDICTIONARY
360
376
102
}
330
2A
100
AcDbVisualStyle
  2
GouraudWithEdges
 70
     3
 71
     2
 72
     2
 73
     1
 90
        2
 40
0.6
 41
30.0
 62
     5
 63
     7
421
 16777215
 74
     1
 91
        0
 64
     7
 65
   257
 75
     1
175
     1
 42
1.0
 92
        0
 66
   257
 43
1.0
 76
     1
 77
     6
 78
     2
 67
     7
 79
     5
170
     0
171
     0
290
     0
174
     0
 93
       13
 44
0.0
173
     0
291
     1
 45
0.0
1001
ACAD
1000
AcDbSavedByObjectVersion
1070
     0
  0
VISUALSTYLE
  5
31
102
{ACAD_REACTORS
330
2A
102
}
102
{ACAD_XDICTIONARY
360
37C
102
}
330
2A
100
AcDbVisualStyle
  2
Hidden
 70
     6
 71
     1
 72
     2
 73
     2
 90
        0
 40
0.6
 41
30.0
 62
     5
 63
     7
421
 16777215
 74
     2
 91
        2
 64
     7
 65
   257
 75
     2
175
     1
 42
40.0
 92
        0
 66
   257
 43
1.0
 76
     1
 77
     6
 78
     2
 67
     7
 79
     3
170
     0
171
     0
290
     0
174
     0
 93
        1
 44
0.0
173
     0
291
     0
 45
0.0
1001
ACAD
1000
AcDbSavedByObjectVersion
1070
     0
  0
VISUALSTYLE
  5
3B
102
{ACAD_REACTORS
330
2A
102
}
102
{ACAD_XDICTIONARY
360
390
102
}
330
2A
100
AcDbVisualStyle
  2
JitterOff
 70
    20
 71
     2
 72
     2
 73
     0
 90
        0
 40
0.6
 41
30.0
 62
     5
 63
     7
421
 16777215
 74
     1
 91
        4
 64
     7
 65
   257
 75
     1
175
     1
 42
1.0
 92
       10
 66
     7
 43
1.0
 76
     1
 77
     6
 78
     2
 67
     7
 79
     5
170
     0
171
     0
290
     0
174
     0
 93
        1
 44
0.0
173
     0
291
     1
 45
0.0
1001
ACAD
1000
AcDbSavedByObjectVersion
1070
     0
  0
VISUALSTYLE
  5
38
102
{ACAD_REACTORS
330
2A
102
}
102
{ACAD_XDICTIONARY
360
38A
102
}
330
2A
100
AcDbVisualStyle
  2
Linepattern
 70
    14
 71
     2
 72
     2
 73
     0
 90
        0
 40
0.6
 41
30.0
 62
     5
 63
     7
421
 16777215
 74
     1
 91
        4
 64
     7
 65
   257
 75
     7
175
     7
 42
1.0
 92
        8
 66
     7
 43
1.0
 76
     1
 77
     6
 78
     2
 67
     7
 79
     5
170
     0
171
     0
290
     0
174
     0
 93
        1
 44
0.0
173
     0
291
     1
 45
0.0
1001
ACAD
1000
AcDbSavedByObjectVersion
1070
     0
  0
VISUALSTYLE
  5
3C
102
{ACAD_REACTORS
330
2A
102
}
102
{ACAD_XDICTIONARY
360
392
102
}
330
2A
100
AcDbVisualStyle
  2
OverhangOff
 70
    21
 71
     2
 72
     2
 73
     0
 90
        0
 40
0.6
 41
30.0
 62
     5
 63
     7
421
 16777215
 74
     1
 91
        4
 64
     7
 65
   257
 75
     1
175
     1
 42
1.0
 92
        9
 66
     7
 43
1.0
 76
     1
 77
     6
 78
     2
 67
     7
 79
     5
170
     0
171
     0
290
     0
174
     0
 93
        1
 44
0.0
173
     0
291
     1
 45
0.0
1001
ACAD
1000
AcDbSavedByObjectVersion
1070
     0
  0
VISUALSTYLE
  5
33
102
{ACAD_REACTORS
330
2A
102
}
102
{ACAD_XDICTIONARY
360
380
102
}
330
2A
100
AcDbVisualStyle
  2
Realistic
 70
     8
 71
     2
 72
     3
 73
     0
 90
        2
 40
0.6
 41
30.0
 62
     5
 63
     7
421
 16777215
 74
     0
 91
        0
 64
     7
 65
   257
 75
     1
175
     1
 42
1.0
 92
        8
 66
   257
 43
1.0
 76
     1
 77
     6
 78
     2
 67
     7
 79
     3
170
     0
171
     0
290
     0
174
     0
 93
       13
 44
0.0
173
     0
291
     0
 45
0.0
1001
ACAD
1000
AcDbSavedByObjectVersion
1070
     0
  0
VISUALSTYLE
  5
42
102
{ACAD_REACTORS
330
2A
102
}
102
{ACAD_XDICTIONARY
360
39E
102
}
330
2A
100
AcDbVisualStyle
  2
Shaded
 70
    27
 71
     2
 72
     2
 73
     1
 90
        2
 40
0.6
 41
30.0
 62
     5
 63
     7
421
 16777215
 74
     0
 91
        4
 64
     7
 65
   257
 75
     1
175
     1
 42
1.0
 92
        8
 66
   257
 43
1.0
 76
     1
 77
     6
 78
     2
 67
     8
425
  7895160
 79
     3
170
     0
171
     0
290
     0
174
     0
 93
        5
 44
0.0
173
     0
291
     0
 45
0.0
1001
ACAD
1000
AcDbSavedByObjectVersion
1070
     0
  0
VISUALSTYLE
  5
41
102
{ACAD_REACTORS
330
2A
102
}
102
{ACAD_XDICTIONARY
360
39C
102
}
330
2A
100
AcDbVisualStyle
  2
Shaded with edges
 70
    26
 71
     2
 72
     2
 73
     1
 90
        2
 40
0.6
 41
30.0
 62
     5
 63
     7
421
 16777215
 74
     1
 91
       10
 64
     7
 65
   257
 75
     2
175
     1
 42
1.0
 92
        8
 66
   257
 43
1.0
 76
     1
 77
     6
 78
     2
 67
     7
 79
     3
170
     0
171
     0
290
     0
174
     0
 93
        5
 44
0.0
173
     0
291
     0
 45
0.0
1001
ACAD
1000
AcDbSavedByObjectVersion
1070
     0
  0
VISUALSTYLE
  5
3E
102
{ACAD_REACTORS
330
2A
102
}
102
{ACAD_XDICTIONARY
360
396
102
}
330
2A
100
AcDbVisualStyle
  2
Shades of Gray
 70
    23
 71
     2
 72
     2
 73
     3
 90
        0
 40
0.6
 41
30.0
 62
     5
 63
     7
421
 16777215
 74
     2
 91
        2
 64
     7
 65
     7
 75
     1
175
     1
 42
40.0
 92
        8
 66
     7
 43
1.0
 76
     1
 77
     6
 78
     2
 67
     7
 79
     3
170
     0
171
     0
290
     0
174
     0
 93
        1
 44
0.0
173
     0
291
     0
 45
0.0
1001
ACAD
1000
AcDbSavedByObjectVersion
1070
     0
  0
VISUALSTYLE
  5
3F
102
{ACAD_REACTORS
330
2A
102
}
102
{ACAD_XDICTIONARY
360
398
102
}
330
2A
100
AcDbVisualStyle
  2
Sketchy
 70
    24
 71
     1
 72
     2
 73
     2
 90
        0
 40
0.6
 41
30.0
 62
     5
 63
     7
421
 16777215
 74
     2
 91
        2
 64
     7
 65
     7
 75
     1
175
     1
 42
40.0
 92
       11
 66
     7
 43
1.0
 76
     1
 77
     6
 78
     2
 67
     7
 79
     6
170
     0
171
     0
290
     0
174
     0
 93
        1
 44
0.0
173
     0
291
     0
 45
0.0
1001
ACAD
1000
AcDbSavedByObjectVersion
1070
     0
  0
VISUALSTYLE
  5
37
102
{ACAD_REACTORS
330
2A
102
}
102
{ACAD_XDICTIONARY
360
388
102
}
330
2A
100
AcDbVisualStyle
  2
Thicken
 70
    13
 71
     2
 72
     2
 73
     0
 90
        0
 40
0.6
 41
30.0
 62
     5
 63
     7
421
 16777215
 74
     1
 91
        4
 64
     7
 65
   257
 75
     1
175
     1
 42
1.0
 92
       12
 66
     7
 43
1.0
 76
     1
 77
     6
 78
     2
 67
     7
 79
     5
170
     0
171
     0
290
     0
174
     0
 93
        1
 44
0.0
173
     0
291
     1
 45
0.0
1001
ACAD
1000
AcDbSavedByObjectVersion
1070
     0
  0
VISUALSTYLE
  5
30
102
{ACAD_REACTORS
330
2A
102
}
102
{ACAD_XDICTIONARY
360
37A
102
}
330
2A
100
AcDbVisualStyle
  2
Wireframe
 70
     5
 71
     0
 72
     2
 73
     0
 90
        0
 40
0.6
 41
30.0
 62
     5
 63
     7
421
 16777215
 74
     1
 91
        4
 64
     7
 65
   257
 75
     1
175
     1
 42
1.0
 92
        0
 66
   257
 43
1.0
 76
     1
 77
     6
 78
     2
 67
     7
 79
     3
170
     0
171
     0
290
     0
174
     0
 93
        1
 44
0.0
173
     0
291
     0
 45
0.0
1001
ACAD
1000
AcDbSavedByObjectVersion
1070
     0
  0
VISUALSTYLE
  5
40
102
{ACAD_REACTORS
330
2A
102
}
102
{ACAD_XDICTIONARY
360
39A
102
}
330
2A
100
AcDbVisualStyle
  2
X-Ray
 70
    25
 71
     2
 72
     2
 73
     1
 90
        1
 40
0.5
 41
30.0
 62
     5
 63
     7
421
 16777215
 74
     1
 91
        0
 64
     7
 65
   257
 75
     1
175
     1
 42
1.0
 92
        8
 66
     7
 43
1.0
 76
     1
 77
     6
 78
     2
 67
     7
 79
     3
170
     0
171
     0
290
     0
174
     0
 93
       13
 44
0.0
173
     0
291
     0
 45
0.0
1001
ACAD
1000
AcDbSavedByObjectVersion
1070
     0
  0
DICTIONARYVAR
  5
36D
102
{ACAD_REACTORS
330
36C
102
}
330
36C
100
DictionaryVariables
280
     0
  1
1:1
  0
DICTIONARYVAR
  5
3AE
102
{ACAD_REACTORS
330
36C
102
}
330
36C
100
DictionaryVariables
280
     0
  1
Standard
  0
DICTIONARYVAR
  5
3AD
102
{ACAD_REACTORS
330
36C
102
}
330
36C
100
DictionaryVariables
280
     0
  1
Standard
  0
DICTIONARYVAR
  5
36E
102
{ACAD_REACTORS
330
36C
102
}
330
36C
100
DictionaryVariables
280
     0
  1
1
  0
DICTIONARYVAR
  5
36F
102
{ACAD_REACTORS
330
36C
102
}
330
36C
100
DictionaryVariables
280
     0
  1
2
  0
DICTIONARY
  5
3A2
330
45
100
AcDbDictionary
280
     1
281
     1
  3
ACAD_XREC_ROUNDTRIP
360
3A3
  0
DICTIONARY
  5
3A0
330
44
100
AcDbDictionary
280
     1
281
     1
  3
ACAD_XREC_ROUNDTRIP
360
3A1
  0
DICTIONARY
  5
3A4
330
46
100
AcDbDictionary
280
     1
281
     1
  3
ACAD_XREC_ROUNDTRIP
360
3A5
  0
DICTIONARY
  5
3AA
330
6C
100
AcDbDictionary
280
     1
281
     1
  3
ACAD_XREC_ROUNDTRIP
360
3AB
  0
DICTIONARY
  5
3A6
330
6A
100
AcDbDictionary
280
     1
281
     1
  3
ACAD_ROUNDTRIP_2008_TABLESTYLE_CELLSTYLEMAP
360
3A8
  3
ACAD_XREC_ROUNDTRIP
360
3A7
  0
DICTIONARY
  5
378
330
2F
100
AcDbDictionary
280
     1
281
     1
  3
ACAD_XREC_ROUNDTRIP
360
379
  0
DICTIONARY
  5
37E
330
32
100
AcDbDictionary
280
     1
281
     1
  3
ACAD_XREC_ROUNDTRIP
360
37F
  0
DICTIONARY
  5
386
330
36
100
AcDbDictionary
280
     1
281
     1
  3
ACAD_XREC_ROUNDTRIP
360
387
  0
DICTIONARY
  5
38E
330
3A
100
AcDbDictionary
280
     1
281
     1
  3
ACAD_XREC_ROUNDTRIP
360
38F
  0
DICTIONARY
  5
382
330
34
100
AcDbDictionary
280
     1
281
     1
  3
ACAD_XREC_ROUNDTRIP
360
383
  0
DICTIONARY
  5
384
330
35
100
AcDbDictionary
280
     1
281
     1
  3
ACAD_XREC_ROUNDTRIP
360
385
  0
DICTIONARY
  5
394
330
3D
100
AcDbDictionary
280
     1
281
     1
  3
ACAD_XREC_ROUNDTRIP
360
395
  0
DICTIONARY
  5
38C
330
39
100
AcDbDictionary
280
     1
281
     1
  3
ACAD_XREC_ROUNDTRIP
360
38D
  0
DICTIONARY
  5
370
330
2B
100
AcDbDictionary
280
     1
281
     1
  3
ACAD_XREC_ROUNDTRIP
360
371
  0
DICTIONARY
  5
372
330
2C
100
AcDbDictionary
280
     1
281
     1
  3
ACAD_XREC_ROUNDTRIP
360
373
  0
DICTIONARY
  5
374
330
2D
100
AcDbDictionary
280
     1
281
     1
  3
ACAD_XREC_ROUNDTRIP
360
375
  0
DICTIONARY
  5
376
330
2E
100
AcDbDictionary
280
     1
281
     1
  3
ACAD_XREC_ROUNDTRIP
360
377
  0
DICTIONARY
  5
37C
330
31
100
AcDbDictionary
280
     1
281
     1
  3
ACAD_XREC_ROUNDTRIP
360
37D
  0
DICTIONARY
  5
390
330
3B
100
AcDbDictionary
280
     1
281
     1
  3
ACAD_XREC_ROUNDTRIP
360
391
  0
DICTIONARY
  5
38A
330
38
100
AcDbDictionary
280
     1
281
     1
  3
ACAD_XREC_ROUNDTRIP
360
38B
  0
DICTIONARY
  5
392
330
3C
100
AcDbDictionary
280
     1
281
     1
  3
ACAD_XREC_ROUNDTRIP
360
393
  0
DICTIONARY
  5
380
330
33
100
AcDbDictionary
280
     1
281
     1
  3
ACAD_XREC_ROUNDTRIP
360
381
  0
DICTIONARY
  5
39E
330
42
100
AcDbDictionary
280
     1
281
     1
  3
ACAD_XREC_ROUNDTRIP
360
39F
  0
DICTIONARY
  5
39C
330
41
100
AcDbDictionary
280
     1
281
     1
  3
ACAD_XREC_ROUNDTRIP
360
39D
  0
DICTIONARY
  5
396
330
3E
100
AcDbDictionary
280
     1
281
     1
  3
ACAD_XREC_ROUNDTRIP
360
397
  0
DICTIONARY
  5
398
330
3F
100
AcDbDictionary
280
     1
281
     1
  3
ACAD_XREC_ROUNDTRIP
360
399
  0
DICTIONARY
  5
388
330
37
100
AcDbDictionary
280
     1
281
     1
  3
ACAD_XREC_ROUNDTRIP
360
389
  0
DICTIONARY
  5
37A
330
30
100
AcDbDictionary
280
     1
281
     1
  3
ACAD_XREC_ROUNDTRIP
360
37B
  0
DICTIONARY
  5
39A
330
40
100
AcDbDictionary
280
     1
281
     1
  3
ACAD_XREC_ROUNDTRIP
360
39B
  0
XRECORD
  5
3A3
102
{ACAD_REACTORS
330
3A2
102
}
330
3A2
100
AcDbXrecord
280
     1
102
MATERIAL
148
0.0
149
0.0
149
0.0
 93
        0
 94
      127
282
     0
 72
     1
 77
     1
171
     1
175
     1
179
     1
273
     0
  0
XRECORD
  5
3A1
102
{ACAD_REACTORS
330
3A0
102
}
330
3A0
100
AcDbXrecord
280
     1
102
MATERIAL
148
0.0
149
0.0
149
0.0
 93
        0
 94
      127
282
     0
 72
     1
 77
     1
171
     1
175
     1
179
     1
273
     0
  0
XRECORD
  5
3A5
102
{ACAD_REACTORS
330
3A4
102
}
330
3A4
100
AcDbXrecord
280
     1
102
MATERIAL
148
0.0
149
0.0
149
0.0
 93
        0
 94
      127
282
     0
 72
     1
 77
     1
171
     1
175
     1
179
     1
273
     0
  0
XRECORD
  5
3AB
102
{ACAD_REACTORS
330
3AA
102
}
330
3AA
100
AcDbXrecord
280
     1
102
ACAD_ROUNDTRIP_2010_MLEADER_STYLE
  0
CELLSTYLEMAP
  5
3A8
102
{ACAD_REACTORS
330
3A6
102
}
330
3A6
100
AcDbCellStyleMap
 90
        3
300
CELLSTYLE
  1
TABLEFORMAT_BEGIN
 90
        5
170
     1
 91
        0
 92
    32768
 62
   257
 93
        1
300
CONTENTFORMAT
  1
CONTENTFORMAT_BEGIN
 90
        0
 91
        0
 92
        4
 93
        0
300

 40
0.0
140
1.0
 94
        5
 62
     0
340
11
144
0.25
309
CONTENTFORMAT_END
171
     1
301
MARGIN
  1
CELLMARGIN_BEGIN
 40
0.06
 40
0.06
 40
0.06
 40
0.06
 40
0.06
 40
0.06
309
CELLMARGIN_END
 94
        6
 95
        1
302
GRIDFORMAT
  1
GRIDFORMAT_BEGIN
 90
        0
 91
        1
 62
     0
 92
       -2
340
14
 93
        0
 40
0.045
309
GRIDFORMAT_END
 95
        2
302
GRIDFORMAT
  1
GRIDFORMAT_BEGIN
 90
        0
 91
        1
 62
     0
 92
       -2
340
14
 93
        0
 40
0.045
309
GRIDFORMAT_END
 95
        4
302
GRIDFORMAT
  1
GRIDFORMAT_BEGIN
 90
        0
 91
        1
 62
     0
 92
       -2
340
14
 93
        0
 40
0.045
309
GRIDFORMAT_END
 95
        8
302
GRIDFORMAT
  1
GRIDFORMAT_BEGIN
 90
        0
 91
        1
 62
     0
 92
       -2
340
14
 93
        0
 40
0.045
309
GRIDFORMAT_END
 95
       16
302
GRIDFORMAT
  1
GRIDFORMAT_BEGIN
 90
        0
 91
        1
 62
     0
 92
       -2
340
14
 93
        0
 40
0.045
309
GRIDFORMAT_END
 95
       32
302
GRIDFORMAT
  1
GRIDFORMAT_BEGIN
 90
        0
 91
        1
 62
     0
 92
       -2
340
14
 93
        0
 40
0.045
309
GRIDFORMAT_END
309
TABLEFORMAT_END
  1
CELLSTYLE_BEGIN
 90
        1
 91
        1
300
_TITLE
309
CELLSTYLE_END
300
CELLSTYLE
  1
TABLEFORMAT_BEGIN
 90
        5
170
     1
 91
        0
 92
        0
 62
   257
 93
        1
300
CONTENTFORMAT
  1
CONTENTFORMAT_BEGIN
 90
        0
 91
        0
 92
        4
 93
        0
300

 40
0.0
140
1.0
 94
        5
 62
     0
340
11
144
0.18
309
CONTENTFORMAT_END
171
     1
301
MARGIN
  1
CELLMARGIN_BEGIN
 40
0.06
 40
0.06
 40
0.06
 40
0.06
 40
0.06
 40
0.06
309
CELLMARGIN_END
 94
        6
 95
        1
302
GRIDFORMAT
  1
GRIDFORMAT_BEGIN
 90
        0
 91
        1
 62
     0
 92
       -2
340
14
 93
        0
 40
0.045
309
GRIDFORMAT_END
 95
        2
302
GRIDFORMAT
  1
GRIDFORMAT_BEGIN
 90
        0
 91
        1
 62
     0
 92
       -2
340
14
 93
        0
 40
0.045
309
GRIDFORMAT_END
 95
        4
302
GRIDFORMAT
  1
GRIDFORMAT_BEGIN
 90
        0
 91
        1
 62
     0
 92
       -2
340
14
 93
        0
 40
0.045
309
GRIDFORMAT_END
 95
        8
302
GRIDFORMAT
  1
GRIDFORMAT_BEGIN
 90
        0
 91
        1
 62
     0
 92
       -2
340
14
 93
        0
 40
0.045
309
GRIDFORMAT_END
 95
       16
302
GRIDFORMAT
  1
GRIDFORMAT_BEGIN
 90
        0
 91
        1
 62
     0
 92
       -2
340
14
 93
        0
 40
0.045
309
GRIDFORMAT_END
 95
       32
302
GRIDFORMAT
  1
GRIDFORMAT_BEGIN
 90
        0
 91
        1
 62
     0
 92
       -2
340
14
 93
        0
 40
0.045
309
GRIDFORMAT_END
309
TABLEFORMAT_END
  1
CELLSTYLE_BEGIN
 90
        2
 91
        1
300
_HEADER
309
CELLSTYLE_END
300
CELLSTYLE
  1
TABLEFORMAT_BEGIN
 90
        5
170
     1
 91
        0
 92
        0
 62
   257
 93
        1
300
CONTENTFORMAT
  1
CONTENTFORMAT_BEGIN
 90
        0
 91
        0
 92
        4
 93
        0
300

 40
0.0
140
1.0
 94
        2
 62
     0
340
11
144
0.18
309
CONTENTFORMAT_END
171
     1
301
MARGIN
  1
CELLMARGIN_BEGIN
 40
0.06
 40
0.06
 40
0.06
 40
0.06
 40
0.06
 40
0.06
309
CELLMARGIN_END
 94
        6
 95
        1
302
GRIDFORMAT
  1
GRIDFORMAT_BEGIN
 90
        0
 91
        1
 62
     0
 92
       -2
340
14
 93
        0
 40
0.045
309
GRIDFORMAT_END
 95
        2
302
GRIDFORMAT
  1
GRIDFORMAT_BEGIN
 90
        0
 91
        1
 62
     0
 92
       -2
340
14
 93
        0
 40
0.045
309
GRIDFORMAT_END
 95
        4
302
GRIDFORMAT
  1
GRIDFORMAT_BEGIN
 90
        0
 91
        1
 62
     0
 92
       -2
340
14
 93
        0
 40
0.045
309
GRIDFORMAT_END
 95
        8
302
GRIDFORMAT
  1
GRIDFORMAT_BEGIN
 90
        0
 91
        1
 62
     0
 92
       -2
340
14
 93
        0
 40
0.045
309
GRIDFORMAT_END
 95
       16
302
GRIDFORMAT
  1
GRIDFORMAT_BEGIN
 90
        0
 91
        1
 62
     0
 92
       -2
340
14
 93
        0
 40
0.045
309
GRIDFORMAT_END
 95
       32
302
GRIDFORMAT
  1
GRIDFORMAT_BEGIN
 90
        0
 91
        1
 62
     0
 92
       -2
340
14
 93
        0
 40
0.045
309
GRIDFORMAT_END
309
TABLEFORMAT_END
  1
CELLSTYLE_BEGIN
 90
        3
 91
        2
300
_DATA
309
CELLSTYLE_END
  0
XRECORD
  5
3A7
102
{ACAD_REACTORS
330
3A6
102
}
330
3A6
100
AcDbXrecord
280
     1
102
ACAD_ROUNDTRIP_PRE2007_TABLESTYLE
 90
        4
 91
        0
  1

 92
        4
 93
        0
  2

 94
        4
 95
        0
  3

  0
XRECORD
  5
379
102
{ACAD_REACTORS
330
378
102
}
330
378
100
AcDbXrecord
280
     1
102
RTVSPropertyOp0
 70
     1
102
RTVSPropertyOp1
 70
     1
102
RTVSPropertyOp2
 70
     1
102
RTVSPropertyOp3
 70
     1
102
RTVSPropertyOp4
 70
     1
102
RTVSPropertyOp5
 70
     1
102
RTVSPropertyOp6
 70
     1
102
RTVSPropertyOp7
 70
     1
102
RTVSPropertyOp8
 70
     1
102
RTVSPropertyOp9
 70
     1
102
RTVSPropertyOp10
 70
     1
102
RTVSPropertyOp11
 70
     1
102
RTVSPropertyOp12
 70
     1
102
RTVSPropertyOp13
 70
     1
102
RTVSPropertyOp14
 70
     1
102
RTVSPropertyOp15
 70
     1
102
RTVSPropertyOp16
 70
     1
102
RTVSPropertyOp17
 70
     1
102
RTVSPropertyOp18
 70
     1
102
RTVSPropertyOp19
 70
     1
102
RTVSPropertyOp20
 70
     1
102
RTVSPropertyOp21
 70
     1
102
RTVSPropertyOp22
 70
     1
102
RTVSPropertyOp23
 70
     1
102
RTVSPropertyOp24
 70
     1
102
RTVSPropertyOp25
 70
     1
102
RTVSPropertyOp26
 70
     1
102
RTVSPropertyOp27
 70
     1
102
RTVSPropertyOp28
 70
     1
102
RTVSPropertyOp29
 70
     1
102
RTVSPropertyOp30
 70
     1
102
RTVSPropertyOp31
 70
     1
102
RTVSPropertyOp32
 70
     1
102
RTVSPropertyOp33
 70
     1
102
RTVSPropertyOp34
 70
     1
102
RTVSPropertyOp35
 70
     1
102
RTVSPropertyOp36
 70
     1
102
RTVSPropertyOp37
 70
     1
102
RTVSPropertyOp38
 70
     1
102
RTVSPropertyOp39
 70
     1
102
RTVSPropertyOp40
 70
     1
102
RTVSPropertyOp41
 70
     1
102
RTVSPropertyOp42
 70
     1
102
RTVSPropertyOp43
 70
     1
102
RTVSPropertyOp44
 70
     1
102
RTVSPropertyOp45
 70
     1
102
RTVSPropertyOp46
 70
     1
102
RTVSPropertyOp47
 70
     1
102
RTVSPropertyOp48
 70
     1
102
RTVSPropertyOp49
 70
     1
102
RTVSPropertyOp50
 70
     1
102
RTVSPropertyOp51
 70
     0
102
RTVSPropertyOp52
 70
     0
102
RTVSPropertyOp53
 70
     1
102
RTVSPropertyOp54
 70
     1
102
RTVSPropertyOp55
 70
     1
102
RTVSPropertyOp56
 70
     1
102
RTVSPropertyOp57
 70
     1
102
RTVSPost2010Prop28
280
     1
102
RTVSPost2010PropOp28
 70
     1
102
RTVSPost2010Prop29
280
     1
102
RTVSPost2010PropOp29
 70
     1
102
RTVSPost2010Prop30
280
     0
102
RTVSPost2010PropOp30
 70
     1
102
RTVSPost2010Prop31
280
     0
102
RTVSPost2010PropOp31
 70
     1
102
RTVSPost2010Prop32
280
     0
102
RTVSPost2010PropOp32
 70
     1
102
RTVSPost2010Prop33
280
     0
102
RTVSPost2010PropOp33
 70
     1
102
RTVSPost2010Prop34
280
     0
102
RTVSPost2010PropOp34
 70
     1
102
RTVSPost2010Prop35
280
     0
102
RTVSPost2010PropOp35
 70
     1
102
RTVSPost2010Prop36
280
     0
102
RTVSPost2010PropOp36
 70
     1
102
RTVSPost2010Prop37
 90
       50
102
RTVSPost2010PropOp37
 70
     1
102
RTVSPost2010Prop38
140
0.0
102
RTVSPost2010PropOp38
 70
     1
102
RTVSPost2010Prop39
140
1.0
102
RTVSPost2010PropOp39
 70
     1
102
RTVSPost2010Prop40
 90
        0
102
RTVSPost2010PropOp40
 70
     1
102
RTVSPost2010Prop41ColorIndex
 90
       18
102
RTVSPost2010Prop41ColorRGB
 90
        0
102
RTVSPost2010PropOp41
 70
     1
102
RTVSPost2010Prop42
 90
       50
102
RTVSPost2010PropOp42
 70
     1
102
RTVSPost2010Prop43
 90
        3
102
RTVSPost2010PropOp43
 70
     1
102
RTVSPost2010Prop44ColorIndex
 90
        5
102
RTVSPost2010Prop44ColorRGB
 90
      255
102
RTVSPost2010PropOp44
 70
     1
102
RTVSPost2010Prop45
280
     0
102
RTVSPost2010PropOp45
 70
     1
102
RTVSPost2010Prop46
 90
       50
102
RTVSPost2010PropOp46
 70
     1
102
RTVSPost2010Prop47
 90
       50
102
RTVSPost2010PropOp47
 70
     1
102
RTVSPost2010Prop48
 90
       50
102
RTVSPost2010PropOp48
 70
     1
102
RTVSPost2010Prop49
280
     0
102
RTVSPost2010PropOp49
 70
     1
102
RTVSPost2010Prop50
 90
       50
102
RTVSPost2010PropOp50
 70
     1
102
RTVSPost2010Prop51ColorIndex
 90
      256
102
RTVSPost2010Prop51ColorRGB
 90
-16777216
102
RTVSPost2010PropOp51
 70
     0
102
RTVSPost2010Prop52
140
1.0
102
RTVSPost2010PropOp52
 70
     0
102
RTVSPost2010Prop53
 90
        2
102
RTVSPost2010PropOp53
 70
     1
102
RTVSPost2010Prop54
  1
strokes_ogs.tif
102
RTVSPost2010PropOp54
 70
     1
102
RTVSPost2010Prop55
280
     0
102
RTVSPost2010PropOp55
 70
     1
102
RTVSPost2010Prop56
140
1.0
102
RTVSPost2010PropOp56
 70
     1
102
RTVSPost2010Prop57
140
1.0
102
RTVSPost2010PropOp57
 70
     1
  0
XRECORD
  5
37F
102
{ACAD_REACTORS
330
37E
102
}
330
37E
100
AcDbXrecord
280
     1
102
RTVSPropertyOp0
 70
     1
102
RTVSPropertyOp1
 70
     1
102
RTVSPropertyOp2
 70
     1
102
RTVSPropertyOp3
 70
     1
102
RTVSPropertyOp4
 70
     1
102
RTVSPropertyOp5
 70
     1
102
RTVSPropertyOp6
 70
     1
102
RTVSPropertyOp7
 70
     1
102
RTVSPropertyOp8
 70
     1
102
RTVSPropertyOp9
 70
     1
102
RTVSPropertyOp10
 70
     1
102
RTVSPropertyOp11
 70
     1
102
RTVSPropertyOp12
 70
     1
102
RTVSPropertyOp13
 70
     1
102
RTVSPropertyOp14
 70
     1
102
RTVSPropertyOp15
 70
     1
102
RTVSPropertyOp16
 70
     1
102
RTVSPropertyOp17
 70
     1
102
RTVSPropertyOp18
 70
     1
102
RTVSPropertyOp19
 70
     1
102
RTVSPropertyOp20
 70
     1
102
RTVSPropertyOp21
 70
     1
102
RTVSPropertyOp22
 70
     1
102
RTVSPropertyOp23
 70
     1
102
RTVSPropertyOp24
 70
     1
102
RTVSPropertyOp25
 70
     1
102
RTVSPropertyOp26
 70
     1
102
RTVSPropertyOp27
 70
     1
102
RTVSPropertyOp28
 70
     1
102
RTVSPropertyOp29
 70
     1
102
RTVSPropertyOp30
 70
     1
102
RTVSPropertyOp31
 70
     1
102
RTVSPropertyOp32
 70
     1
102
RTVSPropertyOp33
 70
     1
102
RTVSPropertyOp34
 70
     1
102
RTVSPropertyOp35
 70
     1
102
RTVSPropertyOp36
 70
     1
102
RTVSPropertyOp37
 70
     1
102
RTVSPropertyOp38
 70
     1
102
RTVSPropertyOp39
 70
     1
102
RTVSPropertyOp40
 70
     1
102
RTVSPropertyOp41
 70
     1
102
RTVSPropertyOp42
 70
     1
102
RTVSPropertyOp43
 70
     1
102
RTVSPropertyOp44
 70
     1
102
RTVSPropertyOp45
 70
     1
102
RTVSPropertyOp46
 70
     1
102
RTVSPropertyOp47
 70
     1
102
RTVSPropertyOp48
 70
     1
102
RTVSPropertyOp49
 70
     1
102
RTVSPropertyOp50
 70
     1
102
RTVSPropertyOp51
 70
     0
102
RTVSPropertyOp52
 70
     0
102
RTVSPropertyOp53
 70
     1
102
RTVSPropertyOp54
 70
     1
102
RTVSPropertyOp55
 70
     1
102
RTVSPropertyOp56
 70
     1
102
RTVSPropertyOp57
 70
     1
102
RTVSPost2010Prop28
280
     0
102
RTVSPost2010PropOp28
 70
     1
102
RTVSPost2010Prop29
280
     1
102
RTVSPost2010PropOp29
 70
     1
102
RTVSPost2010Prop30
280
     1
102
RTVSPost2010PropOp30
 70
     1
102
RTVSPost2010Prop31
280
     0
102
RTVSPost2010PropOp31
 70
     1
102
RTVSPost2010Prop32
280
     0
102
RTVSPost2010PropOp32
 70
     1
102
RTVSPost2010Prop33
280
     0
102
RTVSPost2010PropOp33
 70
     1
102
RTVSPost2010Prop34
280
     0
102
RTVSPost2010PropOp34
 70
     1
102
RTVSPost2010Prop35
280
     0
102
RTVSPost2010PropOp35
 70
     1
102
RTVSPost2010Prop36
280
     0
102
RTVSPost2010PropOp36
 70
     1
102
RTVSPost2010Prop37
 90
       50
102
RTVSPost2010PropOp37
 70
     1
102
RTVSPost2010Prop38
140
0.0
102
RTVSPost2010PropOp38
 70
     1
102
RTVSPost2010Prop39
140
1.0
102
RTVSPost2010PropOp39
 70
     1
102
RTVSPost2010Prop40
 90
        0
102
RTVSPost2010PropOp40
 70
     1
102
RTVSPost2010Prop41ColorIndex
 90
       18
102
RTVSPost2010Prop41ColorRGB
 90
        0
102
RTVSPost2010PropOp41
 70
     1
102
RTVSPost2010Prop42
 90
       50
102
RTVSPost2010PropOp42
 70
     1
102
RTVSPost2010Prop43
 90
        3
102
RTVSPost2010PropOp43
 70
     1
102
RTVSPost2010Prop44ColorIndex
 90
        5
102
RTVSPost2010Prop44ColorRGB
 90
      255
102
RTVSPost2010PropOp44
 70
     1
102
RTVSPost2010Prop45
280
     0
102
RTVSPost2010PropOp45
 70
     1
102
RTVSPost2010Prop46
 90
       50
102
RTVSPost2010PropOp46
 70
     1
102
RTVSPost2010Prop47
 90
       50
102
RTVSPost2010PropOp47
 70
     1
102
RTVSPost2010Prop48
 90
       50
102
RTVSPost2010PropOp48
 70
     1
102
RTVSPost2010Prop49
280
     0
102
RTVSPost2010PropOp49
 70
     1
102
RTVSPost2010Prop50
 90
       50
102
RTVSPost2010PropOp50
 70
     1
102
RTVSPost2010Prop51ColorIndex
 90
      256
102
RTVSPost2010Prop51ColorRGB
 90
-16777216
102
RTVSPost2010PropOp51
 70
     0
102
RTVSPost2010Prop52
140
1.0
102
RTVSPost2010PropOp52
 70
     0
102
RTVSPost2010Prop53
 90
        2
102
RTVSPost2010PropOp53
 70
     1
102
RTVSPost2010Prop54
  1
strokes_ogs.tif
102
RTVSPost2010PropOp54
 70
     1
102
RTVSPost2010Prop55
280
     0
102
RTVSPost2010PropOp55
 70
     1
102
RTVSPost2010Prop56
140
1.0
102
RTVSPost2010PropOp56
 70
     1
102
RTVSPost2010Prop57
140
1.0
102
RTVSPost2010PropOp57
 70
     1
  0
XRECORD
  5
387
102
{ACAD_REACTORS
330
386
102
}
330
386
100
AcDbXrecord
280
     1
102
RTVSPropertyOp0
 70
     1
102
RTVSPropertyOp1
 70
     1
102
RTVSPropertyOp2
 70
     1
102
RTVSPropertyOp3
 70
     1
102
RTVSPropertyOp4
 70
     1
102
RTVSPropertyOp5
 70
     1
102
RTVSPropertyOp6
 70
     1
102
RTVSPropertyOp7
 70
     1
102
RTVSPropertyOp8
 70
     1
102
RTVSPropertyOp9
 70
     1
102
RTVSPropertyOp10
 70
     1
102
RTVSPropertyOp11
 70
     1
102
RTVSPropertyOp12
 70
     1
102
RTVSPropertyOp13
 70
     1
102
RTVSPropertyOp14
 70
     1
102
RTVSPropertyOp15
 70
     1
102
RTVSPropertyOp16
 70
     1
102
RTVSPropertyOp17
 70
     1
102
RTVSPropertyOp18
 70
     1
102
RTVSPropertyOp19
 70
     1
102
RTVSPropertyOp20
 70
     1
102
RTVSPropertyOp21
 70
     1
102
RTVSPropertyOp22
 70
     1
102
RTVSPropertyOp23
 70
     1
102
RTVSPropertyOp24
 70
     1
102
RTVSPropertyOp25
 70
     1
102
RTVSPropertyOp26
 70
     1
102
RTVSPropertyOp27
 70
     1
102
RTVSPropertyOp28
 70
     1
102
RTVSPropertyOp29
 70
     1
102
RTVSPropertyOp30
 70
     1
102
RTVSPropertyOp31
 70
     1
102
RTVSPropertyOp32
 70
     1
102
RTVSPropertyOp33
 70
     1
102
RTVSPropertyOp34
 70
     1
102
RTVSPropertyOp35
 70
     1
102
RTVSPropertyOp36
 70
     1
102
RTVSPropertyOp37
 70
     1
102
RTVSPropertyOp38
 70
     1
102
RTVSPropertyOp39
 70
     1
102
RTVSPropertyOp40
 70
     1
102
RTVSPropertyOp41
 70
     1
102
RTVSPropertyOp42
 70
     1
102
RTVSPropertyOp43
 70
     1
102
RTVSPropertyOp44
 70
     1
102
RTVSPropertyOp45
 70
     1
102
RTVSPropertyOp46
 70
     1
102
RTVSPropertyOp47
 70
     1
102
RTVSPropertyOp48
 70
     1
102
RTVSPropertyOp49
 70
     1
102
RTVSPropertyOp50
 70
     1
102
RTVSPropertyOp51
 70
     0
102
RTVSPropertyOp52
 70
     0
102
RTVSPropertyOp53
 70
     1
102
RTVSPropertyOp54
 70
     1
102
RTVSPropertyOp55
 70
     1
102
RTVSPropertyOp56
 70
     1
102
RTVSPropertyOp57
 70
     1
102
RTVSPost2010Prop28
280
     0
102
RTVSPost2010PropOp28
 70
     1
102
RTVSPost2010Prop29
280
     1
102
RTVSPost2010PropOp29
 70
     1
102
RTVSPost2010Prop30
280
     1
102
RTVSPost2010PropOp30
 70
     1
102
RTVSPost2010Prop31
280
     0
102
RTVSPost2010PropOp31
 70
     1
102
RTVSPost2010Prop32
280
     0
102
RTVSPost2010PropOp32
 70
     1
102
RTVSPost2010Prop33
280
     0
102
RTVSPost2010PropOp33
 70
     1
102
RTVSPost2010Prop34
280
     0
102
RTVSPost2010PropOp34
 70
     1
102
RTVSPost2010Prop35
280
     0
102
RTVSPost2010PropOp35
 70
     1
102
RTVSPost2010Prop36
280
     0
102
RTVSPost2010PropOp36
 70
     1
102
RTVSPost2010Prop37
 90
       50
102
RTVSPost2010PropOp37
 70
     1
102
RTVSPost2010Prop38
140
0.0
102
RTVSPost2010PropOp38
 70
     1
102
RTVSPost2010Prop39
140
1.0
102
RTVSPost2010PropOp39
 70
     1
102
RTVSPost2010Prop40
 90
        0
102
RTVSPost2010PropOp40
 70
     1
102
RTVSPost2010Prop41ColorIndex
 90
       18
102
RTVSPost2010Prop41ColorRGB
 90
        0
102
RTVSPost2010PropOp41
 70
     1
102
RTVSPost2010Prop42
 90
       50
102
RTVSPost2010PropOp42
 70
     1
102
RTVSPost2010Prop43
 90
        3
102
RTVSPost2010PropOp43
 70
     1
102
RTVSPost2010Prop44ColorIndex
 90
        5
102
RTVSPost2010Prop44ColorRGB
 90
      255
102
RTVSPost2010PropOp44
 70
     1
102
RTVSPost2010Prop45
280
     0
102
RTVSPost2010PropOp45
 70
     1
102
RTVSPost2010Prop46
 90
       50
102
RTVSPost2010PropOp46
 70
     1
102
RTVSPost2010Prop47
 90
       50
102
RTVSPost2010PropOp47
 70
     1
102
RTVSPost2010Prop48
 90
       50
102
RTVSPost2010PropOp48
 70
     1
102
RTVSPost2010Prop49
280
     0
102
RTVSPost2010PropOp49
 70
     1
102
RTVSPost2010Prop50
 90
       50
102
RTVSPost2010PropOp50
 70
     1
102
RTVSPost2010Prop51ColorIndex
 90
      256
102
RTVSPost2010Prop51ColorRGB
 90
-16777216
102
RTVSPost2010PropOp51
 70
     0
102
RTVSPost2010Prop52
140
1.0
102
RTVSPost2010PropOp52
 70
     0
102
RTVSPost2010Prop53
 90
        2
102
RTVSPost2010PropOp53
 70
     1
102
RTVSPost2010Prop54
  1
strokes_ogs.tif
102
RTVSPost2010PropOp54
 70
     1
102
RTVSPost2010Prop55
280
     0
102
RTVSPost2010PropOp55
 70
     1
102
RTVSPost2010Prop56
140
1.0
102
RTVSPost2010PropOp56
 70
     1
102
RTVSPost2010Prop57
140
1.0
102
RTVSPost2010PropOp57
 70
     1
  0
XRECORD
  5
38F
102
{ACAD_REACTORS
330
38E
102
}
330
38E
100
AcDbXrecord
280
     1
102
RTVSPropertyOp0
 70
     1
102
RTVSPropertyOp1
 70
     1
102
RTVSPropertyOp2
 70
     1
102
RTVSPropertyOp3
 70
     1
102
RTVSPropertyOp4
 70
     1
102
RTVSPropertyOp5
 70
     1
102
RTVSPropertyOp6
 70
     1
102
RTVSPropertyOp7
 70
     1
102
RTVSPropertyOp8
 70
     1
102
RTVSPropertyOp9
 70
     1
102
RTVSPropertyOp10
 70
     1
102
RTVSPropertyOp11
 70
     1
102
RTVSPropertyOp12
 70
     1
102
RTVSPropertyOp13
 70
     1
102
RTVSPropertyOp14
 70
     1
102
RTVSPropertyOp15
 70
     1
102
RTVSPropertyOp16
 70
     1
102
RTVSPropertyOp17
 70
     1
102
RTVSPropertyOp18
 70
     1
102
RTVSPropertyOp19
 70
     1
102
RTVSPropertyOp20
 70
     1
102
RTVSPropertyOp21
 70
     1
102
RTVSPropertyOp22
 70
     1
102
RTVSPropertyOp23
 70
     1
102
RTVSPropertyOp24
 70
     1
102
RTVSPropertyOp25
 70
     1
102
RTVSPropertyOp26
 70
     1
102
RTVSPropertyOp27
 70
     1
102
RTVSPropertyOp28
 70
     1
102
RTVSPropertyOp29
 70
     1
102
RTVSPropertyOp30
 70
     1
102
RTVSPropertyOp31
 70
     1
102
RTVSPropertyOp32
 70
     1
102
RTVSPropertyOp33
 70
     1
102
RTVSPropertyOp34
 70
     1
102
RTVSPropertyOp35
 70
     1
102
RTVSPropertyOp36
 70
     1
102
RTVSPropertyOp37
 70
     1
102
RTVSPropertyOp38
 70
     1
102
RTVSPropertyOp39
 70
     1
102
RTVSPropertyOp40
 70
     1
102
RTVSPropertyOp41
 70
     1
102
RTVSPropertyOp42
 70
     1
102
RTVSPropertyOp43
 70
     1
102
RTVSPropertyOp44
 70
     1
102
RTVSPropertyOp45
 70
     1
102
RTVSPropertyOp46
 70
     1
102
RTVSPropertyOp47
 70
     1
102
RTVSPropertyOp48
 70
     1
102
RTVSPropertyOp49
 70
     1
102
RTVSPropertyOp50
 70
     1
102
RTVSPropertyOp51
 70
     0
102
RTVSPropertyOp52
 70
     0
102
RTVSPropertyOp53
 70
     1
102
RTVSPropertyOp54
 70
     1
102
RTVSPropertyOp55
 70
     1
102
RTVSPropertyOp56
 70
     1
102
RTVSPropertyOp57
 70
     1
102
RTVSPost2010Prop28
280
     0
102
RTVSPost2010PropOp28
 70
     1
102
RTVSPost2010Prop29
280
     1
102
RTVSPost2010PropOp29
 70
     1
102
RTVSPost2010Prop30
280
     1
102
RTVSPost2010PropOp30
 70
     1
102
RTVSPost2010Prop31
280
     0
102
RTVSPost2010PropOp31
 70
     1
102
RTVSPost2010Prop32
280
     0
102
RTVSPost2010PropOp32
 70
     1
102
RTVSPost2010Prop33
280
     0
102
RTVSPost2010PropOp33
 70
     1
102
RTVSPost2010Prop34
280
     0
102
RTVSPost2010PropOp34
 70
     1
102
RTVSPost2010Prop35
280
     0
102
RTVSPost2010PropOp35
 70
     1
102
RTVSPost2010Prop36
280
     0
102
RTVSPost2010PropOp36
 70
     1
102
RTVSPost2010Prop37
 90
       50
102
RTVSPost2010PropOp37
 70
     1
102
RTVSPost2010Prop38
140
0.0
102
RTVSPost2010PropOp38
 70
     1
102
RTVSPost2010Prop39
140
1.0
102
RTVSPost2010PropOp39
 70
     1
102
RTVSPost2010Prop40
 90
        0
102
RTVSPost2010PropOp40
 70
     1
102
RTVSPost2010Prop41ColorIndex
 90
       18
102
RTVSPost2010Prop41ColorRGB
 90
        0
102
RTVSPost2010PropOp41
 70
     1
102
RTVSPost2010Prop42
 90
       50
102
RTVSPost2010PropOp42
 70
     1
102
RTVSPost2010Prop43
 90
        3
102
RTVSPost2010PropOp43
 70
     1
102
RTVSPost2010Prop44ColorIndex
 90
        5
102
RTVSPost2010Prop44ColorRGB
 90
      255
102
RTVSPost2010PropOp44
 70
     1
102
RTVSPost2010Prop45
280
     0
102
RTVSPost2010PropOp45
 70
     1
102
RTVSPost2010Prop46
 90
       50
102
RTVSPost2010PropOp46
 70
     1
102
RTVSPost2010Prop47
 90
       50
102
RTVSPost2010PropOp47
 70
     1
102
RTVSPost2010Prop48
 90
       50
102
RTVSPost2010PropOp48
 70
     1
102
RTVSPost2010Prop49
280
     0
102
RTVSPost2010PropOp49
 70
     1
102
RTVSPost2010Prop50
 90
       50
102
RTVSPost2010PropOp50
 70
     1
102
RTVSPost2010Prop51ColorIndex
 90
      256
102
RTVSPost2010Prop51ColorRGB
 90
-16777216
102
RTVSPost2010PropOp51
 70
     0
102
RTVSPost2010Prop52
140
1.0
102
RTVSPost2010PropOp52
 70
     0
102
RTVSPost2010Prop53
 90
        2
102
RTVSPost2010PropOp53
 70
     1
102
RTVSPost2010Prop54
  1
strokes_ogs.tif
102
RTVSPost2010PropOp54
 70
     1
102
RTVSPost2010Prop55
280
     0
102
RTVSPost2010PropOp55
 70
     1
102
RTVSPost2010Prop56
140
1.0
102
RTVSPost2010PropOp56
 70
     1
102
RTVSPost2010Prop57
140
1.0
102
RTVSPost2010PropOp57
 70
     1
  0
XRECORD
  5
383
102
{ACAD_REACTORS
330
382
102
}
330
382
100
AcDbXrecord
280
     1
102
RTVSPropertyOp0
 70
     1
102
RTVSPropertyOp1
 70
     1
102
RTVSPropertyOp2
 70
     1
102
RTVSPropertyOp3
 70
     1
102
RTVSPropertyOp4
 70
     1
102
RTVSPropertyOp5
 70
     1
102
RTVSPropertyOp6
 70
     1
102
RTVSPropertyOp7
 70
     1
102
RTVSPropertyOp8
 70
     1
102
RTVSPropertyOp9
 70
     1
102
RTVSPropertyOp10
 70
     1
102
RTVSPropertyOp11
 70
     1
102
RTVSPropertyOp12
 70
     1
102
RTVSPropertyOp13
 70
     1
102
RTVSPropertyOp14
 70
     1
102
RTVSPropertyOp15
 70
     1
102
RTVSPropertyOp16
 70
     1
102
RTVSPropertyOp17
 70
     1
102
RTVSPropertyOp18
 70
     1
102
RTVSPropertyOp19
 70
     1
102
RTVSPropertyOp20
 70
     1
102
RTVSPropertyOp21
 70
     1
102
RTVSPropertyOp22
 70
     1
102
RTVSPropertyOp23
 70
     1
102
RTVSPropertyOp24
 70
     1
102
RTVSPropertyOp25
 70
     1
102
RTVSPropertyOp26
 70
     1
102
RTVSPropertyOp27
 70
     1
102
RTVSPropertyOp28
 70
     1
102
RTVSPropertyOp29
 70
     1
102
RTVSPropertyOp30
 70
     1
102
RTVSPropertyOp31
 70
     1
102
RTVSPropertyOp32
 70
     1
102
RTVSPropertyOp33
 70
     1
102
RTVSPropertyOp34
 70
     1
102
RTVSPropertyOp35
 70
     1
102
RTVSPropertyOp36
 70
     1
102
RTVSPropertyOp37
 70
     1
102
RTVSPropertyOp38
 70
     1
102
RTVSPropertyOp39
 70
     1
102
RTVSPropertyOp40
 70
     1
102
RTVSPropertyOp41
 70
     1
102
RTVSPropertyOp42
 70
     1
102
RTVSPropertyOp43
 70
     1
102
RTVSPropertyOp44
 70
     1
102
RTVSPropertyOp45
 70
     1
102
RTVSPropertyOp46
 70
     1
102
RTVSPropertyOp47
 70
     1
102
RTVSPropertyOp48
 70
     1
102
RTVSPropertyOp49
 70
     1
102
RTVSPropertyOp50
 70
     1
102
RTVSPropertyOp51
 70
     0
102
RTVSPropertyOp52
 70
     0
102
RTVSPropertyOp53
 70
     1
102
RTVSPropertyOp54
 70
     1
102
RTVSPropertyOp55
 70
     1
102
RTVSPropertyOp56
 70
     1
102
RTVSPropertyOp57
 70
     1
102
RTVSPost2010Prop28
280
     0
102
RTVSPost2010PropOp28
 70
     1
102
RTVSPost2010Prop29
280
     1
102
RTVSPost2010PropOp29
 70
     1
102
RTVSPost2010Prop30
280
     1
102
RTVSPost2010PropOp30
 70
     1
102
RTVSPost2010Prop31
280
     0
102
RTVSPost2010PropOp31
 70
     1
102
RTVSPost2010Prop32
280
     0
102
RTVSPost2010PropOp32
 70
     1
102
RTVSPost2010Prop33
280
     0
102
RTVSPost2010PropOp33
 70
     1
102
RTVSPost2010Prop34
280
     0
102
RTVSPost2010PropOp34
 70
     1
102
RTVSPost2010Prop35
280
     0
102
RTVSPost2010PropOp35
 70
     1
102
RTVSPost2010Prop36
280
     0
102
RTVSPost2010PropOp36
 70
     1
102
RTVSPost2010Prop37
 90
       50
102
RTVSPost2010PropOp37
 70
     1
102
RTVSPost2010Prop38
140
0.0
102
RTVSPost2010PropOp38
 70
     1
102
RTVSPost2010Prop39
140
1.0
102
RTVSPost2010PropOp39
 70
     1
102
RTVSPost2010Prop40
 90
        0
102
RTVSPost2010PropOp40
 70
     1
102
RTVSPost2010Prop41ColorIndex
 90
       18
102
RTVSPost2010Prop41ColorRGB
 90
        0
102
RTVSPost2010PropOp41
 70
     1
102
RTVSPost2010Prop42
 90
       50
102
RTVSPost2010PropOp42
 70
     1
102
RTVSPost2010Prop43
 90
        3
102
RTVSPost2010PropOp43
 70
     1
102
RTVSPost2010Prop44ColorIndex
 90
        5
102
RTVSPost2010Prop44ColorRGB
 90
      255
102
RTVSPost2010PropOp44
 70
     1
102
RTVSPost2010Prop45
280
     0
102
RTVSPost2010PropOp45
 70
     1
102
RTVSPost2010Prop46
 90
       50
102
RTVSPost2010PropOp46
 70
     1
102
RTVSPost2010Prop47
 90
       50
102
RTVSPost2010PropOp47
 70
     1
102
RTVSPost2010Prop48
 90
       50
102
RTVSPost2010PropOp48
 70
     1
102
RTVSPost2010Prop49
280
     0
102
RTVSPost2010PropOp49
 70
     1
102
RTVSPost2010Prop50
 90
       50
102
RTVSPost2010PropOp50
 70
     1
102
RTVSPost2010Prop51ColorIndex
 90
      256
102
RTVSPost2010Prop51ColorRGB
 90
-16777216
102
RTVSPost2010PropOp51
 70
     0
102
RTVSPost2010Prop52
140
1.0
102
RTVSPost2010PropOp52
 70
     0
102
RTVSPost2010Prop53
 90
        2
102
RTVSPost2010PropOp53
 70
     1
102
RTVSPost2010Prop54
  1
strokes_ogs.tif
102
RTVSPost2010PropOp54
 70
     1
102
RTVSPost2010Prop55
280
     0
102
RTVSPost2010PropOp55
 70
     1
102
RTVSPost2010Prop56
140
1.0
102
RTVSPost2010PropOp56
 70
     1
102
RTVSPost2010Prop57
140
1.0
102
RTVSPost2010PropOp57
 70
     1
  0
XRECORD
  5
385
102
{ACAD_REACTORS
330
384
102
}
330
384
100
AcDbXrecord
280
     1
102
RTVSPropertyOp0
 70
     1
102
RTVSPropertyOp1
 70
     1
102
RTVSPropertyOp2
 70
     1
102
RTVSPropertyOp3
 70
     1
102
RTVSPropertyOp4
 70
     1
102
RTVSPropertyOp5
 70
     1
102
RTVSPropertyOp6
 70
     1
102
RTVSPropertyOp7
 70
     1
102
RTVSPropertyOp8
 70
     1
102
RTVSPropertyOp9
 70
     1
102
RTVSPropertyOp10
 70
     1
102
RTVSPropertyOp11
 70
     1
102
RTVSPropertyOp12
 70
     1
102
RTVSPropertyOp13
 70
     1
102
RTVSPropertyOp14
 70
     1
102
RTVSPropertyOp15
 70
     1
102
RTVSPropertyOp16
 70
     1
102
RTVSPropertyOp17
 70
     1
102
RTVSPropertyOp18
 70
     1
102
RTVSPropertyOp19
 70
     1
102
RTVSPropertyOp20
 70
     1
102
RTVSPropertyOp21
 70
     1
102
RTVSPropertyOp22
 70
     1
102
RTVSPropertyOp23
 70
     1
102
RTVSPropertyOp24
 70
     1
102
RTVSPropertyOp25
 70
     1
102
RTVSPropertyOp26
 70
     1
102
RTVSPropertyOp27
 70
     1
102
RTVSPropertyOp28
 70
     1
102
RTVSPropertyOp29
 70
     1
102
RTVSPropertyOp30
 70
     1
102
RTVSPropertyOp31
 70
     1
102
RTVSPropertyOp32
 70
     1
102
RTVSPropertyOp33
 70
     1
102
RTVSPropertyOp34
 70
     1
102
RTVSPropertyOp35
 70
     1
102
RTVSPropertyOp36
 70
     1
102
RTVSPropertyOp37
 70
     1
102
RTVSPropertyOp38
 70
     1
102
RTVSPropertyOp39
 70
     1
102
RTVSPropertyOp40
 70
     1
102
RTVSPropertyOp41
 70
     1
102
RTVSPropertyOp42
 70
     1
102
RTVSPropertyOp43
 70
     1
102
RTVSPropertyOp44
 70
     1
102
RTVSPropertyOp45
 70
     1
102
RTVSPropertyOp46
 70
     1
102
RTVSPropertyOp47
 70
     1
102
RTVSPropertyOp48
 70
     1
102
RTVSPropertyOp49
 70
     1
102
RTVSPropertyOp50
 70
     1
102
RTVSPropertyOp51
 70
     0
102
RTVSPropertyOp52
 70
     0
102
RTVSPropertyOp53
 70
     1
102
RTVSPropertyOp54
 70
     1
102
RTVSPropertyOp55
 70
     1
102
RTVSPropertyOp56
 70
     1
102
RTVSPropertyOp57
 70
     1
102
RTVSPost2010Prop28
280
     0
102
RTVSPost2010PropOp28
 70
     1
102
RTVSPost2010Prop29
280
     1
102
RTVSPost2010PropOp29
 70
     1
102
RTVSPost2010Prop30
280
     1
102
RTVSPost2010PropOp30
 70
     1
102
RTVSPost2010Prop31
280
     0
102
RTVSPost2010PropOp31
 70
     1
102
RTVSPost2010Prop32
280
     0
102
RTVSPost2010PropOp32
 70
     1
102
RTVSPost2010Prop33
280
     0
102
RTVSPost2010PropOp33
 70
     1
102
RTVSPost2010Prop34
280
     0
102
RTVSPost2010PropOp34
 70
     1
102
RTVSPost2010Prop35
280
     0
102
RTVSPost2010PropOp35
 70
     1
102
RTVSPost2010Prop36
280
     0
102
RTVSPost2010PropOp36
 70
     1
102
RTVSPost2010Prop37
 90
       50
102
RTVSPost2010PropOp37
 70
     1
102
RTVSPost2010Prop38
140
0.0
102
RTVSPost2010PropOp38
 70
     1
102
RTVSPost2010Prop39
140
1.0
102
RTVSPost2010PropOp39
 70
     1
102
RTVSPost2010Prop40
 90
        0
102
RTVSPost2010PropOp40
 70
     1
102
RTVSPost2010Prop41ColorIndex
 90
       18
102
RTVSPost2010Prop41ColorRGB
 90
        0
102
RTVSPost2010PropOp41
 70
     1
102
RTVSPost2010Prop42
 90
       50
102
RTVSPost2010PropOp42
 70
     1
102
RTVSPost2010Prop43
 90
        3
102
RTVSPost2010PropOp43
 70
     1
102
RTVSPost2010Prop44ColorIndex
 90
        5
102
RTVSPost2010Prop44ColorRGB
 90
      255
102
RTVSPost2010PropOp44
 70
     1
102
RTVSPost2010Prop45
280
     0
102
RTVSPost2010PropOp45
 70
     1
102
RTVSPost2010Prop46
 90
       50
102
RTVSPost2010PropOp46
 70
     1
102
RTVSPost2010Prop47
 90
       50
102
RTVSPost2010PropOp47
 70
     1
102
RTVSPost2010Prop48
 90
       50
102
RTVSPost2010PropOp48
 70
     1
102
RTVSPost2010Prop49
280
     0
102
RTVSPost2010PropOp49
 70
     1
102
RTVSPost2010Prop50
 90
       50
102
RTVSPost2010PropOp50
 70
     1
102
RTVSPost2010Prop51ColorIndex
 90
      256
102
RTVSPost2010Prop51ColorRGB
 90
-16777216
102
RTVSPost2010PropOp51
 70
     0
102
RTVSPost2010Prop52
140
1.0
102
RTVSPost2010PropOp52
 70
     0
102
RTVSPost2010Prop53
 90
        2
102
RTVSPost2010PropOp53
 70
     1
102
RTVSPost2010Prop54
  1
strokes_ogs.tif
102
RTVSPost2010PropOp54
 70
     1
102
RTVSPost2010Prop55
280
     0
102
RTVSPost2010PropOp55
 70
     1
102
RTVSPost2010Prop56
140
1.0
102
RTVSPost2010PropOp56
 70
     1
102
RTVSPost2010Prop57
140
1.0
102
RTVSPost2010PropOp57
 70
     1
  0
XRECORD
  5
395
102
{ACAD_REACTORS
330
394
102
}
330
394
100
AcDbXrecord
280
     1
102
RTVSPropertyOp0
 70
     0
102
RTVSPropertyOp1
 70
     0
102
RTVSPropertyOp2
 70
     0
102
RTVSPropertyOp3
 70
     0
102
RTVSPropertyOp4
 70
     0
102
RTVSPropertyOp5
 70
     0
102
RTVSPropertyOp6
 70
     0
102
RTVSPropertyOp7
 70
     0
102
RTVSPropertyOp8
 70
     0
102
RTVSPropertyOp9
 70
     0
102
RTVSPropertyOp10
 70
     0
102
RTVSPropertyOp11
 70
     0
102
RTVSPropertyOp12
 70
     0
102
RTVSPropertyOp13
 70
     0
102
RTVSPropertyOp14
 70
     2
102
RTVSPropertyOp15
 70
     0
102
RTVSPropertyOp16
 70
     0
102
RTVSPropertyOp17
 70
     0
102
RTVSPropertyOp18
 70
     0
102
RTVSPropertyOp19
 70
     0
102
RTVSPropertyOp20
 70
     0
102
RTVSPropertyOp21
 70
     0
102
RTVSPropertyOp22
 70
     0
102
RTVSPropertyOp23
 70
     0
102
RTVSPropertyOp24
 70
     0
102
RTVSPropertyOp25
 70
     0
102
RTVSPropertyOp26
 70
     0
102
RTVSPropertyOp27
 70
     0
102
RTVSPropertyOp28
 70
     0
102
RTVSPropertyOp29
 70
     0
102
RTVSPropertyOp30
 70
     0
102
RTVSPropertyOp31
 70
     0
102
RTVSPropertyOp32
 70
     0
102
RTVSPropertyOp33
 70
     0
102
RTVSPropertyOp34
 70
     0
102
RTVSPropertyOp35
 70
     0
102
RTVSPropertyOp36
 70
     0
102
RTVSPropertyOp37
 70
     0
102
RTVSPropertyOp38
 70
     0
102
RTVSPropertyOp39
 70
     0
102
RTVSPropertyOp40
 70
     0
102
RTVSPropertyOp41
 70
     0
102
RTVSPropertyOp42
 70
     0
102
RTVSPropertyOp43
 70
     0
102
RTVSPropertyOp44
 70
     0
102
RTVSPropertyOp45
 70
     0
102
RTVSPropertyOp46
 70
     0
102
RTVSPropertyOp47
 70
     0
102
RTVSPropertyOp48
 70
     0
102
RTVSPropertyOp49
 70
     0
102
RTVSPropertyOp50
 70
     0
102
RTVSPropertyOp51
 70
     0
102
RTVSPropertyOp52
 70
     0
102
RTVSPropertyOp53
 70
     0
102
RTVSPropertyOp54
 70
     0
102
RTVSPropertyOp55
 70
     0
102
RTVSPropertyOp56
 70
     0
102
RTVSPropertyOp57
 70
     0
102
RTVSPost2010Prop28
280
     0
102
RTVSPost2010PropOp28
 70
     0
102
RTVSPost2010Prop29
280
     1
102
RTVSPost2010PropOp29
 70
     0
102
RTVSPost2010Prop30
280
     1
102
RTVSPost2010PropOp30
 70
     0
102
RTVSPost2010Prop31
280
     0
102
RTVSPost2010PropOp31
 70
     0
102
RTVSPost2010Prop32
280
     0
102
RTVSPost2010PropOp32
 70
     0
102
RTVSPost2010Prop33
280
     0
102
RTVSPost2010PropOp33
 70
     0
102
RTVSPost2010Prop34
280
     0
102
RTVSPost2010PropOp34
 70
     0
102
RTVSPost2010Prop35
280
     0
102
RTVSPost2010PropOp35
 70
     0
102
RTVSPost2010Prop36
280
     0
102
RTVSPost2010PropOp36
 70
     0
102
RTVSPost2010Prop37
 90
       50
102
RTVSPost2010PropOp37
 70
     0
102
RTVSPost2010Prop38
140
0.0
102
RTVSPost2010PropOp38
 70
     0
102
RTVSPost2010Prop39
140
1.0
102
RTVSPost2010PropOp39
 70
     0
102
RTVSPost2010Prop40
 90
        0
102
RTVSPost2010PropOp40
 70
     0
102
RTVSPost2010Prop41ColorIndex
 90
       18
102
RTVSPost2010Prop41ColorRGB
 90
        0
102
RTVSPost2010PropOp41
 70
     0
102
RTVSPost2010Prop42
 90
       50
102
RTVSPost2010PropOp42
 70
     0
102
RTVSPost2010Prop43
 90
        3
102
RTVSPost2010PropOp43
 70
     0
102
RTVSPost2010Prop44ColorIndex
 90
        5
102
RTVSPost2010Prop44ColorRGB
 90
      255
102
RTVSPost2010PropOp44
 70
     0
102
RTVSPost2010Prop45
280
     0
102
RTVSPost2010PropOp45
 70
     0
102
RTVSPost2010Prop46
 90
       50
102
RTVSPost2010PropOp46
 70
     0
102
RTVSPost2010Prop47
 90
       50
102
RTVSPost2010PropOp47
 70
     0
102
RTVSPost2010Prop48
 90
       50
102
RTVSPost2010PropOp48
 70
     0
102
RTVSPost2010Prop49
280
     0
102
RTVSPost2010PropOp49
 70
     0
102
RTVSPost2010Prop50
 90
       50
102
RTVSPost2010PropOp50
 70
     0
102
RTVSPost2010Prop51ColorIndex
 90
      256
102
RTVSPost2010Prop51ColorRGB
 90
-16777216
102
RTVSPost2010PropOp51
 70
     0
102
RTVSPost2010Prop52
140
1.0
102
RTVSPost2010PropOp52
 70
     0
102
RTVSPost2010Prop53
 90
        2
102
RTVSPost2010PropOp53
 70
     0
102
RTVSPost2010Prop54
  1
strokes_ogs.tif
102
RTVSPost2010PropOp54
 70
     0
102
RTVSPost2010Prop55
280
     0
102
RTVSPost2010PropOp55
 70
     0
102
RTVSPost2010Prop56
140
1.0
102
RTVSPost2010PropOp56
 70
     0
102
RTVSPost2010Prop57
140
1.0
102
RTVSPost2010PropOp57
 70
     0
  0
XRECORD
  5
38D
102
{ACAD_REACTORS
330
38C
102
}
330
38C
100
AcDbXrecord
280
     1
102
RTVSPropertyOp0
 70
     1
102
RTVSPropertyOp1
 70
     1
102
RTVSPropertyOp2
 70
     1
102
RTVSPropertyOp3
 70
     1
102
RTVSPropertyOp4
 70
     1
102
RTVSPropertyOp5
 70
     1
102
RTVSPropertyOp6
 70
     1
102
RTVSPropertyOp7
 70
     1
102
RTVSPropertyOp8
 70
     1
102
RTVSPropertyOp9
 70
     1
102
RTVSPropertyOp10
 70
     1
102
RTVSPropertyOp11
 70
     1
102
RTVSPropertyOp12
 70
     1
102
RTVSPropertyOp13
 70
     1
102
RTVSPropertyOp14
 70
     1
102
RTVSPropertyOp15
 70
     1
102
RTVSPropertyOp16
 70
     1
102
RTVSPropertyOp17
 70
     1
102
RTVSPropertyOp18
 70
     1
102
RTVSPropertyOp19
 70
     1
102
RTVSPropertyOp20
 70
     1
102
RTVSPropertyOp21
 70
     1
102
RTVSPropertyOp22
 70
     1
102
RTVSPropertyOp23
 70
     1
102
RTVSPropertyOp24
 70
     1
102
RTVSPropertyOp25
 70
     1
102
RTVSPropertyOp26
 70
     1
102
RTVSPropertyOp27
 70
     1
102
RTVSPropertyOp28
 70
     1
102
RTVSPropertyOp29
 70
     1
102
RTVSPropertyOp30
 70
     1
102
RTVSPropertyOp31
 70
     1
102
RTVSPropertyOp32
 70
     1
102
RTVSPropertyOp33
 70
     1
102
RTVSPropertyOp34
 70
     1
102
RTVSPropertyOp35
 70
     1
102
RTVSPropertyOp36
 70
     1
102
RTVSPropertyOp37
 70
     1
102
RTVSPropertyOp38
 70
     1
102
RTVSPropertyOp39
 70
     1
102
RTVSPropertyOp40
 70
     1
102
RTVSPropertyOp41
 70
     1
102
RTVSPropertyOp42
 70
     1
102
RTVSPropertyOp43
 70
     1
102
RTVSPropertyOp44
 70
     1
102
RTVSPropertyOp45
 70
     1
102
RTVSPropertyOp46
 70
     1
102
RTVSPropertyOp47
 70
     1
102
RTVSPropertyOp48
 70
     1
102
RTVSPropertyOp49
 70
     1
102
RTVSPropertyOp50
 70
     1
102
RTVSPropertyOp51
 70
     0
102
RTVSPropertyOp52
 70
     0
102
RTVSPropertyOp53
 70
     1
102
RTVSPropertyOp54
 70
     1
102
RTVSPropertyOp55
 70
     1
102
RTVSPropertyOp56
 70
     1
102
RTVSPropertyOp57
 70
     1
102
RTVSPost2010Prop28
280
     0
102
RTVSPost2010PropOp28
 70
     1
102
RTVSPost2010Prop29
280
     1
102
RTVSPost2010PropOp29
 70
     1
102
RTVSPost2010Prop30
280
     1
102
RTVSPost2010PropOp30
 70
     1
102
RTVSPost2010Prop31
280
     0
102
RTVSPost2010PropOp31
 70
     1
102
RTVSPost2010Prop32
280
     0
102
RTVSPost2010PropOp32
 70
     1
102
RTVSPost2010Prop33
280
     0
102
RTVSPost2010PropOp33
 70
     1
102
RTVSPost2010Prop34
280
     0
102
RTVSPost2010PropOp34
 70
     1
102
RTVSPost2010Prop35
280
     0
102
RTVSPost2010PropOp35
 70
     1
102
RTVSPost2010Prop36
280
     0
102
RTVSPost2010PropOp36
 70
     1
102
RTVSPost2010Prop37
 90
       50
102
RTVSPost2010PropOp37
 70
     1
102
RTVSPost2010Prop38
140
0.0
102
RTVSPost2010PropOp38
 70
     1
102
RTVSPost2010Prop39
140
1.0
102
RTVSPost2010PropOp39
 70
     1
102
RTVSPost2010Prop40
 90
        0
102
RTVSPost2010PropOp40
 70
     1
102
RTVSPost2010Prop41ColorIndex
 90
       18
102
RTVSPost2010Prop41ColorRGB
 90
        0
102
RTVSPost2010PropOp41
 70
     1
102
RTVSPost2010Prop42
 90
       50
102
RTVSPost2010PropOp42
 70
     1
102
RTVSPost2010Prop43
 90
        3
102
RTVSPost2010PropOp43
 70
     1
102
RTVSPost2010Prop44ColorIndex
 90
        5
102
RTVSPost2010Prop44ColorRGB
 90
      255
102
RTVSPost2010PropOp44
 70
     1
102
RTVSPost2010Prop45
280
     0
102
RTVSPost2010PropOp45
 70
     1
102
RTVSPost2010Prop46
 90
       50
102
RTVSPost2010PropOp46
 70
     1
102
RTVSPost2010Prop47
 90
       50
102
RTVSPost2010PropOp47
 70
     1
102
RTVSPost2010Prop48
 90
       50
102
RTVSPost2010PropOp48
 70
     1
102
RTVSPost2010Prop49
280
     0
102
RTVSPost2010PropOp49
 70
     1
102
RTVSPost2010Prop50
 90
       50
102
RTVSPost2010PropOp50
 70
     1
102
RTVSPost2010Prop51ColorIndex
 90
      256
102
RTVSPost2010Prop51ColorRGB
 90
-16777216
102
RTVSPost2010PropOp51
 70
     0
102
RTVSPost2010Prop52
140
1.0
102
RTVSPost2010PropOp52
 70
     0
102
RTVSPost2010Prop53
 90
        2
102
RTVSPost2010PropOp53
 70
     1
102
RTVSPost2010Prop54
  1
strokes_ogs.tif
102
RTVSPost2010PropOp54
 70
     1
102
RTVSPost2010Prop55
280
     0
102
RTVSPost2010PropOp55
 70
     1
102
RTVSPost2010Prop56
140
1.0
102
RTVSPost2010PropOp56
 70
     1
102
RTVSPost2010Prop57
140
1.0
102
RTVSPost2010PropOp57
 70
     1
  0
XRECORD
  5
371
102
{ACAD_REACTORS
330
370
102
}
330
370
100
AcDbXrecord
280
     1
102
RTVSPropertyOp0
 70
     1
102
RTVSPropertyOp1
 70
     1
102
RTVSPropertyOp2
 70
     1
102
RTVSPropertyOp3
 70
     1
102
RTVSPropertyOp4
 70
     1
102
RTVSPropertyOp5
 70
     1
102
RTVSPropertyOp6
 70
     1
102
RTVSPropertyOp7
 70
     1
102
RTVSPropertyOp8
 70
     1
102
RTVSPropertyOp9
 70
     1
102
RTVSPropertyOp10
 70
     1
102
RTVSPropertyOp11
 70
     1
102
RTVSPropertyOp12
 70
     1
102
RTVSPropertyOp13
 70
     1
102
RTVSPropertyOp14
 70
     1
102
RTVSPropertyOp15
 70
     1
102
RTVSPropertyOp16
 70
     1
102
RTVSPropertyOp17
 70
     1
102
RTVSPropertyOp18
 70
     1
102
RTVSPropertyOp19
 70
     1
102
RTVSPropertyOp20
 70
     1
102
RTVSPropertyOp21
 70
     1
102
RTVSPropertyOp22
 70
     1
102
RTVSPropertyOp23
 70
     1
102
RTVSPropertyOp24
 70
     1
102
RTVSPropertyOp25
 70
     1
102
RTVSPropertyOp26
 70
     1
102
RTVSPropertyOp27
 70
     1
102
RTVSPropertyOp28
 70
     1
102
RTVSPropertyOp29
 70
     1
102
RTVSPropertyOp30
 70
     1
102
RTVSPropertyOp31
 70
     1
102
RTVSPropertyOp32
 70
     1
102
RTVSPropertyOp33
 70
     1
102
RTVSPropertyOp34
 70
     1
102
RTVSPropertyOp35
 70
     1
102
RTVSPropertyOp36
 70
     1
102
RTVSPropertyOp37
 70
     1
102
RTVSPropertyOp38
 70
     1
102
RTVSPropertyOp39
 70
     1
102
RTVSPropertyOp40
 70
     1
102
RTVSPropertyOp41
 70
     1
102
RTVSPropertyOp42
 70
     1
102
RTVSPropertyOp43
 70
     1
102
RTVSPropertyOp44
 70
     1
102
RTVSPropertyOp45
 70
     1
102
RTVSPropertyOp46
 70
     1
102
RTVSPropertyOp47
 70
     1
102
RTVSPropertyOp48
 70
     1
102
RTVSPropertyOp49
 70
     1
102
RTVSPropertyOp50
 70
     1
102
RTVSPropertyOp51
 70
     0
102
RTVSPropertyOp52
 70
     0
102
RTVSPropertyOp53
 70
     1
102
RTVSPropertyOp54
 70
     1
102
RTVSPropertyOp55
 70
     1
102
RTVSPropertyOp56
 70
     1
102
RTVSPropertyOp57
 70
     1
102
RTVSPost2010Prop28
280
     0
102
RTVSPost2010PropOp28
 70
     1
102
RTVSPost2010Prop29
280
     1
102
RTVSPost2010PropOp29
 70
     1
102
RTVSPost2010Prop30
280
     1
102
RTVSPost2010PropOp30
 70
     1
102
RTVSPost2010Prop31
280
     0
102
RTVSPost2010PropOp31
 70
     1
102
RTVSPost2010Prop32
280
     0
102
RTVSPost2010PropOp32
 70
     1
102
RTVSPost2010Prop33
280
     0
102
RTVSPost2010PropOp33
 70
     1
102
RTVSPost2010Prop34
280
     0
102
RTVSPost2010PropOp34
 70
     1
102
RTVSPost2010Prop35
280
     0
102
RTVSPost2010PropOp35
 70
     1
102
RTVSPost2010Prop36
280
     0
102
RTVSPost2010PropOp36
 70
     1
102
RTVSPost2010Prop37
 90
       50
102
RTVSPost2010PropOp37
 70
     1
102
RTVSPost2010Prop38
140
0.0
102
RTVSPost2010PropOp38
 70
     1
102
RTVSPost2010Prop39
140
1.0
102
RTVSPost2010PropOp39
 70
     1
102
RTVSPost2010Prop40
 90
        0
102
RTVSPost2010PropOp40
 70
     1
102
RTVSPost2010Prop41ColorIndex
 90
       18
102
RTVSPost2010Prop41ColorRGB
 90
        0
102
RTVSPost2010PropOp41
 70
     1
102
RTVSPost2010Prop42
 90
       50
102
RTVSPost2010PropOp42
 70
     1
102
RTVSPost2010Prop43
 90
        3
102
RTVSPost2010PropOp43
 70
     1
102
RTVSPost2010Prop44ColorIndex
 90
        5
102
RTVSPost2010Prop44ColorRGB
 90
      255
102
RTVSPost2010PropOp44
 70
     1
102
RTVSPost2010Prop45
280
     0
102
RTVSPost2010PropOp45
 70
     1
102
RTVSPost2010Prop46
 90
       50
102
RTVSPost2010PropOp46
 70
     1
102
RTVSPost2010Prop47
 90
       50
102
RTVSPost2010PropOp47
 70
     1
102
RTVSPost2010Prop48
 90
       50
102
RTVSPost2010PropOp48
 70
     1
102
RTVSPost2010Prop49
280
     0
102
RTVSPost2010PropOp49
 70
     1
102
RTVSPost2010Prop50
 90
       50
102
RTVSPost2010PropOp50
 70
     1
102
RTVSPost2010Prop51ColorIndex
 90
      256
102
RTVSPost2010Prop51ColorRGB
 90
-16777216
102
RTVSPost2010PropOp51
 70
     0
102
RTVSPost2010Prop52
140
1.0
102
RTVSPost2010PropOp52
 70
     0
102
RTVSPost2010Prop53
 90
        2
102
RTVSPost2010PropOp53
 70
     1
102
RTVSPost2010Prop54
  1
strokes_ogs.tif
102
RTVSPost2010PropOp54
 70
     1
102
RTVSPost2010Prop55
280
     0
102
RTVSPost2010PropOp55
 70
     1
102
RTVSPost2010Prop56
140
1.0
102
RTVSPost2010PropOp56
 70
     1
102
RTVSPost2010Prop57
140
1.0
102
RTVSPost2010PropOp57
 70
     1
  0
XRECORD
  5
373
102
{ACAD_REACTORS
330
372
102
}
330
372
100
AcDbXrecord
280
     1
102
RTVSPropertyOp0
 70
     1
102
RTVSPropertyOp1
 70
     1
102
RTVSPropertyOp2
 70
     1
102
RTVSPropertyOp3
 70
     1
102
RTVSPropertyOp4
 70
     1
102
RTVSPropertyOp5
 70
     1
102
RTVSPropertyOp6
 70
     1
102
RTVSPropertyOp7
 70
     1
102
RTVSPropertyOp8
 70
     1
102
RTVSPropertyOp9
 70
     1
102
RTVSPropertyOp10
 70
     1
102
RTVSPropertyOp11
 70
     1
102
RTVSPropertyOp12
 70
     1
102
RTVSPropertyOp13
 70
     1
102
RTVSPropertyOp14
 70
     1
102
RTVSPropertyOp15
 70
     1
102
RTVSPropertyOp16
 70
     1
102
RTVSPropertyOp17
 70
     1
102
RTVSPropertyOp18
 70
     1
102
RTVSPropertyOp19
 70
     1
102
RTVSPropertyOp20
 70
     1
102
RTVSPropertyOp21
 70
     1
102
RTVSPropertyOp22
 70
     1
102
RTVSPropertyOp23
 70
     1
102
RTVSPropertyOp24
 70
     1
102
RTVSPropertyOp25
 70
     1
102
RTVSPropertyOp26
 70
     1
102
RTVSPropertyOp27
 70
     1
102
RTVSPropertyOp28
 70
     1
102
RTVSPropertyOp29
 70
     1
102
RTVSPropertyOp30
 70
     1
102
RTVSPropertyOp31
 70
     1
102
RTVSPropertyOp32
 70
     1
102
RTVSPropertyOp33
 70
     1
102
RTVSPropertyOp34
 70
     1
102
RTVSPropertyOp35
 70
     1
102
RTVSPropertyOp36
 70
     1
102
RTVSPropertyOp37
 70
     1
102
RTVSPropertyOp38
 70
     1
102
RTVSPropertyOp39
 70
     1
102
RTVSPropertyOp40
 70
     1
102
RTVSPropertyOp41
 70
     1
102
RTVSPropertyOp42
 70
     1
102
RTVSPropertyOp43
 70
     1
102
RTVSPropertyOp44
 70
     1
102
RTVSPropertyOp45
 70
     1
102
RTVSPropertyOp46
 70
     1
102
RTVSPropertyOp47
 70
     1
102
RTVSPropertyOp48
 70
     1
102
RTVSPropertyOp49
 70
     1
102
RTVSPropertyOp50
 70
     1
102
RTVSPropertyOp51
 70
     0
102
RTVSPropertyOp52
 70
     0
102
RTVSPropertyOp53
 70
     1
102
RTVSPropertyOp54
 70
     1
102
RTVSPropertyOp55
 70
     1
102
RTVSPropertyOp56
 70
     1
102
RTVSPropertyOp57
 70
     1
102
RTVSPost2010Prop28
280
     0
102
RTVSPost2010PropOp28
 70
     1
102
RTVSPost2010Prop29
280
     1
102
RTVSPost2010PropOp29
 70
     1
102
RTVSPost2010Prop30
280
     1
102
RTVSPost2010PropOp30
 70
     1
102
RTVSPost2010Prop31
280
     0
102
RTVSPost2010PropOp31
 70
     1
102
RTVSPost2010Prop32
280
     0
102
RTVSPost2010PropOp32
 70
     1
102
RTVSPost2010Prop33
280
     0
102
RTVSPost2010PropOp33
 70
     1
102
RTVSPost2010Prop34
280
     0
102
RTVSPost2010PropOp34
 70
     1
102
RTVSPost2010Prop35
280
     0
102
RTVSPost2010PropOp35
 70
     1
102
RTVSPost2010Prop36
280
     0
102
RTVSPost2010PropOp36
 70
     1
102
RTVSPost2010Prop37
 90
       50
102
RTVSPost2010PropOp37
 70
     1
102
RTVSPost2010Prop38
140
0.0
102
RTVSPost2010PropOp38
 70
     1
102
RTVSPost2010Prop39
140
1.0
102
RTVSPost2010PropOp39
 70
     1
102
RTVSPost2010Prop40
 90
        0
102
RTVSPost2010PropOp40
 70
     1
102
RTVSPost2010Prop41ColorIndex
 90
       18
102
RTVSPost2010Prop41ColorRGB
 90
        0
102
RTVSPost2010PropOp41
 70
     1
102
RTVSPost2010Prop42
 90
       50
102
RTVSPost2010PropOp42
 70
     1
102
RTVSPost2010Prop43
 90
        3
102
RTVSPost2010PropOp43
 70
     1
102
RTVSPost2010Prop44ColorIndex
 90
        5
102
RTVSPost2010Prop44ColorRGB
 90
      255
102
RTVSPost2010PropOp44
 70
     1
102
RTVSPost2010Prop45
280
     0
102
RTVSPost2010PropOp45
 70
     1
102
RTVSPost2010Prop46
 90
       50
102
RTVSPost2010PropOp46
 70
     1
102
RTVSPost2010Prop47
 90
       50
102
RTVSPost2010PropOp47
 70
     1
102
RTVSPost2010Prop48
 90
       50
102
RTVSPost2010PropOp48
 70
     1
102
RTVSPost2010Prop49
280
     0
102
RTVSPost2010PropOp49
 70
     1
102
RTVSPost2010Prop50
 90
       50
102
RTVSPost2010PropOp50
 70
     1
102
RTVSPost2010Prop51ColorIndex
 90
      256
102
RTVSPost2010Prop51ColorRGB
 90
-16777216
102
RTVSPost2010PropOp51
 70
     0
102
RTVSPost2010Prop52
140
1.0
102
RTVSPost2010PropOp52
 70
     0
102
RTVSPost2010Prop53
 90
        2
102
RTVSPost2010PropOp53
 70
     1
102
RTVSPost2010Prop54
  1
strokes_ogs.tif
102
RTVSPost2010PropOp54
 70
     1
102
RTVSPost2010Prop55
280
     0
102
RTVSPost2010PropOp55
 70
     1
102
RTVSPost2010Prop56
140
1.0
102
RTVSPost2010PropOp56
 70
     1
102
RTVSPost2010Prop57
140
1.0
102
RTVSPost2010PropOp57
 70
     1
  0
XRECORD
  5
375
102
{ACAD_REACTORS
330
374
102
}
330
374
100
AcDbXrecord
280
     1
102
RTVSPropertyOp0
 70
     1
102
RTVSPropertyOp1
 70
     1
102
RTVSPropertyOp2
 70
     1
102
RTVSPropertyOp3
 70
     1
102
RTVSPropertyOp4
 70
     1
102
RTVSPropertyOp5
 70
     1
102
RTVSPropertyOp6
 70
     1
102
RTVSPropertyOp7
 70
     1
102
RTVSPropertyOp8
 70
     1
102
RTVSPropertyOp9
 70
     1
102
RTVSPropertyOp10
 70
     1
102
RTVSPropertyOp11
 70
     1
102
RTVSPropertyOp12
 70
     1
102
RTVSPropertyOp13
 70
     1
102
RTVSPropertyOp14
 70
     1
102
RTVSPropertyOp15
 70
     1
102
RTVSPropertyOp16
 70
     1
102
RTVSPropertyOp17
 70
     1
102
RTVSPropertyOp18
 70
     1
102
RTVSPropertyOp19
 70
     1
102
RTVSPropertyOp20
 70
     1
102
RTVSPropertyOp21
 70
     1
102
RTVSPropertyOp22
 70
     1
102
RTVSPropertyOp23
 70
     1
102
RTVSPropertyOp24
 70
     1
102
RTVSPropertyOp25
 70
     1
102
RTVSPropertyOp26
 70
     1
102
RTVSPropertyOp27
 70
     1
102
RTVSPropertyOp28
 70
     1
102
RTVSPropertyOp29
 70
     1
102
RTVSPropertyOp30
 70
     1
102
RTVSPropertyOp31
 70
     1
102
RTVSPropertyOp32
 70
     1
102
RTVSPropertyOp33
 70
     1
102
RTVSPropertyOp34
 70
     1
102
RTVSPropertyOp35
 70
     1
102
RTVSPropertyOp36
 70
     1
102
RTVSPropertyOp37
 70
     1
102
RTVSPropertyOp38
 70
     1
102
RTVSPropertyOp39
 70
     1
102
RTVSPropertyOp40
 70
     1
102
RTVSPropertyOp41
 70
     1
102
RTVSPropertyOp42
 70
     1
102
RTVSPropertyOp43
 70
     1
102
RTVSPropertyOp44
 70
     1
102
RTVSPropertyOp45
 70
     1
102
RTVSPropertyOp46
 70
     1
102
RTVSPropertyOp47
 70
     1
102
RTVSPropertyOp48
 70
     1
102
RTVSPropertyOp49
 70
     1
102
RTVSPropertyOp50
 70
     1
102
RTVSPropertyOp51
 70
     0
102
RTVSPropertyOp52
 70
     0
102
RTVSPropertyOp53
 70
     1
102
RTVSPropertyOp54
 70
     1
102
RTVSPropertyOp55
 70
     1
102
RTVSPropertyOp56
 70
     1
102
RTVSPropertyOp57
 70
     1
102
RTVSPost2010Prop28
280
     0
102
RTVSPost2010PropOp28
 70
     1
102
RTVSPost2010Prop29
280
     1
102
RTVSPost2010PropOp29
 70
     1
102
RTVSPost2010Prop30
280
     1
102
RTVSPost2010PropOp30
 70
     1
102
RTVSPost2010Prop31
280
     0
102
RTVSPost2010PropOp31
 70
     1
102
RTVSPost2010Prop32
280
     0
102
RTVSPost2010PropOp32
 70
     1
102
RTVSPost2010Prop33
280
     0
102
RTVSPost2010PropOp33
 70
     1
102
RTVSPost2010Prop34
280
     0
102
RTVSPost2010PropOp34
 70
     1
102
RTVSPost2010Prop35
280
     0
102
RTVSPost2010PropOp35
 70
     1
102
RTVSPost2010Prop36
280
     0
102
RTVSPost2010PropOp36
 70
     1
102
RTVSPost2010Prop37
 90
       50
102
RTVSPost2010PropOp37
 70
     1
102
RTVSPost2010Prop38
140
0.0
102
RTVSPost2010PropOp38
 70
     1
102
RTVSPost2010Prop39
140
1.0
102
RTVSPost2010PropOp39
 70
     1
102
RTVSPost2010Prop40
 90
        0
102
RTVSPost2010PropOp40
 70
     1
102
RTVSPost2010Prop41ColorIndex
 90
       18
102
RTVSPost2010Prop41ColorRGB
 90
        0
102
RTVSPost2010PropOp41
 70
     1
102
RTVSPost2010Prop42
 90
       50
102
RTVSPost2010PropOp42
 70
     1
102
RTVSPost2010Prop43
 90
        3
102
RTVSPost2010PropOp43
 70
     1
102
RTVSPost2010Prop44ColorIndex
 90
        5
102
RTVSPost2010Prop44ColorRGB
 90
      255
102
RTVSPost2010PropOp44
 70
     1
102
RTVSPost2010Prop45
280
     0
102
RTVSPost2010PropOp45
 70
     1
102
RTVSPost2010Prop46
 90
       50
102
RTVSPost2010PropOp46
 70
     1
102
RTVSPost2010Prop47
 90
       50
102
RTVSPost2010PropOp47
 70
     1
102
RTVSPost2010Prop48
 90
       50
102
RTVSPost2010PropOp48
 70
     1
102
RTVSPost2010Prop49
280
     0
102
RTVSPost2010PropOp49
 70
     1
102
RTVSPost2010Prop50
 90
       50
102
RTVSPost2010PropOp50
 70
     1
102
RTVSPost2010Prop51ColorIndex
 90
      256
102
RTVSPost2010Prop51ColorRGB
 90
-16777216
102
RTVSPost2010PropOp51
 70
     0
102
RTVSPost2010Prop52
140
1.0
102
RTVSPost2010PropOp52
 70
     0
102
RTVSPost2010Prop53
 90
        2
102
RTVSPost2010PropOp53
 70
     1
102
RTVSPost2010Prop54
  1
strokes_ogs.tif
102
RTVSPost2010PropOp54
 70
     1
102
RTVSPost2010Prop55
280
     0
102
RTVSPost2010PropOp55
 70
     1
102
RTVSPost2010Prop56
140
1.0
102
RTVSPost2010PropOp56
 70
     1
102
RTVSPost2010Prop57
140
1.0
102
RTVSPost2010PropOp57
 70
     1
  0
XRECORD
  5
377
102
{ACAD_REACTORS
330
376
102
}
330
376
100
AcDbXrecord
280
     1
102
RTVSPropertyOp0
 70
     1
102
RTVSPropertyOp1
 70
     1
102
RTVSPropertyOp2
 70
     1
102
RTVSPropertyOp3
 70
     1
102
RTVSPropertyOp4
 70
     1
102
RTVSPropertyOp5
 70
     1
102
RTVSPropertyOp6
 70
     1
102
RTVSPropertyOp7
 70
     1
102
RTVSPropertyOp8
 70
     1
102
RTVSPropertyOp9
 70
     1
102
RTVSPropertyOp10
 70
     1
102
RTVSPropertyOp11
 70
     1
102
RTVSPropertyOp12
 70
     1
102
RTVSPropertyOp13
 70
     1
102
RTVSPropertyOp14
 70
     1
102
RTVSPropertyOp15
 70
     1
102
RTVSPropertyOp16
 70
     1
102
RTVSPropertyOp17
 70
     1
102
RTVSPropertyOp18
 70
     1
102
RTVSPropertyOp19
 70
     1
102
RTVSPropertyOp20
 70
     1
102
RTVSPropertyOp21
 70
     1
102
RTVSPropertyOp22
 70
     1
102
RTVSPropertyOp23
 70
     1
102
RTVSPropertyOp24
 70
     1
102
RTVSPropertyOp25
 70
     1
102
RTVSPropertyOp26
 70
     1
102
RTVSPropertyOp27
 70
     1
102
RTVSPropertyOp28
 70
     1
102
RTVSPropertyOp29
 70
     1
102
RTVSPropertyOp30
 70
     1
102
RTVSPropertyOp31
 70
     1
102
RTVSPropertyOp32
 70
     1
102
RTVSPropertyOp33
 70
     1
102
RTVSPropertyOp34
 70
     1
102
RTVSPropertyOp35
 70
     1
102
RTVSPropertyOp36
 70
     1
102
RTVSPropertyOp37
 70
     1
102
RTVSPropertyOp38
 70
     1
102
RTVSPropertyOp39
 70
     1
102
RTVSPropertyOp40
 70
     1
102
RTVSPropertyOp41
 70
     1
102
RTVSPropertyOp42
 70
     1
102
RTVSPropertyOp43
 70
     1
102
RTVSPropertyOp44
 70
     1
102
RTVSPropertyOp45
 70
     1
102
RTVSPropertyOp46
 70
     1
102
RTVSPropertyOp47
 70
     1
102
RTVSPropertyOp48
 70
     1
102
RTVSPropertyOp49
 70
     1
102
RTVSPropertyOp50
 70
     1
102
RTVSPropertyOp51
 70
     0
102
RTVSPropertyOp52
 70
     0
102
RTVSPropertyOp53
 70
     1
102
RTVSPropertyOp54
 70
     1
102
RTVSPropertyOp55
 70
     1
102
RTVSPropertyOp56
 70
     1
102
RTVSPropertyOp57
 70
     1
102
RTVSPost2010Prop28
280
     0
102
RTVSPost2010PropOp28
 70
     1
102
RTVSPost2010Prop29
280
     1
102
RTVSPost2010PropOp29
 70
     1
102
RTVSPost2010Prop30
280
     1
102
RTVSPost2010PropOp30
 70
     1
102
RTVSPost2010Prop31
280
     0
102
RTVSPost2010PropOp31
 70
     1
102
RTVSPost2010Prop32
280
     0
102
RTVSPost2010PropOp32
 70
     1
102
RTVSPost2010Prop33
280
     0
102
RTVSPost2010PropOp33
 70
     1
102
RTVSPost2010Prop34
280
     0
102
RTVSPost2010PropOp34
 70
     1
102
RTVSPost2010Prop35
280
     0
102
RTVSPost2010PropOp35
 70
     1
102
RTVSPost2010Prop36
280
     0
102
RTVSPost2010PropOp36
 70
     1
102
RTVSPost2010Prop37
 90
       50
102
RTVSPost2010PropOp37
 70
     1
102
RTVSPost2010Prop38
140
0.0
102
RTVSPost2010PropOp38
 70
     1
102
RTVSPost2010Prop39
140
1.0
102
RTVSPost2010PropOp39
 70
     1
102
RTVSPost2010Prop40
 90
        0
102
RTVSPost2010PropOp40
 70
     1
102
RTVSPost2010Prop41ColorIndex
 90
       18
102
RTVSPost2010Prop41ColorRGB
 90
        0
102
RTVSPost2010PropOp41
 70
     1
102
RTVSPost2010Prop42
 90
       50
102
RTVSPost2010PropOp42
 70
     1
102
RTVSPost2010Prop43
 90
        3
102
RTVSPost2010PropOp43
 70
     1
102
RTVSPost2010Prop44ColorIndex
 90
        5
102
RTVSPost2010Prop44ColorRGB
 90
      255
102
RTVSPost2010PropOp44
 70
     1
102
RTVSPost2010Prop45
280
     0
102
RTVSPost2010PropOp45
 70
     1
102
RTVSPost2010Prop46
 90
       50
102
RTVSPost2010PropOp46
 70
     1
102
RTVSPost2010Prop47
 90
       50
102
RTVSPost2010PropOp47
 70
     1
102
RTVSPost2010Prop48
 90
       50
102
RTVSPost2010PropOp48
 70
     1
102
RTVSPost2010Prop49
280
     0
102
RTVSPost2010PropOp49
 70
     1
102
RTVSPost2010Prop50
 90
       50
102
RTVSPost2010PropOp50
 70
     1
102
RTVSPost2010Prop51ColorIndex
 90
      256
102
RTVSPost2010Prop51ColorRGB
 90
-16777216
102
RTVSPost2010PropOp51
 70
     0
102
RTVSPost2010Prop52
140
1.0
102
RTVSPost2010PropOp52
 70
     0
102
RTVSPost2010Prop53
 90
        2
102
RTVSPost2010PropOp53
 70
     1
102
RTVSPost2010Prop54
  1
strokes_ogs.tif
102
RTVSPost2010PropOp54
 70
     1
102
RTVSPost2010Prop55
280
     0
102
RTVSPost2010PropOp55
 70
     1
102
RTVSPost2010Prop56
140
1.0
102
RTVSPost2010PropOp56
 70
     1
102
RTVSPost2010Prop57
140
1.0
102
RTVSPost2010PropOp57
 70
     1
  0
XRECORD
  5
37D
102
{ACAD_REACTORS
330
37C
102
}
330
37C
100
AcDbXrecord
280
     1
102
RTVSPropertyOp0
 70
     1
102
RTVSPropertyOp1
 70
     1
102
RTVSPropertyOp2
 70
     1
102
RTVSPropertyOp3
 70
     1
102
RTVSPropertyOp4
 70
     1
102
RTVSPropertyOp5
 70
     1
102
RTVSPropertyOp6
 70
     1
102
RTVSPropertyOp7
 70
     1
102
RTVSPropertyOp8
 70
     1
102
RTVSPropertyOp9
 70
     1
102
RTVSPropertyOp10
 70
     1
102
RTVSPropertyOp11
 70
     1
102
RTVSPropertyOp12
 70
     1
102
RTVSPropertyOp13
 70
     1
102
RTVSPropertyOp14
 70
     1
102
RTVSPropertyOp15
 70
     1
102
RTVSPropertyOp16
 70
     1
102
RTVSPropertyOp17
 70
     1
102
RTVSPropertyOp18
 70
     1
102
RTVSPropertyOp19
 70
     1
102
RTVSPropertyOp20
 70
     1
102
RTVSPropertyOp21
 70
     1
102
RTVSPropertyOp22
 70
     1
102
RTVSPropertyOp23
 70
     1
102
RTVSPropertyOp24
 70
     1
102
RTVSPropertyOp25
 70
     1
102
RTVSPropertyOp26
 70
     1
102
RTVSPropertyOp27
 70
     1
102
RTVSPropertyOp28
 70
     1
102
RTVSPropertyOp29
 70
     1
102
RTVSPropertyOp30
 70
     1
102
RTVSPropertyOp31
 70
     1
102
RTVSPropertyOp32
 70
     1
102
RTVSPropertyOp33
 70
     1
102
RTVSPropertyOp34
 70
     1
102
RTVSPropertyOp35
 70
     1
102
RTVSPropertyOp36
 70
     1
102
RTVSPropertyOp37
 70
     1
102
RTVSPropertyOp38
 70
     1
102
RTVSPropertyOp39
 70
     1
102
RTVSPropertyOp40
 70
     1
102
RTVSPropertyOp41
 70
     1
102
RTVSPropertyOp42
 70
     1
102
RTVSPropertyOp43
 70
     1
102
RTVSPropertyOp44
 70
     1
102
RTVSPropertyOp45
 70
     1
102
RTVSPropertyOp46
 70
     1
102
RTVSPropertyOp47
 70
     1
102
RTVSPropertyOp48
 70
     1
102
RTVSPropertyOp49
 70
     1
102
RTVSPropertyOp50
 70
     1
102
RTVSPropertyOp51
 70
     0
102
RTVSPropertyOp52
 70
     0
102
RTVSPropertyOp53
 70
     1
102
RTVSPropertyOp54
 70
     1
102
RTVSPropertyOp55
 70
     1
102
RTVSPropertyOp56
 70
     1
102
RTVSPropertyOp57
 70
     1
102
RTVSPost2010Prop28
280
     0
102
RTVSPost2010PropOp28
 70
     1
102
RTVSPost2010Prop29
280
     1
102
RTVSPost2010PropOp29
 70
     1
102
RTVSPost2010Prop30
280
     1
102
RTVSPost2010PropOp30
 70
     1
102
RTVSPost2010Prop31
280
     0
102
RTVSPost2010PropOp31
 70
     1
102
RTVSPost2010Prop32
280
     0
102
RTVSPost2010PropOp32
 70
     1
102
RTVSPost2010Prop33
280
     0
102
RTVSPost2010PropOp33
 70
     1
102
RTVSPost2010Prop34
280
     0
102
RTVSPost2010PropOp34
 70
     1
102
RTVSPost2010Prop35
280
     0
102
RTVSPost2010PropOp35
 70
     1
102
RTVSPost2010Prop36
280
     0
102
RTVSPost2010PropOp36
 70
     1
102
RTVSPost2010Prop37
 90
       50
102
RTVSPost2010PropOp37
 70
     1
102
RTVSPost2010Prop38
140
0.0
102
RTVSPost2010PropOp38
 70
     1
102
RTVSPost2010Prop39
140
1.0
102
RTVSPost2010PropOp39
 70
     1
102
RTVSPost2010Prop40
 90
        0
102
RTVSPost2010PropOp40
 70
     1
102
RTVSPost2010Prop41ColorIndex
 90
       18
102
RTVSPost2010Prop41ColorRGB
 90
        0
102
RTVSPost2010PropOp41
 70
     1
102
RTVSPost2010Prop42
 90
       50
102
RTVSPost2010PropOp42
 70
     1
102
RTVSPost2010Prop43
 90
        3
102
RTVSPost2010PropOp43
 70
     1
102
RTVSPost2010Prop44ColorIndex
 90
        5
102
RTVSPost2010Prop44ColorRGB
 90
      255
102
RTVSPost2010PropOp44
 70
     1
102
RTVSPost2010Prop45
280
     0
102
RTVSPost2010PropOp45
 70
     1
102
RTVSPost2010Prop46
 90
       50
102
RTVSPost2010PropOp46
 70
     1
102
RTVSPost2010Prop47
 90
       50
102
RTVSPost2010PropOp47
 70
     1
102
RTVSPost2010Prop48
 90
       50
102
RTVSPost2010PropOp48
 70
     1
102
RTVSPost2010Prop49
280
     0
102
RTVSPost2010PropOp49
 70
     1
102
RTVSPost2010Prop50
 90
       50
102
RTVSPost2010PropOp50
 70
     1
102
RTVSPost2010Prop51ColorIndex
 90
      256
102
RTVSPost2010Prop51ColorRGB
 90
-16777216
102
RTVSPost2010PropOp51
 70
     0
102
RTVSPost2010Prop52
140
1.0
102
RTVSPost2010PropOp52
 70
     0
102
RTVSPost2010Prop53
 90
        2
102
RTVSPost2010PropOp53
 70
     1
102
RTVSPost2010Prop54
  1
strokes_ogs.tif
102
RTVSPost2010PropOp54
 70
     1
102
RTVSPost2010Prop55
280
     0
102
RTVSPost2010PropOp55
 70
     1
102
RTVSPost2010Prop56
140
1.0
102
RTVSPost2010PropOp56
 70
     1
102
RTVSPost2010Prop57
140
1.0
102
RTVSPost2010PropOp57
 70
     1
  0
XRECORD
  5
391
102
{ACAD_REACTORS
330
390
102
}
330
390
100
AcDbXrecord
280
     1
102
RTVSPropertyOp0
 70
     0
102
RTVSPropertyOp1
 70
     0
102
RTVSPropertyOp2
 70
     0
102
RTVSPropertyOp3
 70
     0
102
RTVSPropertyOp4
 70
     0
102
RTVSPropertyOp5
 70
     0
102
RTVSPropertyOp6
 70
     0
102
RTVSPropertyOp7
 70
     0
102
RTVSPropertyOp8
 70
     0
102
RTVSPropertyOp9
 70
     0
102
RTVSPropertyOp10
 70
     0
102
RTVSPropertyOp11
 70
     0
102
RTVSPropertyOp12
 70
     0
102
RTVSPropertyOp13
 70
     0
102
RTVSPropertyOp14
 70
     2
102
RTVSPropertyOp15
 70
     0
102
RTVSPropertyOp16
 70
     0
102
RTVSPropertyOp17
 70
     0
102
RTVSPropertyOp18
 70
     0
102
RTVSPropertyOp19
 70
     0
102
RTVSPropertyOp20
 70
     0
102
RTVSPropertyOp21
 70
     0
102
RTVSPropertyOp22
 70
     0
102
RTVSPropertyOp23
 70
     0
102
RTVSPropertyOp24
 70
     0
102
RTVSPropertyOp25
 70
     0
102
RTVSPropertyOp26
 70
     0
102
RTVSPropertyOp27
 70
     0
102
RTVSPropertyOp28
 70
     0
102
RTVSPropertyOp29
 70
     0
102
RTVSPropertyOp30
 70
     0
102
RTVSPropertyOp31
 70
     0
102
RTVSPropertyOp32
 70
     0
102
RTVSPropertyOp33
 70
     0
102
RTVSPropertyOp34
 70
     0
102
RTVSPropertyOp35
 70
     0
102
RTVSPropertyOp36
 70
     0
102
RTVSPropertyOp37
 70
     0
102
RTVSPropertyOp38
 70
     0
102
RTVSPropertyOp39
 70
     0
102
RTVSPropertyOp40
 70
     0
102
RTVSPropertyOp41
 70
     0
102
RTVSPropertyOp42
 70
     0
102
RTVSPropertyOp43
 70
     0
102
RTVSPropertyOp44
 70
     0
102
RTVSPropertyOp45
 70
     0
102
RTVSPropertyOp46
 70
     0
102
RTVSPropertyOp47
 70
     0
102
RTVSPropertyOp48
 70
     0
102
RTVSPropertyOp49
 70
     0
102
RTVSPropertyOp50
 70
     0
102
RTVSPropertyOp51
 70
     0
102
RTVSPropertyOp52
 70
     0
102
RTVSPropertyOp53
 70
     0
102
RTVSPropertyOp54
 70
     0
102
RTVSPropertyOp55
 70
     0
102
RTVSPropertyOp56
 70
     0
102
RTVSPropertyOp57
 70
     0
102
RTVSPost2010Prop28
280
     0
102
RTVSPost2010PropOp28
 70
     0
102
RTVSPost2010Prop29
280
     1
102
RTVSPost2010PropOp29
 70
     0
102
RTVSPost2010Prop30
280
     1
102
RTVSPost2010PropOp30
 70
     0
102
RTVSPost2010Prop31
280
     0
102
RTVSPost2010PropOp31
 70
     0
102
RTVSPost2010Prop32
280
     0
102
RTVSPost2010PropOp32
 70
     0
102
RTVSPost2010Prop33
280
     0
102
RTVSPost2010PropOp33
 70
     0
102
RTVSPost2010Prop34
280
     0
102
RTVSPost2010PropOp34
 70
     0
102
RTVSPost2010Prop35
280
     0
102
RTVSPost2010PropOp35
 70
     0
102
RTVSPost2010Prop36
280
     0
102
RTVSPost2010PropOp36
 70
     0
102
RTVSPost2010Prop37
 90
       50
102
RTVSPost2010PropOp37
 70
     0
102
RTVSPost2010Prop38
140
0.0
102
RTVSPost2010PropOp38
 70
     0
102
RTVSPost2010Prop39
140
1.0
102
RTVSPost2010PropOp39
 70
     0
102
RTVSPost2010Prop40
 90
        0
102
RTVSPost2010PropOp40
 70
     0
102
RTVSPost2010Prop41ColorIndex
 90
       18
102
RTVSPost2010Prop41ColorRGB
 90
        0
102
RTVSPost2010PropOp41
 70
     0
102
RTVSPost2010Prop42
 90
       50
102
RTVSPost2010PropOp42
 70
     0
102
RTVSPost2010Prop43
 90
        3
102
RTVSPost2010PropOp43
 70
     0
102
RTVSPost2010Prop44ColorIndex
 90
        5
102
RTVSPost2010Prop44ColorRGB
 90
      255
102
RTVSPost2010PropOp44
 70
     0
102
RTVSPost2010Prop45
280
     0
102
RTVSPost2010PropOp45
 70
     0
102
RTVSPost2010Prop46
 90
       50
102
RTVSPost2010PropOp46
 70
     0
102
RTVSPost2010Prop47
 90
       50
102
RTVSPost2010PropOp47
 70
     0
102
RTVSPost2010Prop48
 90
       50
102
RTVSPost2010PropOp48
 70
     0
102
RTVSPost2010Prop49
280
     0
102
RTVSPost2010PropOp49
 70
     0
102
RTVSPost2010Prop50
 90
       50
102
RTVSPost2010PropOp50
 70
     0
102
RTVSPost2010Prop51ColorIndex
 90
      256
102
RTVSPost2010Prop51ColorRGB
 90
-16777216
102
RTVSPost2010PropOp51
 70
     0
102
RTVSPost2010Prop52
140
1.0
102
RTVSPost2010PropOp52
 70
     0
102
RTVSPost2010Prop53
 90
        2
102
RTVSPost2010PropOp53
 70
     0
102
RTVSPost2010Prop54
  1
strokes_ogs.tif
102
RTVSPost2010PropOp54
 70
     0
102
RTVSPost2010Prop55
280
     0
102
RTVSPost2010PropOp55
 70
     0
102
RTVSPost2010Prop56
140
1.0
102
RTVSPost2010PropOp56
 70
     0
102
RTVSPost2010Prop57
140
1.0
102
RTVSPost2010PropOp57
 70
     0
  0
XRECORD
  5
38B
102
{ACAD_REACTORS
330
38A
102
}
330
38A
100
AcDbXrecord
280
     1
102
RTVSPropertyOp0
 70
     1
102
RTVSPropertyOp1
 70
     1
102
RTVSPropertyOp2
 70
     1
102
RTVSPropertyOp3
 70
     1
102
RTVSPropertyOp4
 70
     1
102
RTVSPropertyOp5
 70
     1
102
RTVSPropertyOp6
 70
     1
102
RTVSPropertyOp7
 70
     1
102
RTVSPropertyOp8
 70
     1
102
RTVSPropertyOp9
 70
     1
102
RTVSPropertyOp10
 70
     1
102
RTVSPropertyOp11
 70
     1
102
RTVSPropertyOp12
 70
     1
102
RTVSPropertyOp13
 70
     1
102
RTVSPropertyOp14
 70
     1
102
RTVSPropertyOp15
 70
     1
102
RTVSPropertyOp16
 70
     1
102
RTVSPropertyOp17
 70
     1
102
RTVSPropertyOp18
 70
     1
102
RTVSPropertyOp19
 70
     1
102
RTVSPropertyOp20
 70
     1
102
RTVSPropertyOp21
 70
     1
102
RTVSPropertyOp22
 70
     1
102
RTVSPropertyOp23
 70
     1
102
RTVSPropertyOp24
 70
     1
102
RTVSPropertyOp25
 70
     1
102
RTVSPropertyOp26
 70
     1
102
RTVSPropertyOp27
 70
     1
102
RTVSPropertyOp28
 70
     1
102
RTVSPropertyOp29
 70
     1
102
RTVSPropertyOp30
 70
     1
102
RTVSPropertyOp31
 70
     1
102
RTVSPropertyOp32
 70
     1
102
RTVSPropertyOp33
 70
     1
102
RTVSPropertyOp34
 70
     1
102
RTVSPropertyOp35
 70
     1
102
RTVSPropertyOp36
 70
     1
102
RTVSPropertyOp37
 70
     1
102
RTVSPropertyOp38
 70
     1
102
RTVSPropertyOp39
 70
     1
102
RTVSPropertyOp40
 70
     1
102
RTVSPropertyOp41
 70
     1
102
RTVSPropertyOp42
 70
     1
102
RTVSPropertyOp43
 70
     1
102
RTVSPropertyOp44
 70
     1
102
RTVSPropertyOp45
 70
     1
102
RTVSPropertyOp46
 70
     1
102
RTVSPropertyOp47
 70
     1
102
RTVSPropertyOp48
 70
     1
102
RTVSPropertyOp49
 70
     1
102
RTVSPropertyOp50
 70
     1
102
RTVSPropertyOp51
 70
     0
102
RTVSPropertyOp52
 70
     0
102
RTVSPropertyOp53
 70
     1
102
RTVSPropertyOp54
 70
     1
102
RTVSPropertyOp55
 70
     1
102
RTVSPropertyOp56
 70
     1
102
RTVSPropertyOp57
 70
     1
102
RTVSPost2010Prop28
280
     0
102
RTVSPost2010PropOp28
 70
     1
102
RTVSPost2010Prop29
280
     1
102
RTVSPost2010PropOp29
 70
     1
102
RTVSPost2010Prop30
280
     1
102
RTVSPost2010PropOp30
 70
     1
102
RTVSPost2010Prop31
280
     0
102
RTVSPost2010PropOp31
 70
     1
102
RTVSPost2010Prop32
280
     0
102
RTVSPost2010PropOp32
 70
     1
102
RTVSPost2010Prop33
280
     0
102
RTVSPost2010PropOp33
 70
     1
102
RTVSPost2010Prop34
280
     0
102
RTVSPost2010PropOp34
 70
     1
102
RTVSPost2010Prop35
280
     0
102
RTVSPost2010PropOp35
 70
     1
102
RTVSPost2010Prop36
280
     0
102
RTVSPost2010PropOp36
 70
     1
102
RTVSPost2010Prop37
 90
       50
102
RTVSPost2010PropOp37
 70
     1
102
RTVSPost2010Prop38
140
0.0
102
RTVSPost2010PropOp38
 70
     1
102
RTVSPost2010Prop39
140
1.0
102
RTVSPost2010PropOp39
 70
     1
102
RTVSPost2010Prop40
 90
        0
102
RTVSPost2010PropOp40
 70
     1
102
RTVSPost2010Prop41ColorIndex
 90
       18
102
RTVSPost2010Prop41ColorRGB
 90
        0
102
RTVSPost2010PropOp41
 70
     1
102
RTVSPost2010Prop42
 90
       50
102
RTVSPost2010PropOp42
 70
     1
102
RTVSPost2010Prop43
 90
        3
102
RTVSPost2010PropOp43
 70
     1
102
RTVSPost2010Prop44ColorIndex
 90
        5
102
RTVSPost2010Prop44ColorRGB
 90
      255
102
RTVSPost2010PropOp44
 70
     1
102
RTVSPost2010Prop45
280
     0
102
RTVSPost2010PropOp45
 70
     1
102
RTVSPost2010Prop46
 90
       50
102
RTVSPost2010PropOp46
 70
     1
102
RTVSPost2010Prop47
 90
       50
102
RTVSPost2010PropOp47
 70
     1
102
RTVSPost2010Prop48
 90
       50
102
RTVSPost2010PropOp48
 70
     1
102
RTVSPost2010Prop49
280
     0
102
RTVSPost2010PropOp49
 70
     1
102
RTVSPost2010Prop50
 90
       50
102
RTVSPost2010PropOp50
 70
     1
102
RTVSPost2010Prop51ColorIndex
 90
      256
102
RTVSPost2010Prop51ColorRGB
 90
-16777216
102
RTVSPost2010PropOp51
 70
     0
102
RTVSPost2010Prop52
140
1.0
102
RTVSPost2010PropOp52
 70
     0
102
RTVSPost2010Prop53
 90
        2
102
RTVSPost2010PropOp53
 70
     1
102
RTVSPost2010Prop54
  1
strokes_ogs.tif
102
RTVSPost2010PropOp54
 70
     1
102
RTVSPost2010Prop55
280
     0
102
RTVSPost2010PropOp55
 70
     1
102
RTVSPost2010Prop56
140
1.0
102
RTVSPost2010PropOp56
 70
     1
102
RTVSPost2010Prop57
140
1.0
102
RTVSPost2010PropOp57
 70
     1
  0
XRECORD
  5
393
102
{ACAD_REACTORS
330
392
102
}
330
392
100
AcDbXrecord
280
     1
102
RTVSPropertyOp0
 70
     0
102
RTVSPropertyOp1
 70
     0
102
RTVSPropertyOp2
 70
     0
102
RTVSPropertyOp3
 70
     0
102
RTVSPropertyOp4
 70
     0
102
RTVSPropertyOp5
 70
     0
102
RTVSPropertyOp6
 70
     0
102
RTVSPropertyOp7
 70
     0
102
RTVSPropertyOp8
 70
     0
102
RTVSPropertyOp9
 70
     0
102
RTVSPropertyOp10
 70
     0
102
RTVSPropertyOp11
 70
     0
102
RTVSPropertyOp12
 70
     0
102
RTVSPropertyOp13
 70
     0
102
RTVSPropertyOp14
 70
     2
102
RTVSPropertyOp15
 70
     0
102
RTVSPropertyOp16
 70
     0
102
RTVSPropertyOp17
 70
     0
102
RTVSPropertyOp18
 70
     0
102
RTVSPropertyOp19
 70
     0
102
RTVSPropertyOp20
 70
     0
102
RTVSPropertyOp21
 70
     0
102
RTVSPropertyOp22
 70
     0
102
RTVSPropertyOp23
 70
     0
102
RTVSPropertyOp24
 70
     0
102
RTVSPropertyOp25
 70
     0
102
RTVSPropertyOp26
 70
     0
102
RTVSPropertyOp27
 70
     0
102
RTVSPropertyOp28
 70
     0
102
RTVSPropertyOp29
 70
     0
102
RTVSPropertyOp30
 70
     0
102
RTVSPropertyOp31
 70
     0
102
RTVSPropertyOp32
 70
     0
102
RTVSPropertyOp33
 70
     0
102
RTVSPropertyOp34
 70
     0
102
RTVSPropertyOp35
 70
     0
102
RTVSPropertyOp36
 70
     0
102
RTVSPropertyOp37
 70
     0
102
RTVSPropertyOp38
 70
     0
102
RTVSPropertyOp39
 70
     0
102
RTVSPropertyOp40
 70
     0
102
RTVSPropertyOp41
 70
     0
102
RTVSPropertyOp42
 70
     0
102
RTVSPropertyOp43
 70
     0
102
RTVSPropertyOp44
 70
     0
102
RTVSPropertyOp45
 70
     0
102
RTVSPropertyOp46
 70
     0
102
RTVSPropertyOp47
 70
     0
102
RTVSPropertyOp48
 70
     0
102
RTVSPropertyOp49
 70
     0
102
RTVSPropertyOp50
 70
     0
102
RTVSPropertyOp51
 70
     0
102
RTVSPropertyOp52
 70
     0
102
RTVSPropertyOp53
 70
     0
102
RTVSPropertyOp54
 70
     0
102
RTVSPropertyOp55
 70
     0
102
RTVSPropertyOp56
 70
     0
102
RTVSPropertyOp57
 70
     0
102
RTVSPost2010Prop28
280
     0
102
RTVSPost2010PropOp28
 70
     0
102
RTVSPost2010Prop29
280
     1
102
RTVSPost2010PropOp29
 70
     0
102
RTVSPost2010Prop30
280
     1
102
RTVSPost2010PropOp30
 70
     0
102
RTVSPost2010Prop31
280
     0
102
RTVSPost2010PropOp31
 70
     0
102
RTVSPost2010Prop32
280
     0
102
RTVSPost2010PropOp32
 70
     0
102
RTVSPost2010Prop33
280
     0
102
RTVSPost2010PropOp33
 70
     0
102
RTVSPost2010Prop34
280
     0
102
RTVSPost2010PropOp34
 70
     0
102
RTVSPost2010Prop35
280
     0
102
RTVSPost2010PropOp35
 70
     0
102
RTVSPost2010Prop36
280
     0
102
RTVSPost2010PropOp36
 70
     0
102
RTVSPost2010Prop37
 90
       50
102
RTVSPost2010PropOp37
 70
     0
102
RTVSPost2010Prop38
140
0.0
102
RTVSPost2010PropOp38
 70
     0
102
RTVSPost2010Prop39
140
1.0
102
RTVSPost2010PropOp39
 70
     0
102
RTVSPost2010Prop40
 90
        0
102
RTVSPost2010PropOp40
 70
     0
102
RTVSPost2010Prop41ColorIndex
 90
       18
102
RTVSPost2010Prop41ColorRGB
 90
        0
102
RTVSPost2010PropOp41
 70
     0
102
RTVSPost2010Prop42
 90
       50
102
RTVSPost2010PropOp42
 70
     0
102
RTVSPost2010Prop43
 90
        3
102
RTVSPost2010PropOp43
 70
     0
102
RTVSPost2010Prop44ColorIndex
 90
        5
102
RTVSPost2010Prop44ColorRGB
 90
      255
102
RTVSPost2010PropOp44
 70
     0
102
RTVSPost2010Prop45
280
     0
102
RTVSPost2010PropOp45
 70
     0
102
RTVSPost2010Prop46
 90
       50
102
RTVSPost2010PropOp46
 70
     0
102
RTVSPost2010Prop47
 90
       50
102
RTVSPost2010PropOp47
 70
     0
102
RTVSPost2010Prop48
 90
       50
102
RTVSPost2010PropOp48
 70
     0
102
RTVSPost2010Prop49
280
     0
102
RTVSPost2010PropOp49
 70
     0
102
RTVSPost2010Prop50
 90
       50
102
RTVSPost2010PropOp50
 70
     0
102
RTVSPost2010Prop51ColorIndex
 90
      256
102
RTVSPost2010Prop51ColorRGB
 90
-16777216
102
RTVSPost2010PropOp51
 70
     0
102
RTVSPost2010Prop52
140
1.0
102
RTVSPost2010PropOp52
 70
     0
102
RTVSPost2010Prop53
 90
        2
102
RTVSPost2010PropOp53
 70
     0
102
RTVSPost2010Prop54
  1
strokes_ogs.tif
102
RTVSPost2010PropOp54
 70
     0
102
RTVSPost2010Prop55
280
     0
102
RTVSPost2010PropOp55
 70
     0
102
RTVSPost2010Prop56
140
1.0
102
RTVSPost2010PropOp56
 70
     0
102
RTVSPost2010Prop57
140
1.0
102
RTVSPost2010PropOp57
 70
     0
  0
XRECORD
  5
381
102
{ACAD_REACTORS
330
380
102
}
330
380
100
AcDbXrecord
280
     1
102
RTVSPropertyOp0
 70
     1
102
RTVSPropertyOp1
 70
     1
102
RTVSPropertyOp2
 70
     1
102
RTVSPropertyOp3
 70
     1
102
RTVSPropertyOp4
 70
     1
102
RTVSPropertyOp5
 70
     1
102
RTVSPropertyOp6
 70
     1
102
RTVSPropertyOp7
 70
     1
102
RTVSPropertyOp8
 70
     1
102
RTVSPropertyOp9
 70
     1
102
RTVSPropertyOp10
 70
     1
102
RTVSPropertyOp11
 70
     1
102
RTVSPropertyOp12
 70
     1
102
RTVSPropertyOp13
 70
     1
102
RTVSPropertyOp14
 70
     1
102
RTVSPropertyOp15
 70
     1
102
RTVSPropertyOp16
 70
     1
102
RTVSPropertyOp17
 70
     1
102
RTVSPropertyOp18
 70
     1
102
RTVSPropertyOp19
 70
     1
102
RTVSPropertyOp20
 70
     1
102
RTVSPropertyOp21
 70
     1
102
RTVSPropertyOp22
 70
     1
102
RTVSPropertyOp23
 70
     1
102
RTVSPropertyOp24
 70
     1
102
RTVSPropertyOp25
 70
     1
102
RTVSPropertyOp26
 70
     1
102
RTVSPropertyOp27
 70
     1
102
RTVSPropertyOp28
 70
     1
102
RTVSPropertyOp29
 70
     1
102
RTVSPropertyOp30
 70
     1
102
RTVSPropertyOp31
 70
     1
102
RTVSPropertyOp32
 70
     1
102
RTVSPropertyOp33
 70
     1
102
RTVSPropertyOp34
 70
     1
102
RTVSPropertyOp35
 70
     1
102
RTVSPropertyOp36
 70
     1
102
RTVSPropertyOp37
 70
     1
102
RTVSPropertyOp38
 70
     1
102
RTVSPropertyOp39
 70
     1
102
RTVSPropertyOp40
 70
     1
102
RTVSPropertyOp41
 70
     1
102
RTVSPropertyOp42
 70
     1
102
RTVSPropertyOp43
 70
     1
102
RTVSPropertyOp44
 70
     1
102
RTVSPropertyOp45
 70
     1
102
RTVSPropertyOp46
 70
     1
102
RTVSPropertyOp47
 70
     1
102
RTVSPropertyOp48
 70
     1
102
RTVSPropertyOp49
 70
     1
102
RTVSPropertyOp50
 70
     1
102
RTVSPropertyOp51
 70
     0
102
RTVSPropertyOp52
 70
     0
102
RTVSPropertyOp53
 70
     1
102
RTVSPropertyOp54
 70
     1
102
RTVSPropertyOp55
 70
     1
102
RTVSPropertyOp56
 70
     1
102
RTVSPropertyOp57
 70
     1
102
RTVSPost2010Prop28
280
     0
102
RTVSPost2010PropOp28
 70
     1
102
RTVSPost2010Prop29
280
     1
102
RTVSPost2010PropOp29
 70
     1
102
RTVSPost2010Prop30
280
     1
102
RTVSPost2010PropOp30
 70
     1
102
RTVSPost2010Prop31
280
     0
102
RTVSPost2010PropOp31
 70
     1
102
RTVSPost2010Prop32
280
     0
102
RTVSPost2010PropOp32
 70
     1
102
RTVSPost2010Prop33
280
     0
102
RTVSPost2010PropOp33
 70
     1
102
RTVSPost2010Prop34
280
     0
102
RTVSPost2010PropOp34
 70
     1
102
RTVSPost2010Prop35
280
     0
102
RTVSPost2010PropOp35
 70
     1
102
RTVSPost2010Prop36
280
     0
102
RTVSPost2010PropOp36
 70
     1
102
RTVSPost2010Prop37
 90
       50
102
RTVSPost2010PropOp37
 70
     1
102
RTVSPost2010Prop38
140
0.0
102
RTVSPost2010PropOp38
 70
     1
102
RTVSPost2010Prop39
140
1.0
102
RTVSPost2010PropOp39
 70
     1
102
RTVSPost2010Prop40
 90
        0
102
RTVSPost2010PropOp40
 70
     1
102
RTVSPost2010Prop41ColorIndex
 90
       18
102
RTVSPost2010Prop41ColorRGB
 90
        0
102
RTVSPost2010PropOp41
 70
     1
102
RTVSPost2010Prop42
 90
       50
102
RTVSPost2010PropOp42
 70
     1
102
RTVSPost2010Prop43
 90
        3
102
RTVSPost2010PropOp43
 70
     1
102
RTVSPost2010Prop44ColorIndex
 90
        5
102
RTVSPost2010Prop44ColorRGB
 90
      255
102
RTVSPost2010PropOp44
 70
     1
102
RTVSPost2010Prop45
280
     0
102
RTVSPost2010PropOp45
 70
     1
102
RTVSPost2010Prop46
 90
       50
102
RTVSPost2010PropOp46
 70
     1
102
RTVSPost2010Prop47
 90
       50
102
RTVSPost2010PropOp47
 70
     1
102
RTVSPost2010Prop48
 90
       50
102
RTVSPost2010PropOp48
 70
     1
102
RTVSPost2010Prop49
280
     0
102
RTVSPost2010PropOp49
 70
     1
102
RTVSPost2010Prop50
 90
       50
102
RTVSPost2010PropOp50
 70
     1
102
RTVSPost2010Prop51ColorIndex
 90
      256
102
RTVSPost2010Prop51ColorRGB
 90
-16777216
102
RTVSPost2010PropOp51
 70
     0
102
RTVSPost2010Prop52
140
1.0
102
RTVSPost2010PropOp52
 70
     0
102
RTVSPost2010Prop53
 90
        2
102
RTVSPost2010PropOp53
 70
     1
102
RTVSPost2010Prop54
  1
strokes_ogs.tif
102
RTVSPost2010PropOp54
 70
     1
102
RTVSPost2010Prop55
280
     0
102
RTVSPost2010PropOp55
 70
     1
102
RTVSPost2010Prop56
140
1.0
102
RTVSPost2010PropOp56
 70
     1
102
RTVSPost2010Prop57
140
1.0
102
RTVSPost2010PropOp57
 70
     1
  0
XRECORD
  5
39F
102
{ACAD_REACTORS
330
39E
102
}
330
39E
100
AcDbXrecord
280
     1
102
RTVSPropertyOp0
 70
     1
102
RTVSPropertyOp1
 70
     1
102
RTVSPropertyOp2
 70
     1
102
RTVSPropertyOp3
 70
     1
102
RTVSPropertyOp4
 70
     1
102
RTVSPropertyOp5
 70
     1
102
RTVSPropertyOp6
 70
     1
102
RTVSPropertyOp7
 70
     1
102
RTVSPropertyOp8
 70
     1
102
RTVSPropertyOp9
 70
     1
102
RTVSPropertyOp10
 70
     1
102
RTVSPropertyOp11
 70
     1
102
RTVSPropertyOp12
 70
     1
102
RTVSPropertyOp13
 70
     1
102
RTVSPropertyOp14
 70
     1
102
RTVSPropertyOp15
 70
     1
102
RTVSPropertyOp16
 70
     1
102
RTVSPropertyOp17
 70
     1
102
RTVSPropertyOp18
 70
     1
102
RTVSPropertyOp19
 70
     1
102
RTVSPropertyOp20
 70
     1
102
RTVSPropertyOp21
 70
     1
102
RTVSPropertyOp22
 70
     1
102
RTVSPropertyOp23
 70
     1
102
RTVSPropertyOp24
 70
     1
102
RTVSPropertyOp25
 70
     1
102
RTVSPropertyOp26
 70
     1
102
RTVSPropertyOp27
 70
     1
102
RTVSPropertyOp28
 70
     1
102
RTVSPropertyOp29
 70
     1
102
RTVSPropertyOp30
 70
     1
102
RTVSPropertyOp31
 70
     1
102
RTVSPropertyOp32
 70
     1
102
RTVSPropertyOp33
 70
     1
102
RTVSPropertyOp34
 70
     1
102
RTVSPropertyOp35
 70
     1
102
RTVSPropertyOp36
 70
     1
102
RTVSPropertyOp37
 70
     1
102
RTVSPropertyOp38
 70
     1
102
RTVSPropertyOp39
 70
     1
102
RTVSPropertyOp40
 70
     1
102
RTVSPropertyOp41
 70
     1
102
RTVSPropertyOp42
 70
     1
102
RTVSPropertyOp43
 70
     1
102
RTVSPropertyOp44
 70
     1
102
RTVSPropertyOp45
 70
     1
102
RTVSPropertyOp46
 70
     1
102
RTVSPropertyOp47
 70
     1
102
RTVSPropertyOp48
 70
     1
102
RTVSPropertyOp49
 70
     1
102
RTVSPropertyOp50
 70
     1
102
RTVSPropertyOp51
 70
     0
102
RTVSPropertyOp52
 70
     0
102
RTVSPropertyOp53
 70
     1
102
RTVSPropertyOp54
 70
     1
102
RTVSPropertyOp55
 70
     1
102
RTVSPropertyOp56
 70
     1
102
RTVSPropertyOp57
 70
     1
102
RTVSPost2010Prop28
280
     0
102
RTVSPost2010PropOp28
 70
     1
102
RTVSPost2010Prop29
280
     1
102
RTVSPost2010PropOp29
 70
     1
102
RTVSPost2010Prop30
280
     1
102
RTVSPost2010PropOp30
 70
     1
102
RTVSPost2010Prop31
280
     0
102
RTVSPost2010PropOp31
 70
     1
102
RTVSPost2010Prop32
280
     0
102
RTVSPost2010PropOp32
 70
     1
102
RTVSPost2010Prop33
280
     0
102
RTVSPost2010PropOp33
 70
     1
102
RTVSPost2010Prop34
280
     0
102
RTVSPost2010PropOp34
 70
     1
102
RTVSPost2010Prop35
280
     0
102
RTVSPost2010PropOp35
 70
     1
102
RTVSPost2010Prop36
280
     0
102
RTVSPost2010PropOp36
 70
     1
102
RTVSPost2010Prop37
 90
       50
102
RTVSPost2010PropOp37
 70
     1
102
RTVSPost2010Prop38
140
0.0
102
RTVSPost2010PropOp38
 70
     1
102
RTVSPost2010Prop39
140
1.0
102
RTVSPost2010PropOp39
 70
     1
102
RTVSPost2010Prop40
 90
        0
102
RTVSPost2010PropOp40
 70
     1
102
RTVSPost2010Prop41ColorIndex
 90
       18
102
RTVSPost2010Prop41ColorRGB
 90
        0
102
RTVSPost2010PropOp41
 70
     1
102
RTVSPost2010Prop42
 90
       50
102
RTVSPost2010PropOp42
 70
     1
102
RTVSPost2010Prop43
 90
        3
102
RTVSPost2010PropOp43
 70
     1
102
RTVSPost2010Prop44ColorIndex
 90
        5
102
RTVSPost2010Prop44ColorRGB
 90
      255
102
RTVSPost2010PropOp44
 70
     1
102
RTVSPost2010Prop45
280
     0
102
RTVSPost2010PropOp45
 70
     1
102
RTVSPost2010Prop46
 90
       50
102
RTVSPost2010PropOp46
 70
     1
102
RTVSPost2010Prop47
 90
       50
102
RTVSPost2010PropOp47
 70
     1
102
RTVSPost2010Prop48
 90
       50
102
RTVSPost2010PropOp48
 70
     1
102
RTVSPost2010Prop49
280
     0
102
RTVSPost2010PropOp49
 70
     1
102
RTVSPost2010Prop50
 90
       50
102
RTVSPost2010PropOp50
 70
     1
102
RTVSPost2010Prop51ColorIndex
 90
      256
102
RTVSPost2010Prop51ColorRGB
 90
-16777216
102
RTVSPost2010PropOp51
 70
     0
102
RTVSPost2010Prop52
140
1.0
102
RTVSPost2010PropOp52
 70
     0
102
RTVSPost2010Prop53
 90
        2
102
RTVSPost2010PropOp53
 70
     1
102
RTVSPost2010Prop54
  1
strokes_ogs.tif
102
RTVSPost2010PropOp54
 70
     1
102
RTVSPost2010Prop55
280
     0
102
RTVSPost2010PropOp55
 70
     1
102
RTVSPost2010Prop56
140
1.0
102
RTVSPost2010PropOp56
 70
     1
102
RTVSPost2010Prop57
140
1.0
102
RTVSPost2010PropOp57
 70
     1
  0
XRECORD
  5
39D
102
{ACAD_REACTORS
330
39C
102
}
330
39C
100
AcDbXrecord
280
     1
102
RTVSPropertyOp0
 70
     1
102
RTVSPropertyOp1
 70
     1
102
RTVSPropertyOp2
 70
     1
102
RTVSPropertyOp3
 70
     1
102
RTVSPropertyOp4
 70
     1
102
RTVSPropertyOp5
 70
     1
102
RTVSPropertyOp6
 70
     1
102
RTVSPropertyOp7
 70
     1
102
RTVSPropertyOp8
 70
     1
102
RTVSPropertyOp9
 70
     1
102
RTVSPropertyOp10
 70
     1
102
RTVSPropertyOp11
 70
     1
102
RTVSPropertyOp12
 70
     1
102
RTVSPropertyOp13
 70
     1
102
RTVSPropertyOp14
 70
     1
102
RTVSPropertyOp15
 70
     1
102
RTVSPropertyOp16
 70
     1
102
RTVSPropertyOp17
 70
     1
102
RTVSPropertyOp18
 70
     1
102
RTVSPropertyOp19
 70
     1
102
RTVSPropertyOp20
 70
     1
102
RTVSPropertyOp21
 70
     1
102
RTVSPropertyOp22
 70
     1
102
RTVSPropertyOp23
 70
     1
102
RTVSPropertyOp24
 70
     1
102
RTVSPropertyOp25
 70
     1
102
RTVSPropertyOp26
 70
     1
102
RTVSPropertyOp27
 70
     1
102
RTVSPropertyOp28
 70
     1
102
RTVSPropertyOp29
 70
     1
102
RTVSPropertyOp30
 70
     1
102
RTVSPropertyOp31
 70
     1
102
RTVSPropertyOp32
 70
     1
102
RTVSPropertyOp33
 70
     1
102
RTVSPropertyOp34
 70
     1
102
RTVSPropertyOp35
 70
     1
102
RTVSPropertyOp36
 70
     1
102
RTVSPropertyOp37
 70
     1
102
RTVSPropertyOp38
 70
     1
102
RTVSPropertyOp39
 70
     1
102
RTVSPropertyOp40
 70
     1
102
RTVSPropertyOp41
 70
     1
102
RTVSPropertyOp42
 70
     1
102
RTVSPropertyOp43
 70
     1
102
RTVSPropertyOp44
 70
     1
102
RTVSPropertyOp45
 70
     1
102
RTVSPropertyOp46
 70
     1
102
RTVSPropertyOp47
 70
     1
102
RTVSPropertyOp48
 70
     1
102
RTVSPropertyOp49
 70
     1
102
RTVSPropertyOp50
 70
     1
102
RTVSPropertyOp51
 70
     0
102
RTVSPropertyOp52
 70
     0
102
RTVSPropertyOp53
 70
     1
102
RTVSPropertyOp54
 70
     1
102
RTVSPropertyOp55
 70
     1
102
RTVSPropertyOp56
 70
     1
102
RTVSPropertyOp57
 70
     1
102
RTVSPost2010Prop28
280
     0
102
RTVSPost2010PropOp28
 70
     1
102
RTVSPost2010Prop29
280
     1
102
RTVSPost2010PropOp29
 70
     1
102
RTVSPost2010Prop30
280
     1
102
RTVSPost2010PropOp30
 70
     1
102
RTVSPost2010Prop31
280
     0
102
RTVSPost2010PropOp31
 70
     1
102
RTVSPost2010Prop32
280
     0
102
RTVSPost2010PropOp32
 70
     1
102
RTVSPost2010Prop33
280
     0
102
RTVSPost2010PropOp33
 70
     1
102
RTVSPost2010Prop34
280
     0
102
RTVSPost2010PropOp34
 70
     1
102
RTVSPost2010Prop35
280
     0
102
RTVSPost2010PropOp35
 70
     1
102
RTVSPost2010Prop36
280
     0
102
RTVSPost2010PropOp36
 70
     1
102
RTVSPost2010Prop37
 90
       50
102
RTVSPost2010PropOp37
 70
     1
102
RTVSPost2010Prop38
140
0.0
102
RTVSPost2010PropOp38
 70
     1
102
RTVSPost2010Prop39
140
1.0
102
RTVSPost2010PropOp39
 70
     1
102
RTVSPost2010Prop40
 90
        0
102
RTVSPost2010PropOp40
 70
     1
102
RTVSPost2010Prop41ColorIndex
 90
       18
102
RTVSPost2010Prop41ColorRGB
 90
        0
102
RTVSPost2010PropOp41
 70
     1
102
RTVSPost2010Prop42
 90
       50
102
RTVSPost2010PropOp42
 70
     1
102
RTVSPost2010Prop43
 90
        3
102
RTVSPost2010PropOp43
 70
     1
102
RTVSPost2010Prop44ColorIndex
 90
        5
102
RTVSPost2010Prop44ColorRGB
 90
      255
102
RTVSPost2010PropOp44
 70
     1
102
RTVSPost2010Prop45
280
     0
102
RTVSPost2010PropOp45
 70
     1
102
RTVSPost2010Prop46
 90
       50
102
RTVSPost2010PropOp46
 70
     1
102
RTVSPost2010Prop47
 90
       50
102
RTVSPost2010PropOp47
 70
     1
102
RTVSPost2010Prop48
 90
       50
102
RTVSPost2010PropOp48
 70
     1
102
RTVSPost2010Prop49
280
     0
102
RTVSPost2010PropOp49
 70
     1
102
RTVSPost2010Prop50
 90
       50
102
RTVSPost2010PropOp50
 70
     1
102
RTVSPost2010Prop51ColorIndex
 90
      256
102
RTVSPost2010Prop51ColorRGB
 90
-16777216
102
RTVSPost2010PropOp51
 70
     0
102
RTVSPost2010Prop52
140
1.0
102
RTVSPost2010PropOp52
 70
     0
102
RTVSPost2010Prop53
 90
        2
102
RTVSPost2010PropOp53
 70
     1
102
RTVSPost2010Prop54
  1
strokes_ogs.tif
102
RTVSPost2010PropOp54
 70
     1
102
RTVSPost2010Prop55
280
     0
102
RTVSPost2010PropOp55
 70
     1
102
RTVSPost2010Prop56
140
1.0
102
RTVSPost2010PropOp56
 70
     1
102
RTVSPost2010Prop57
140
1.0
102
RTVSPost2010PropOp57
 70
     1
  0
XRECORD
  5
397
102
{ACAD_REACTORS
330
396
102
}
330
396
100
AcDbXrecord
280
     1
102
RTVSPropertyOp0
 70
     1
102
RTVSPropertyOp1
 70
     1
102
RTVSPropertyOp2
 70
     1
102
RTVSPropertyOp3
 70
     1
102
RTVSPropertyOp4
 70
     1
102
RTVSPropertyOp5
 70
     1
102
RTVSPropertyOp6
 70
     1
102
RTVSPropertyOp7
 70
     1
102
RTVSPropertyOp8
 70
     1
102
RTVSPropertyOp9
 70
     1
102
RTVSPropertyOp10
 70
     1
102
RTVSPropertyOp11
 70
     1
102
RTVSPropertyOp12
 70
     1
102
RTVSPropertyOp13
 70
     1
102
RTVSPropertyOp14
 70
     1
102
RTVSPropertyOp15
 70
     1
102
RTVSPropertyOp16
 70
     1
102
RTVSPropertyOp17
 70
     1
102
RTVSPropertyOp18
 70
     1
102
RTVSPropertyOp19
 70
     1
102
RTVSPropertyOp20
 70
     1
102
RTVSPropertyOp21
 70
     1
102
RTVSPropertyOp22
 70
     1
102
RTVSPropertyOp23
 70
     1
102
RTVSPropertyOp24
 70
     1
102
RTVSPropertyOp25
 70
     1
102
RTVSPropertyOp26
 70
     1
102
RTVSPropertyOp27
 70
     1
102
RTVSPropertyOp28
 70
     1
102
RTVSPropertyOp29
 70
     1
102
RTVSPropertyOp30
 70
     1
102
RTVSPropertyOp31
 70
     1
102
RTVSPropertyOp32
 70
     1
102
RTVSPropertyOp33
 70
     1
102
RTVSPropertyOp34
 70
     1
102
RTVSPropertyOp35
 70
     1
102
RTVSPropertyOp36
 70
     1
102
RTVSPropertyOp37
 70
     1
102
RTVSPropertyOp38
 70
     1
102
RTVSPropertyOp39
 70
     1
102
RTVSPropertyOp40
 70
     1
102
RTVSPropertyOp41
 70
     1
102
RTVSPropertyOp42
 70
     1
102
RTVSPropertyOp43
 70
     1
102
RTVSPropertyOp44
 70
     1
102
RTVSPropertyOp45
 70
     1
102
RTVSPropertyOp46
 70
     1
102
RTVSPropertyOp47
 70
     1
102
RTVSPropertyOp48
 70
     1
102
RTVSPropertyOp49
 70
     1
102
RTVSPropertyOp50
 70
     1
102
RTVSPropertyOp51
 70
     0
102
RTVSPropertyOp52
 70
     0
102
RTVSPropertyOp53
 70
     1
102
RTVSPropertyOp54
 70
     1
102
RTVSPropertyOp55
 70
     1
102
RTVSPropertyOp56
 70
     1
102
RTVSPropertyOp57
 70
     1
102
RTVSPost2010Prop28
280
     0
102
RTVSPost2010PropOp28
 70
     1
102
RTVSPost2010Prop29
280
     1
102
RTVSPost2010PropOp29
 70
     1
102
RTVSPost2010Prop30
280
     1
102
RTVSPost2010PropOp30
 70
     1
102
RTVSPost2010Prop31
280
     0
102
RTVSPost2010PropOp31
 70
     1
102
RTVSPost2010Prop32
280
     0
102
RTVSPost2010PropOp32
 70
     1
102
RTVSPost2010Prop33
280
     0
102
RTVSPost2010PropOp33
 70
     1
102
RTVSPost2010Prop34
280
     0
102
RTVSPost2010PropOp34
 70
     1
102
RTVSPost2010Prop35
280
     0
102
RTVSPost2010PropOp35
 70
     1
102
RTVSPost2010Prop36
280
     0
102
RTVSPost2010PropOp36
 70
     1
102
RTVSPost2010Prop37
 90
       50
102
RTVSPost2010PropOp37
 70
     1
102
RTVSPost2010Prop38
140
0.0
102
RTVSPost2010PropOp38
 70
     1
102
RTVSPost2010Prop39
140
1.0
102
RTVSPost2010PropOp39
 70
     1
102
RTVSPost2010Prop40
 90
        0
102
RTVSPost2010PropOp40
 70
     1
102
RTVSPost2010Prop41ColorIndex
 90
       18
102
RTVSPost2010Prop41ColorRGB
 90
        0
102
RTVSPost2010PropOp41
 70
     1
102
RTVSPost2010Prop42
 90
       50
102
RTVSPost2010PropOp42
 70
     1
102
RTVSPost2010Prop43
 90
        3
102
RTVSPost2010PropOp43
 70
     1
102
RTVSPost2010Prop44ColorIndex
 90
        5
102
RTVSPost2010Prop44ColorRGB
 90
      255
102
RTVSPost2010PropOp44
 70
     1
102
RTVSPost2010Prop45
280
     0
102
RTVSPost2010PropOp45
 70
     1
102
RTVSPost2010Prop46
 90
       50
102
RTVSPost2010PropOp46
 70
     1
102
RTVSPost2010Prop47
 90
       50
102
RTVSPost2010PropOp47
 70
     1
102
RTVSPost2010Prop48
 90
       50
102
RTVSPost2010PropOp48
 70
     1
102
RTVSPost2010Prop49
280
     0
102
RTVSPost2010PropOp49
 70
     1
102
RTVSPost2010Prop50
 90
       50
102
RTVSPost2010PropOp50
 70
     1
102
RTVSPost2010Prop51ColorIndex
 90
      256
102
RTVSPost2010Prop51ColorRGB
 90
-16777216
102
RTVSPost2010PropOp51
 70
     0
102
RTVSPost2010Prop52
140
1.0
102
RTVSPost2010PropOp52
 70
     0
102
RTVSPost2010Prop53
 90
        2
102
RTVSPost2010PropOp53
 70
     1
102
RTVSPost2010Prop54
  1
strokes_ogs.tif
102
RTVSPost2010PropOp54
 70
     1
102
RTVSPost2010Prop55
280
     0
102
RTVSPost2010PropOp55
 70
     1
102
RTVSPost2010Prop56
140
1.0
102
RTVSPost2010PropOp56
 70
     1
102
RTVSPost2010Prop57
140
1.0
102
RTVSPost2010PropOp57
 70
     1
  0
XRECORD
  5
399
102
{ACAD_REACTORS
330
398
102
}
330
398
100
AcDbXrecord
280
     1
102
RTVSPropertyOp0
 70
     1
102
RTVSPropertyOp1
 70
     1
102
RTVSPropertyOp2
 70
     1
102
RTVSPropertyOp3
 70
     1
102
RTVSPropertyOp4
 70
     1
102
RTVSPropertyOp5
 70
     1
102
RTVSPropertyOp6
 70
     1
102
RTVSPropertyOp7
 70
     1
102
RTVSPropertyOp8
 70
     1
102
RTVSPropertyOp9
 70
     1
102
RTVSPropertyOp10
 70
     1
102
RTVSPropertyOp11
 70
     1
102
RTVSPropertyOp12
 70
     1
102
RTVSPropertyOp13
 70
     1
102
RTVSPropertyOp14
 70
     1
102
RTVSPropertyOp15
 70
     1
102
RTVSPropertyOp16
 70
     1
102
RTVSPropertyOp17
 70
     1
102
RTVSPropertyOp18
 70
     1
102
RTVSPropertyOp19
 70
     1
102
RTVSPropertyOp20
 70
     1
102
RTVSPropertyOp21
 70
     1
102
RTVSPropertyOp22
 70
     1
102
RTVSPropertyOp23
 70
     1
102
RTVSPropertyOp24
 70
     1
102
RTVSPropertyOp25
 70
     1
102
RTVSPropertyOp26
 70
     1
102
RTVSPropertyOp27
 70
     1
102
RTVSPropertyOp28
 70
     1
102
RTVSPropertyOp29
 70
     1
102
RTVSPropertyOp30
 70
     1
102
RTVSPropertyOp31
 70
     1
102
RTVSPropertyOp32
 70
     1
102
RTVSPropertyOp33
 70
     1
102
RTVSPropertyOp34
 70
     1
102
RTVSPropertyOp35
 70
     1
102
RTVSPropertyOp36
 70
     1
102
RTVSPropertyOp37
 70
     1
102
RTVSPropertyOp38
 70
     1
102
RTVSPropertyOp39
 70
     1
102
RTVSPropertyOp40
 70
     1
102
RTVSPropertyOp41
 70
     1
102
RTVSPropertyOp42
 70
     1
102
RTVSPropertyOp43
 70
     1
102
RTVSPropertyOp44
 70
     1
102
RTVSPropertyOp45
 70
     1
102
RTVSPropertyOp46
 70
     1
102
RTVSPropertyOp47
 70
     1
102
RTVSPropertyOp48
 70
     1
102
RTVSPropertyOp49
 70
     1
102
RTVSPropertyOp50
 70
     1
102
RTVSPropertyOp51
 70
     0
102
RTVSPropertyOp52
 70
     0
102
RTVSPropertyOp53
 70
     1
102
RTVSPropertyOp54
 70
     1
102
RTVSPropertyOp55
 70
     1
102
RTVSPropertyOp56
 70
     1
102
RTVSPropertyOp57
 70
     1
102
RTVSPost2010Prop28
280
     0
102
RTVSPost2010PropOp28
 70
     1
102
RTVSPost2010Prop29
280
     1
102
RTVSPost2010PropOp29
 70
     1
102
RTVSPost2010Prop30
280
     1
102
RTVSPost2010PropOp30
 70
     1
102
RTVSPost2010Prop31
280
     0
102
RTVSPost2010PropOp31
 70
     1
102
RTVSPost2010Prop32
280
     0
102
RTVSPost2010PropOp32
 70
     1
102
RTVSPost2010Prop33
280
     0
102
RTVSPost2010PropOp33
 70
     1
102
RTVSPost2010Prop34
280
     0
102
RTVSPost2010PropOp34
 70
     1
102
RTVSPost2010Prop35
280
     0
102
RTVSPost2010PropOp35
 70
     1
102
RTVSPost2010Prop36
280
     0
102
RTVSPost2010PropOp36
 70
     1
102
RTVSPost2010Prop37
 90
       50
102
RTVSPost2010PropOp37
 70
     1
102
RTVSPost2010Prop38
140
0.0
102
RTVSPost2010PropOp38
 70
     1
102
RTVSPost2010Prop39
140
1.0
102
RTVSPost2010PropOp39
 70
     1
102
RTVSPost2010Prop40
 90
        0
102
RTVSPost2010PropOp40
 70
     1
102
RTVSPost2010Prop41ColorIndex
 90
       18
102
RTVSPost2010Prop41ColorRGB
 90
        0
102
RTVSPost2010PropOp41
 70
     1
102
RTVSPost2010Prop42
 90
       50
102
RTVSPost2010PropOp42
 70
     1
102
RTVSPost2010Prop43
 90
        3
102
RTVSPost2010PropOp43
 70
     1
102
RTVSPost2010Prop44ColorIndex
 90
        5
102
RTVSPost2010Prop44ColorRGB
 90
      255
102
RTVSPost2010PropOp44
 70
     1
102
RTVSPost2010Prop45
280
     0
102
RTVSPost2010PropOp45
 70
     1
102
RTVSPost2010Prop46
 90
       50
102
RTVSPost2010PropOp46
 70
     1
102
RTVSPost2010Prop47
 90
       50
102
RTVSPost2010PropOp47
 70
     1
102
RTVSPost2010Prop48
 90
       50
102
RTVSPost2010PropOp48
 70
     1
102
RTVSPost2010Prop49
280
     0
102
RTVSPost2010PropOp49
 70
     1
102
RTVSPost2010Prop50
 90
       50
102
RTVSPost2010PropOp50
 70
     1
102
RTVSPost2010Prop51ColorIndex
 90
      256
102
RTVSPost2010Prop51ColorRGB
 90
-16777216
102
RTVSPost2010PropOp51
 70
     0
102
RTVSPost2010Prop52
140
1.0
102
RTVSPost2010PropOp52
 70
     0
102
RTVSPost2010Prop53
 90
        2
102
RTVSPost2010PropOp53
 70
     1
102
RTVSPost2010Prop54
  1
strokes_ogs.tif
102
RTVSPost2010PropOp54
 70
     1
102
RTVSPost2010Prop55
280
     0
102
RTVSPost2010PropOp55
 70
     1
102
RTVSPost2010Prop56
140
1.0
102
RTVSPost2010PropOp56
 70
     1
102
RTVSPost2010Prop57
140
1.0
102
RTVSPost2010PropOp57
 70
     1
  0
XRECORD
  5
389
102
{ACAD_REACTORS
330
388
102
}
330
388
100
AcDbXrecord
280
     1
102
RTVSPropertyOp0
 70
     1
102
RTVSPropertyOp1
 70
     1
102
RTVSPropertyOp2
 70
     1
102
RTVSPropertyOp3
 70
     1
102
RTVSPropertyOp4
 70
     1
102
RTVSPropertyOp5
 70
     1
102
RTVSPropertyOp6
 70
     1
102
RTVSPropertyOp7
 70
     1
102
RTVSPropertyOp8
 70
     1
102
RTVSPropertyOp9
 70
     1
102
RTVSPropertyOp10
 70
     1
102
RTVSPropertyOp11
 70
     1
102
RTVSPropertyOp12
 70
     1
102
RTVSPropertyOp13
 70
     1
102
RTVSPropertyOp14
 70
     1
102
RTVSPropertyOp15
 70
     1
102
RTVSPropertyOp16
 70
     1
102
RTVSPropertyOp17
 70
     1
102
RTVSPropertyOp18
 70
     1
102
RTVSPropertyOp19
 70
     1
102
RTVSPropertyOp20
 70
     1
102
RTVSPropertyOp21
 70
     1
102
RTVSPropertyOp22
 70
     1
102
RTVSPropertyOp23
 70
     1
102
RTVSPropertyOp24
 70
     1
102
RTVSPropertyOp25
 70
     1
102
RTVSPropertyOp26
 70
     1
102
RTVSPropertyOp27
 70
     1
102
RTVSPropertyOp28
 70
     1
102
RTVSPropertyOp29
 70
     1
102
RTVSPropertyOp30
 70
     1
102
RTVSPropertyOp31
 70
     1
102
RTVSPropertyOp32
 70
     1
102
RTVSPropertyOp33
 70
     1
102
RTVSPropertyOp34
 70
     1
102
RTVSPropertyOp35
 70
     1
102
RTVSPropertyOp36
 70
     1
102
RTVSPropertyOp37
 70
     1
102
RTVSPropertyOp38
 70
     1
102
RTVSPropertyOp39
 70
     1
102
RTVSPropertyOp40
 70
     1
102
RTVSPropertyOp41
 70
     1
102
RTVSPropertyOp42
 70
     1
102
RTVSPropertyOp43
 70
     1
102
RTVSPropertyOp44
 70
     1
102
RTVSPropertyOp45
 70
     1
102
RTVSPropertyOp46
 70
     1
102
RTVSPropertyOp47
 70
     1
102
RTVSPropertyOp48
 70
     1
102
RTVSPropertyOp49
 70
     1
102
RTVSPropertyOp50
 70
     1
102
RTVSPropertyOp51
 70
     0
102
RTVSPropertyOp52
 70
     0
102
RTVSPropertyOp53
 70
     1
102
RTVSPropertyOp54
 70
     1
102
RTVSPropertyOp55
 70
     1
102
RTVSPropertyOp56
 70
     1
102
RTVSPropertyOp57
 70
     1
102
RTVSPost2010Prop28
280
     0
102
RTVSPost2010PropOp28
 70
     1
102
RTVSPost2010Prop29
280
     1
102
RTVSPost2010PropOp29
 70
     1
102
RTVSPost2010Prop30
280
     1
102
RTVSPost2010PropOp30
 70
     1
102
RTVSPost2010Prop31
280
     0
102
RTVSPost2010PropOp31
 70
     1
102
RTVSPost2010Prop32
280
     0
102
RTVSPost2010PropOp32
 70
     1
102
RTVSPost2010Prop33
280
     0
102
RTVSPost2010PropOp33
 70
     1
102
RTVSPost2010Prop34
280
     0
102
RTVSPost2010PropOp34
 70
     1
102
RTVSPost2010Prop35
280
     0
102
RTVSPost2010PropOp35
 70
     1
102
RTVSPost2010Prop36
280
     0
102
RTVSPost2010PropOp36
 70
     1
102
RTVSPost2010Prop37
 90
       50
102
RTVSPost2010PropOp37
 70
     1
102
RTVSPost2010Prop38
140
0.0
102
RTVSPost2010PropOp38
 70
     1
102
RTVSPost2010Prop39
140
1.0
102
RTVSPost2010PropOp39
 70
     1
102
RTVSPost2010Prop40
 90
        0
102
RTVSPost2010PropOp40
 70
     1
102
RTVSPost2010Prop41ColorIndex
 90
       18
102
RTVSPost2010Prop41ColorRGB
 90
        0
102
RTVSPost2010PropOp41
 70
     1
102
RTVSPost2010Prop42
 90
       50
102
RTVSPost2010PropOp42
 70
     1
102
RTVSPost2010Prop43
 90
        3
102
RTVSPost2010PropOp43
 70
     1
102
RTVSPost2010Prop44ColorIndex
 90
        5
102
RTVSPost2010Prop44ColorRGB
 90
      255
102
RTVSPost2010PropOp44
 70
     1
102
RTVSPost2010Prop45
280
     0
102
RTVSPost2010PropOp45
 70
     1
102
RTVSPost2010Prop46
 90
       50
102
RTVSPost2010PropOp46
 70
     1
102
RTVSPost2010Prop47
 90
       50
102
RTVSPost2010PropOp47
 70
     1
102
RTVSPost2010Prop48
 90
       50
102
RTVSPost2010PropOp48
 70
     1
102
RTVSPost2010Prop49
280
     0
102
RTVSPost2010PropOp49
 70
     1
102
RTVSPost2010Prop50
 90
       50
102
RTVSPost2010PropOp50
 70
     1
102
RTVSPost2010Prop51ColorIndex
 90
      256
102
RTVSPost2010Prop51ColorRGB
 90
-16777216
102
RTVSPost2010PropOp51
 70
     0
102
RTVSPost2010Prop52
140
1.0
102
RTVSPost2010PropOp52
 70
     0
102
RTVSPost2010Prop53
 90
        2
102
RTVSPost2010PropOp53
 70
     1
102
RTVSPost2010Prop54
  1
strokes_ogs.tif
102
RTVSPost2010PropOp54
 70
     1
102
RTVSPost2010Prop55
280
     0
102
RTVSPost2010PropOp55
 70
     1
102
RTVSPost2010Prop56
140
1.0
102
RTVSPost2010PropOp56
 70
     1
102
RTVSPost2010Prop57
140
1.0
102
RTVSPost2010PropOp57
 70
     1
  0
XRECORD
  5
37B
102
{ACAD_REACTORS
330
37A
102
}
330
37A
100
AcDbXrecord
280
     1
102
RTVSPropertyOp0
 70
     1
102
RTVSPropertyOp1
 70
     1
102
RTVSPropertyOp2
 70
     1
102
RTVSPropertyOp3
 70
     1
102
RTVSPropertyOp4
 70
     1
102
RTVSPropertyOp5
 70
     1
102
RTVSPropertyOp6
 70
     1
102
RTVSPropertyOp7
 70
     1
102
RTVSPropertyOp8
 70
     1
102
RTVSPropertyOp9
 70
     1
102
RTVSPropertyOp10
 70
     1
102
RTVSPropertyOp11
 70
     1
102
RTVSPropertyOp12
 70
     1
102
RTVSPropertyOp13
 70
     1
102
RTVSPropertyOp14
 70
     1
102
RTVSPropertyOp15
 70
     1
102
RTVSPropertyOp16
 70
     1
102
RTVSPropertyOp17
 70
     1
102
RTVSPropertyOp18
 70
     1
102
RTVSPropertyOp19
 70
     1
102
RTVSPropertyOp20
 70
     1
102
RTVSPropertyOp21
 70
     1
102
RTVSPropertyOp22
 70
     1
102
RTVSPropertyOp23
 70
     1
102
RTVSPropertyOp24
 70
     1
102
RTVSPropertyOp25
 70
     1
102
RTVSPropertyOp26
 70
     1
102
RTVSPropertyOp27
 70
     1
102
RTVSPropertyOp28
 70
     1
102
RTVSPropertyOp29
 70
     1
102
RTVSPropertyOp30
 70
     1
102
RTVSPropertyOp31
 70
     1
102
RTVSPropertyOp32
 70
     1
102
RTVSPropertyOp33
 70
     1
102
RTVSPropertyOp34
 70
     1
102
RTVSPropertyOp35
 70
     1
102
RTVSPropertyOp36
 70
     1
102
RTVSPropertyOp37
 70
     1
102
RTVSPropertyOp38
 70
     1
102
RTVSPropertyOp39
 70
     1
102
RTVSPropertyOp40
 70
     1
102
RTVSPropertyOp41
 70
     1
102
RTVSPropertyOp42
 70
     1
102
RTVSPropertyOp43
 70
     1
102
RTVSPropertyOp44
 70
     1
102
RTVSPropertyOp45
 70
     1
102
RTVSPropertyOp46
 70
     1
102
RTVSPropertyOp47
 70
     1
102
RTVSPropertyOp48
 70
     1
102
RTVSPropertyOp49
 70
     1
102
RTVSPropertyOp50
 70
     1
102
RTVSPropertyOp51
 70
     0
102
RTVSPropertyOp52
 70
     0
102
RTVSPropertyOp53
 70
     1
102
RTVSPropertyOp54
 70
     1
102
RTVSPropertyOp55
 70
     1
102
RTVSPropertyOp56
 70
     1
102
RTVSPropertyOp57
 70
     1
102
RTVSPost2010Prop28
280
     0
102
RTVSPost2010PropOp28
 70
     1
102
RTVSPost2010Prop29
280
     1
102
RTVSPost2010PropOp29
 70
     1
102
RTVSPost2010Prop30
280
     1
102
RTVSPost2010PropOp30
 70
     1
102
RTVSPost2010Prop31
280
     0
102
RTVSPost2010PropOp31
 70
     1
102
RTVSPost2010Prop32
280
     0
102
RTVSPost2010PropOp32
 70
     1
102
RTVSPost2010Prop33
280
     0
102
RTVSPost2010PropOp33
 70
     1
102
RTVSPost2010Prop34
280
     0
102
RTVSPost2010PropOp34
 70
     1
102
RTVSPost2010Prop35
280
     0
102
RTVSPost2010PropOp35
 70
     1
102
RTVSPost2010Prop36
280
     0
102
RTVSPost2010PropOp36
 70
     1
102
RTVSPost2010Prop37
 90
       50
102
RTVSPost2010PropOp37
 70
     1
102
RTVSPost2010Prop38
140
0.0
102
RTVSPost2010PropOp38
 70
     1
102
RTVSPost2010Prop39
140
1.0
102
RTVSPost2010PropOp39
 70
     1
102
RTVSPost2010Prop40
 90
        0
102
RTVSPost2010PropOp40
 70
     1
102
RTVSPost2010Prop41ColorIndex
 90
       18
102
RTVSPost2010Prop41ColorRGB
 90
        0
102
RTVSPost2010PropOp41
 70
     1
102
RTVSPost2010Prop42
 90
       50
102
RTVSPost2010PropOp42
 70
     1
102
RTVSPost2010Prop43
 90
        3
102
RTVSPost2010PropOp43
 70
     1
102
RTVSPost2010Prop44ColorIndex
 90
        5
102
RTVSPost2010Prop44ColorRGB
 90
      255
102
RTVSPost2010PropOp44
 70
     1
102
RTVSPost2010Prop45
280
     0
102
RTVSPost2010PropOp45
 70
     1
102
RTVSPost2010Prop46
 90
       50
102
RTVSPost2010PropOp46
 70
     1
102
RTVSPost2010Prop47
 90
       50
102
RTVSPost2010PropOp47
 70
     1
102
RTVSPost2010Prop48
 90
       50
102
RTVSPost2010PropOp48
 70
     1
102
RTVSPost2010Prop49
280
     0
102
RTVSPost2010PropOp49
 70
     1
102
RTVSPost2010Prop50
 90
       50
102
RTVSPost2010PropOp50
 70
     1
102
RTVSPost2010Prop51ColorIndex
 90
      256
102
RTVSPost2010Prop51ColorRGB
 90
-16777216
102
RTVSPost2010PropOp51
 70
     0
102
RTVSPost2010Prop52
140
1.0
102
RTVSPost2010PropOp52
 70
     0
102
RTVSPost2010Prop53
 90
        2
102
RTVSPost2010PropOp53
 70
     1
102
RTVSPost2010Prop54
  1
strokes_ogs.tif
102
RTVSPost2010PropOp54
 70
     1
102
RTVSPost2010Prop55
280
     0
102
RTVSPost2010PropOp55
 70
     1
102
RTVSPost2010Prop56
140
1.0
102
RTVSPost2010PropOp56
 70
     1
102
RTVSPost2010Prop57
140
1.0
102
RTVSPost2010PropOp57
 70
     1
  0
XRECORD
  5
39B
102
{ACAD_REACTORS
330
39A
102
}
330
39A
100
AcDbXrecord
280
     1
102
RTVSPropertyOp0
 70
     1
102
RTVSPropertyOp1
 70
     1
102
RTVSPropertyOp2
 70
     1
102
RTVSPropertyOp3
 70
     1
102
RTVSPropertyOp4
 70
     1
102
RTVSPropertyOp5
 70
     1
102
RTVSPropertyOp6
 70
     1
102
RTVSPropertyOp7
 70
     1
102
RTVSPropertyOp8
 70
     1
102
RTVSPropertyOp9
 70
     1
102
RTVSPropertyOp10
 70
     1
102
RTVSPropertyOp11
 70
     1
102
RTVSPropertyOp12
 70
     1
102
RTVSPropertyOp13
 70
     1
102
RTVSPropertyOp14
 70
     1
102
RTVSPropertyOp15
 70
     1
102
RTVSPropertyOp16
 70
     1
102
RTVSPropertyOp17
 70
     1
102
RTVSPropertyOp18
 70
     1
102
RTVSPropertyOp19
 70
     1
102
RTVSPropertyOp20
 70
     1
102
RTVSPropertyOp21
 70
     1
102
RTVSPropertyOp22
 70
     1
102
RTVSPropertyOp23
 70
     1
102
RTVSPropertyOp24
 70
     1
102
RTVSPropertyOp25
 70
     1
102
RTVSPropertyOp26
 70
     1
102
RTVSPropertyOp27
 70
     1
102
RTVSPropertyOp28
 70
     1
102
RTVSPropertyOp29
 70
     1
102
RTVSPropertyOp30
 70
     1
102
RTVSPropertyOp31
 70
     1
102
RTVSPropertyOp32
 70
     1
102
RTVSPropertyOp33
 70
     1
102
RTVSPropertyOp34
 70
     1
102
RTVSPropertyOp35
 70
     1
102
RTVSPropertyOp36
 70
     1
102
RTVSPropertyOp37
 70
     1
102
RTVSPropertyOp38
 70
     1
102
RTVSPropertyOp39
 70
     1
102
RTVSPropertyOp40
 70
     1
102
RTVSPropertyOp41
 70
     1
102
RTVSPropertyOp42
 70
     1
102
RTVSPropertyOp43
 70
     1
102
RTVSPropertyOp44
 70
     1
102
RTVSPropertyOp45
 70
     1
102
RTVSPropertyOp46
 70
     1
102
RTVSPropertyOp47
 70
     1
102
RTVSPropertyOp48
 70
     1
102
RTVSPropertyOp49
 70
     1
102
RTVSPropertyOp50
 70
     1
102
RTVSPropertyOp51
 70
     0
102
RTVSPropertyOp52
 70
     0
102
RTVSPropertyOp53
 70
     1
102
RTVSPropertyOp54
 70
     1
102
RTVSPropertyOp55
 70
     1
102
RTVSPropertyOp56
 70
     1
102
RTVSPropertyOp57
 70
     1
102
RTVSPost2010Prop28
280
     0
102
RTVSPost2010PropOp28
 70
     1
102
RTVSPost2010Prop29
280
     1
102
RTVSPost2010PropOp29
 70
     1
102
RTVSPost2010Prop30
280
     1
102
RTVSPost2010PropOp30
 70
     1
102
RTVSPost2010Prop31
280
     0
102
RTVSPost2010PropOp31
 70
     1
102
RTVSPost2010Prop32
280
     0
102
RTVSPost2010PropOp32
 70
     1
102
RTVSPost2010Prop33
280
     0
102
RTVSPost2010PropOp33
 70
     1
102
RTVSPost2010Prop34
280
     0
102
RTVSPost2010PropOp34
 70
     1
102
RTVSPost2010Prop35
280
     0
102
RTVSPost2010PropOp35
 70
     1
102
RTVSPost2010Prop36
280
     0
102
RTVSPost2010PropOp36
 70
     1
102
RTVSPost2010Prop37
 90
       50
102
RTVSPost2010PropOp37
 70
     1
102
RTVSPost2010Prop38
140
0.0
102
RTVSPost2010PropOp38
 70
     1
102
RTVSPost2010Prop39
140
1.0
102
RTVSPost2010PropOp39
 70
     1
102
RTVSPost2010Prop40
 90
        0
102
RTVSPost2010PropOp40
 70
     1
102
RTVSPost2010Prop41ColorIndex
 90
       18
102
RTVSPost2010Prop41ColorRGB
 90
        0
102
RTVSPost2010PropOp41
 70
     1
102
RTVSPost2010Prop42
 90
       50
102
RTVSPost2010PropOp42
 70
     1
102
RTVSPost2010Prop43
 90
        3
102
RTVSPost2010PropOp43
 70
     1
102
RTVSPost2010Prop44ColorIndex
 90
        5
102
RTVSPost2010Prop44ColorRGB
 90
      255
102
RTVSPost2010PropOp44
 70
     1
102
RTVSPost2010Prop45
280
     0
102
RTVSPost2010PropOp45
 70
     1
102
RTVSPost2010Prop46
 90
       50
102
RTVSPost2010PropOp46
 70
     1
102
RTVSPost2010Prop47
 90
       50
102
RTVSPost2010PropOp47
 70
     1
102
RTVSPost2010Prop48
 90
       50
102
RTVSPost2010PropOp48
 70
     1
102
RTVSPost2010Prop49
280
     0
102
RTVSPost2010PropOp49
 70
     1
102
RTVSPost2010Prop50
 90
       50
102
RTVSPost2010PropOp50
 70
     1
102
RTVSPost2010Prop51ColorIndex
 90
      256
102
RTVSPost2010Prop51ColorRGB
 90
-16777216
102
RTVSPost2010PropOp51
 70
     0
102
RTVSPost2010Prop52
140
1.0
102
RTVSPost2010PropOp52
 70
     0
102
RTVSPost2010Prop53
 90
        2
102
RTVSPost2010PropOp53
 70
     1
102
RTVSPost2010Prop54
  1
strokes_ogs.tif
102
RTVSPost2010PropOp54
 70
     1
102
RTVSPost2010Prop55
280
     0
102
RTVSPost2010PropOp55
 70
     1
102
RTVSPost2010Prop56
140
1.0
102
RTVSPost2010PropOp56
 70
     1
102
RTVSPost2010Prop57
140
1.0
102
RTVSPost2010PropOp57
 70
     1
  0
ENDSEC
  0
EOF
