  0
SECTION
  2
HEADER
  9
$ACADVER
  1
AC1024
  9
$ACADMAINTVER
 70
     6
  9
$DWGCODEPAGE
  3
ANSI_1252
  9
$COMMENTS
  1
File was created by ARCHline.XP2011
  9
$INSBASE
 10
0.0
 20
0.0
 30
0.0
  9
$EXTMIN
 10
-0.0000000000001137
 20
0.0
 30
0.0
  9
$EXTMAX
 10
297.0
 20
210.0
 30
0.0
  9
$LIMMIN
 10
0.0
 20
0.0
  9
$LIMMAX
 10
12.0
 20
9.0
  9
$ORTHOMODE
 70
     0
  9
$REGENMODE
 70
     1
  9
$FILLMODE
 70
     1
  9
$QTEXTMODE
 70
     0
  9
$MIRRTEXT
 70
     1
  9
$LTSCALE
 40
1.0
  9
$ATTMODE
 70
     1
  9
$TEXTSIZE
 40
0.2
  9
$TRACEWID
 40
0.05
  9
$TEXTSTYLE
  7
Standard
  9
$CLAYER
  8
0
  9
$CELTYPE
  6
ByLayer
  9
$CECOLOR
 62
   256
  9
$CELTSCALE
 40
1.0
  9
$DISPSILH
 70
     0
  9
$DIMSCALE
 40
1.0
  9
$DIMASZ
 40
0.18
  9
$DIMEXO
 40
0.0625
  9
$DIMDLI
 40
0.38
  9
$DIMRND
 40
0.0
  9
$DIMDLE
 40
0.0
  9
$DIMEXE
 40
0.18
  9
$DIMTP
 40
0.0
  9
$DIMTM
 40
0.0
  9
$DIMTXT
 40
0.18
  9
$DIMCEN
 40
0.09
  9
$DIMTSZ
 40
0.0
  9
$DIMTOL
 70
     0
  9
$DIMLIM
 70
     0
  9
$DIMTIH
 70
     1
  9
$DIMTOH
 70
     1
  9
$DIMSE1
 70
     0
  9
$DIMSE2
 70
     0
  9
$DIMTAD
 70
     0
  9
$DIMZIN
 70
     0
  9
$DIMBLK
  1

  9
$DIMASO
 70
     1
  9
$DIMSHO
 70
     1
  9
$DIMPOST
  1

  9
$DIMAPOST
  1

  9
$DIMALT
 70
     0
  9
$DIMALTD
 70
     2
  9
$DIMALTF
 40
25.4
  9
$DIMLFAC
 40
1.0
  9
$DIMTOFL
 70
     0
  9
$DIMTVP
 40
0.0
  9
$DIMTIX
 70
     0
  9
$DIMSOXD
 70
     0
  9
$DIMSAH
 70
     0
  9
$DIMBLK1
  1

  9
$DIMBLK2
  1

  9
$DIMSTYLE
  2
Standard
  9
$DIMCLRD
 70
     0
  9
$DIMCLRE
 70
     0
  9
$DIMCLRT
 70
     0
  9
$DIMTFAC
 40
1.0
  9
$DIMGAP
 40
0.09
  9
$DIMJUST
 70
     0
  9
$DIMSD1
 70
     0
  9
$DIMSD2
 70
     0
  9
$DIMTOLJ
 70
     1
  9
$DIMTZIN
 70
     0
  9
$DIMALTZ
 70
     0
  9
$DIMALTTZ
 70
     0
  9
$DIMUPT
 70
     0
  9
$DIMDEC
 70
     4
  9
$DIMTDEC
 70
     4
  9
$DIMALTU
 70
     2
  9
$DIMALTTD
 70
     2
  9
$DIMTXSTY
  7
Standard
  9
$DIMAUNIT
 70
     0
  9
$DIMADEC
 70
     0
  9
$DIMALTRND
 40
0.0
  9
$DIMAZIN
 70
     0
  9
$DIMDSEP
 70
    46
  9
$DIMATFIT
 70
     3
  9
$DIMFRAC
 70
     0
  9
$DIMLDRBLK
  1

  9
$DIMLUNIT
 70
     2
  9
$DIMLWD
 70
    -2
  9
$DIMLWE
 70
    -2
  9
$DIMTMOVE
 70
     0
  9
$DIMFXL
 40
1.0
  9
$DIMFXLON
 70
     0
  9
$DIMJOGANG
 40
0.7853981633974483
  9
$DIMTFILL
 70
     0
  9
$DIMTFILLCLR
 70
     0
  9
$DIMARCSYM
 70
     0
  9
$DIMLTYPE
  6

  9
$DIMLTEX1
  6

  9
$DIMLTEX2
  6

  9
$DIMTXTDIRECTION
 70
     0
  9
$LUNITS
 70
     2
  9
$LUPREC
 70
     4
  9
$SKETCHINC
 40
0.1
  9
$FILLETRAD
 40
0.5
  9
$AUNITS
 70
     0
  9
$AUPREC
 70
     0
  9
$MENU
  1
.
  9
$ELEVATION
 40
0.0
  9
$PELEVATION
 40
0.0
  9
$THICKNESS
 40
0.0
  9
$LIMCHECK
 70
     0
  9
$CHAMFERA
 40
0.5
  9
$CHAMFERB
 40
0.5
  9
$CHAMFERC
 40
1.0
  9
$CHAMFERD
 40
0.0
  9
$SKPOLY
 70
     0
  9
$TDCREATE
 40
2457528.485819236
  9
$TDUCREATE
 40
2457528.402485903
  9
$TDUPDATE
 40
2457528.485823206
  9
$TDUUPDATE
 40
2457528.402489873
  9
$TDINDWG
 40
0.0000000116
  9
$TDUSRTIMER
 40
0.0000000116
  9
$USRTIMER
 70
     1
  9
$ANGBASE
 50
0.0
  9
$ANGDIR
 70
     0
  9
$PDMODE
 70
     0
  9
$PDSIZE
 40
0.0
  9
$PLINEWID
 40
0.0
  9
$SPLFRAME
 70
     0
  9
$SPLINETYPE
 70
     6
  9
$SPLINESEGS
 70
     8
  9
$HANDSEED
  5
375
  9
$SURFTAB1
 70
     6
  9
$SURFTAB2
 70
     6
  9
$SURFTYPE
 70
     6
  9
$SURFU
 70
     6
  9
$SURFV
 70
     6
  9
$UCSBASE
  2

  9
$UCSNAME
  2

  9
$UCSORG
 10
0.0
 20
0.0
 30
0.0
  9
$UCSXDIR
 10
1.0
 20
0.0
 30
0.0
  9
$UCSYDIR
 10
0.0
 20
1.0
 30
0.0
  9
$UCSORTHOREF
  2

  9
$UCSORTHOVIEW
 70
     0
  9
$UCSORGTOP
 10
0.0
 20
0.0
 30
0.0
  9
$UCSORGBOTTOM
 10
0.0
 20
0.0
 30
0.0
  9
$UCSORGLEFT
 10
0.0
 20
0.0
 30
0.0
  9
$UCSORGRIGHT
 10
0.0
 20
0.0
 30
0.0
  9
$UCSORGFRONT
 10
0.0
 20
0.0
 30
0.0
  9
$UCSORGBACK
 10
0.0
 20
0.0
 30
0.0
  9
$PUCSBASE
  2

  9
$PUCSNAME
  2

  9
$PUCSORG
 10
0.0
 20
0.0
 30
0.0
  9
$PUCSXDIR
 10
1.0
 20
0.0
 30
0.0
  9
$PUCSYDIR
 10
0.0
 20
1.0
 30
0.0
  9
$PUCSORTHOREF
  2

  9
$PUCSORTHOVIEW
 70
     0
  9
$PUCSORGTOP
 10
0.0
 20
0.0
 30
0.0
  9
$PUCSORGBOTTOM
 10
0.0
 20
0.0
 30
0.0
  9
$PUCSORGLEFT
 10
0.0
 20
0.0
 30
0.0
  9
$PUCSORGRIGHT
 10
0.0
 20
0.0
 30
0.0
  9
$PUCSORGFRONT
 10
0.0
 20
0.0
 30
0.0
  9
$PUCSORGBACK
 10
0.0
 20
0.0
 30
0.0
  9
$USERI1
 70
     0
  9
$USERI2
 70
     0
  9
$USERI3
 70
     0
  9
$USERI4
 70
     0
  9
$USERI5
 70
     0
  9
$USERR1
 40
0.0
  9
$USERR2
 40
0.0
  9
$USERR3
 40
0.0
  9
$USERR4
 40
0.0
  9
$USERR5
 40
0.0
  9
$WORLDVIEW
 70
     1
  9
$SHADEDGE
 70
     3
  9
$SHADEDIF
 70
    70
  9
$TILEMODE
 70
     1
  9
$MAXACTVP
 70
    64
  9
$PINSBASE
 10
0.0
 20
0.0
 30
0.0
  9
$PLIMCHECK
 70
     0
  9
$PEXTMIN
 10
1.000000000000000E+20
 20
1.000000000000000E+20
 30
1.000000000000000E+20
  9
$PEXTMAX
 10
-1.000000000000000E+20
 20
-1.000000000000000E+20
 30
-1.000000000000000E+20
  9
$PLIMMIN
 10
0.0
 20
0.0
  9
$PLIMMAX
 10
12.0
 20
9.0
  9
$UNITMODE
 70
     0
  9
$VISRETAIN
 70
     1
  9
$PLINEGEN
 70
     0
  9
$PSLTSCALE
 70
     1
  9
$TREEDEPTH
 70
  3020
  9
$CMLSTYLE
  2
Standard
  9
$CMLJUST
 70
     0
  9
$CMLSCALE
 40
1.0
  9
$PROXYGRAPHICS
 70
     1
  9
$MEASUREMENT
 70
     0
  9
$CELWEIGHT
370
    -1
  9
$ENDCAPS
280
     0
  9
$JOINSTYLE
280
     0
  9
$LWDISPLAY
290
     0
  9
$INSUNITS
 70
     1
  9
$HYPERLINKBASE
  1

  9
$STYLESHEET
  1

  9
$XEDIT
290
     1
  9
$CEPSNTYPE
380
     0
  9
$PSTYLEMODE
290
     1
  9
$FINGERPRINTGUID
  2
{E88245AC-CE10-4DAF-B80B-FBD8664F2F15}
  9
$VERSIONGUID
  2
{FAEB1C32-E019-11D5-929B-00C0DF256EC4}
  9
$EXTNAMES
290
     1
  9
$PSVPSCALE
 40
0.0
  9
$OLESTARTUP
290
     0
  9
$SORTENTS
280
   127
  9
$INDEXCTL
280
     0
  9
$HIDETEXT
280
     1
  9
$XCLIPFRAME
280
     2
  9
$HALOGAP
280
     0
  9
$OBSCOLOR
 70
   257
  9
$OBSLTYPE
280
     0
  9
$INTERSECTIONDISPLAY
280
     0
  9
$INTERSECTIONCOLOR
 70
   257
  9
$DIMASSOC
280
     2
  9
$PROJECTNAME
  1

  9
$CAMERADISPLAY
290
     0
  9
$LENSLENGTH
 40
50.0
  9
$CAMERAHEIGHT
 40
0.0
  9
$STEPSPERSEC
 40
2.0
  9
$STEPSIZE
 40
6.0
  9
$3DDWFPREC
 40
2.0
  9
$PSOLWIDTH
 40
0.25
  9
$PSOLHEIGHT
 40
4.0
  9
$LOFTANG1
 40
1.570796326794897
  9
$LOFTANG2
 40
1.570796326794897
  9
$LOFTMAG1
 40
0.0
  9
$LOFTMAG2
 40
0.0
  9
$LOFTPARAM
 70
     7
  9
$LOFTNORMALS
280
     1
  9
$LATITUDE
 40
37.795
  9
$LONGITUDE
 40
-122.394
  9
$NORTHDIRECTION
 40
0.0
  9
$TIMEZONE
 70
 -8000
  9
$LIGHTGLYPHDISPLAY
280
     1
  9
$TILEMODELIGHTSYNCH
280
     1
  9
$SOLIDHIST
280
     1
  9
$SHOWHIST
280
     1
  9
$DWFFRAME
280
     2
  9
$DGNFRAME
280
     2
  9
$REALWORLDSCALE
290
     1
  9
$INTERFERECOLOR
 62
   256
  9
$CSHADOW
280
     0
  9
$SHADOWPLANELOCATION
 40
0.0
  0
ENDSEC
  0
SECTION
  2
CLASSES
  0
CLASS
  1
ACDBDICTIONARYWDFLT
  2
AcDbDictionaryWithDefault
  3
ObjectDBX Classes
 90
        0
 91
        4
280
     0
281
     0
  0
CLASS
  1
VISUALSTYLE
  2
AcDbVisualStyle
  3
ObjectDBX Classes
 90
     4095
 91
        4
280
     0
281
     0
  0
CLASS
  1
MATERIAL
  2
AcDbMaterial
  3
ObjectDBX Classes
 90
     1153
 91
        4
280
     0
281
     0
  0
CLASS
  1
IMAGEDEF
  2
AcDbRasterImageDef
  3
ISM
 90
        0
 91
        4
280
     0
281
     0
  0
CLASS
  1
IMAGE
  2
AcDbRasterImage
  3
ISM
 90
      127
 91
        5
280
     0
281
     1
  0
CLASS
  1
IMAGEDEF_REACTOR
  2
AcDbRasterImageDefReactor
  3
ISM
 90
        1
 91
        4
280
     0
281
     0
  0
ENDSEC
  0
SECTION
  2
TABLES
  0
TABLE
  2
VPORT
  5
8
330
0
100
AcDbSymbolTable
 70
     1
  0
VPORT
  5
29
330
8
100
AcDbSymbolTableRecord
100
AcDbViewportTableRecord
  2
*Active
 70
     0
 10
0.0
 20
0.0
 11
1.0
 21
1.0
 12
10.42990654205607
 22
4.5
 13
0.0
 23
0.0
 14
0.5
 24
0.5
 15
0.5
 25
0.5
 16
0.0
 26
0.0
 36
1.0
 17
0.0
 27
0.0
 37
0.0
 40
9.0
 41
1.972972972850329
 42
50.0
 43
0.0
 44
0.0
 50
0.0
 51
0.0
 71
     0
 72
   100
 73
     1
 74
     3
 75
     0
 76
     0
 77
     0
 78
     0
281
     0
 65
     1
110
0.0
120
0.0
130
0.0
111
1.0
121
0.0
131
0.0
112
0.0
122
1.0
132
0.0
 79
     0
146
0.0
 60
     3
 61
     5
292
     1
282
     1
141
0.0
142
0.0
 63
   250
  0
ENDTAB
  0
TABLE
  2
LTYPE
  5
5
330
0
100
AcDbSymbolTable
 70
    92
  0
LTYPE
  5
14
330
5
100
AcDbSymbolTableRecord
100
AcDbLinetypeTableRecord
  2
ByBlock
 70
     0
  3

 72
    65
 73
     0
 40
0.0
  0
LTYPE
  5
15
330
5
100
AcDbSymbolTableRecord
100
AcDbLinetypeTableRecord
  2
ByLayer
 70
     0
  3

 72
    65
 73
     0
 40
0.0
  0
LTYPE
  5
16
330
5
100
AcDbSymbolTableRecord
100
AcDbLinetypeTableRecord
  2
Continuous
 70
     0
  3
Solid line
 72
    65
 73
     0
 40
0.0
  0
LTYPE
  5
3F
330
5
100
AcDbSymbolTableRecord
100
AcDbLinetypeTableRecord
  2
HIDDEN
 70
     0
  3
_ _ _ _ _ _ _ _ _ _ _ _ _ _ _ _ _ _ _ _ _ _ _
 72
    65
 73
     2
 40
0.375
 49
0.25
 74
     0
 49
-0.125
 74
     0
  0
LTYPE
  5
40
330
5
100
AcDbSymbolTableRecord
100
AcDbLinetypeTableRecord
  2
CENTER
 70
     0
  3
____ _ ____ _ ____ _ ____ _ ____ _ ____ _ ____
 72
    65
 73
     4
 40
2.0
 49
1.25
 74
     0
 49
-0.25
 74
     0
 49
0.25
 74
     0
 49
-0.25
 74
     0
  0
LTYPE
  5
41
330
5
100
AcDbSymbolTableRecord
100
AcDbLinetypeTableRecord
  2
DASHED
 70
     0
  3
__ __ __ __ __ __ __ __ __ __ __ __ __ __ __
 72
    65
 73
     2
 40
1.5
 49
1.25
 74
     0
 49
-0.25
 74
     0
  0
LTYPE
  5
42
330
5
100
AcDbSymbolTableRecord
100
AcDbLinetypeTableRecord
  2
Gepunktete
 70
     0
  3

 72
    65
 73
     2
 40
1.560000061988831
 49
0.3600000143051147
 74
     0
 49
-1.200000047683716
 74
     0
  0
LTYPE
  5
43
330
5
100
AcDbSymbolTableRecord
100
AcDbLinetypeTableRecord
  2
Strichpunktierte
 70
     0
  3

 72
    65
 73
     4
 40
4.920000046491623
 49
3.0
 74
     0
 49
-0.7200000286102295
 74
     0
 49
0.4799999892711639
 74
     0
 49
-0.7200000286102295
 74
     0
  0
LTYPE
  5
44
330
5
100
AcDbSymbolTableRecord
100
AcDbLinetypeTableRecord
  2
Strichellinie
 70
     0
  3

 72
    65
 73
     2
 40
2.399999976158142
 49
1.799999952316284
 74
     0
 49
-0.6000000238418579
 74
     0
  0
LTYPE
  5
45
330
5
100
AcDbSymbolTableRecord
100
AcDbLinetypeTableRecord
  2
2Punkt
 70
     0
  3

 72
    65
 73
     6
 40
6.120000123977661
 49
3.0
 74
     0
 49
-0.7200000286102295
 74
     0
 49
0.4800000190734863
 74
     0
 49
-0.7200000286102295
 74
     0
 49
0.4800000190734863
 74
     0
 49
-0.7200000286102295
 74
     0
  0
LTYPE
  5
46
330
5
100
AcDbSymbolTableRecord
100
AcDbLinetypeTableRecord
  2
2Punkt-2Abstand
 70
     0
  3

 72
    65
 73
     6
 40
8.28000020980835
 49
3.0
 74
     0
 49
-1.440000057220459
 74
     0
 49
0.4800000190734863
 74
     0
 49
-1.440000057220459
 74
     0
 49
0.4800000190734863
 74
     0
 49
-1.440000057220459
 74
     0
  0
LTYPE
  5
47
330
5
100
AcDbSymbolTableRecord
100
AcDbLinetypeTableRecord
  2
2Punkt-3Abstand
 70
     0
  3

 72
    65
 73
     6
 40
11.26800036430359
 49
3.0
 74
     0
 49
-2.436000108718872
 74
     0
 49
0.4800000190734863
 74
     0
 49
-2.436000108718872
 74
     0
 49
0.4800000190734863
 74
     0
 49
-2.436000108718872
 74
     0
  0
LTYPE
  5
48
330
5
100
AcDbSymbolTableRecord
100
AcDbLinetypeTableRecord
  2
Gepunktete Var.2
 70
     0
  3

 72
    65
 73
     2
 40
3.120000004768372
 49
0.3600000143051147
 74
     0
 49
-2.759999990463257
 74
     0
  0
LTYPE
  5
49
330
5
100
AcDbSymbolTableRecord
100
AcDbLinetypeTableRecord
  2
Gepunktete Var.3
 70
     0
  3

 72
    65
 73
     2
 40
4.679999709129333
 49
0.3600000143051147
 74
     0
 49
-4.319999694824219
 74
     0
  0
LTYPE
  5
4A
330
5
100
AcDbSymbolTableRecord
100
AcDbLinetypeTableRecord
  2
Gepunktete Var.4
 70
     0
  3

 72
    65
 73
     4
 40
4.319999814033508
 49
0.3600000143051147
 74
     0
 49
-1.199999928474426
 74
     0
 49
0.3600000143051147
 74
     0
 49
-2.399999856948853
 74
     0
  0
LTYPE
  5
4B
330
5
100
AcDbSymbolTableRecord
100
AcDbLinetypeTableRecord
  2
Gepunktete Var.5
 70
     0
  3

 72
    65
 73
     4
 40
4.319999814033508
 49
0.3600000143051147
 74
     0
 49
-1.199999928474426
 74
     0
 49
0.3600000143051147
 74
     0
 49
-2.399999856948853
 74
     0
  0
LTYPE
  5
4C
330
5
100
AcDbSymbolTableRecord
100
AcDbLinetypeTableRecord
  2
Gepunktete Var.6
 70
     0
  3

 72
    65
 73
     6
 40
7.079999685287476
 49
0.3600000143051147
 74
     0
 49
-1.199999928474426
 74
     0
 49
0.3600000143051147
 74
     0
 49
-2.399999856948853
 74
     0
 49
0.3600000143051147
 74
     0
 49
-2.399999856948853
 74
     0
  0
LTYPE
  5
4D
330
5
100
AcDbSymbolTableRecord
100
AcDbLinetypeTableRecord
  2
Strichlierte Var.2
 70
     0
  3

 72
    65
 73
     2
 40
3.599999904632568
 49
1.799999952316284
 74
     0
 49
-1.799999952316284
 74
     0
  0
LTYPE
  5
4E
330
5
100
AcDbSymbolTableRecord
100
AcDbLinetypeTableRecord
  2
Strichlierte Var.3
 70
     0
  3

 72
    65
 73
     2
 40
5.399999856948853
 49
1.799999952316284
 74
     0
 49
-3.599999904632568
 74
     0
  0
LTYPE
  5
4F
330
5
100
AcDbSymbolTableRecord
100
AcDbLinetypeTableRecord
  2
Strichlierte Var.4
 70
     0
  3

 72
    65
 73
     2
 40
4.199999868869781
 49
3.599999904632568
 74
     0
 49
-0.5999999642372131
 74
     0
  0
LTYPE
  5
50
330
5
100
AcDbSymbolTableRecord
100
AcDbLinetypeTableRecord
  2
Strichlierte Var.5
 70
     0
  3

 72
    65
 73
     2
 40
5.399999856948853
 49
3.599999904632568
 74
     0
 49
-1.799999952316284
 74
     0
  0
LTYPE
  5
51
330
5
100
AcDbSymbolTableRecord
100
AcDbLinetypeTableRecord
  2
Strichlierte Var.6
 70
     0
  3

 72
    65
 73
     2
 40
7.199999809265137
 49
3.599999904632568
 74
     0
 49
-3.599999904632568
 74
     0
  0
LTYPE
  5
52
330
5
100
AcDbSymbolTableRecord
100
AcDbLinetypeTableRecord
  2
Strich-2Abstand
 70
     0
  3

 72
    65
 73
     4
 40
8.999999761581421
 49
1.799999952316284
 74
     0
 49
-1.799999952316284
 74
     0
 49
3.599999904632568
 74
     0
 49
-1.799999952316284
 74
     0
  0
LTYPE
  5
53
330
5
100
AcDbSymbolTableRecord
100
AcDbLinetypeTableRecord
  2
Strich-3Abstand
 70
     0
  3

 72
    65
 73
     6
 40
7.919999837875366
 49
0.3600000143051147
 74
     0
 49
-1.799999952316284
 74
     0
 49
0.3600000143051147
 74
     0
 49
-1.799999952316284
 74
     0
 49
1.799999952316284
 74
     0
 49
-1.799999952316284
 74
     0
  0
LTYPE
  5
54
330
5
100
AcDbSymbolTableRecord
100
AcDbLinetypeTableRecord
  2
Strich-4Abstand
 70
     0
  3

 72
    65
 73
     6
 40
9.359999775886536
 49
1.799999952316284
 74
     0
 49
-1.799999952316284
 74
     0
 49
1.799999952316284
 74
     0
 49
-1.799999952316284
 74
     0
 49
0.3600000143051147
 74
     0
 49
-1.799999952316284
 74
     0
  0
LTYPE
  5
55
330
5
100
AcDbSymbolTableRecord
100
AcDbLinetypeTableRecord
  2
Punktlinie
 70
     0
  3

 72
    65
 73
     6
 40
20.10000000149012
 49
0.0500000007450581
 74
     0
 49
-0.0500000007450581
 74
     0
 49
5.0
 74
     0
 49
-5.0
 74
     0
 49
5.0
 74
     0
 49
-5.0
 74
     0
  0
LTYPE
  5
56
330
5
100
AcDbSymbolTableRecord
100
AcDbLinetypeTableRecord
  2
Punkt-Strichlinie
 70
     0
  3

 72
    65
 73
     6
 40
3.550000000745058
 49
1.0
 74
     0
 49
-0.5
 74
     0
 49
1.0
 74
     0
 49
-0.5
 74
     0
 49
0.0500000007450581
 74
     0
 49
-0.5
 74
     0
  0
LTYPE
  5
57
330
5
100
AcDbSymbolTableRecord
100
AcDbLinetypeTableRecord
  2
Doppelpunkt-Strichlinie
 70
     0
  3

 72
    65
 73
     6
 40
1.350000001490116
 49
0.5
 74
     0
 49
-0.25
 74
     0
 49
0.0500000007450581
 74
     0
 49
-0.25
 74
     0
 49
0.0500000007450581
 74
     0
 49
-0.25
 74
     0
  0
LTYPE
  5
58
330
5
100
AcDbSymbolTableRecord
100
AcDbLinetypeTableRecord
  2
Eigene Linie 27
 70
     0
  3

 72
    65
 73
     6
 40
2.600000001490116
 49
1.0
 74
     0
 49
-0.5
 74
     0
 49
0.0500000007450581
 74
     0
 49
-0.5
 74
     0
 49
0.0500000007450581
 74
     0
 49
-0.5
 74
     0
  0
LTYPE
  5
59
330
5
100
AcDbSymbolTableRecord
100
AcDbLinetypeTableRecord
  2
Eigene Linie 28
 70
     0
  3

 72
    65
 73
     6
 40
1.800000000745058
 49
0.5
 74
     0
 49
-0.25
 74
     0
 49
0.5
 74
     0
 49
-0.25
 74
     0
 49
0.0500000007450581
 74
     0
 49
-0.25
 74
     0
  0
LTYPE
  5
5A
330
5
100
AcDbSymbolTableRecord
100
AcDbLinetypeTableRecord
  2
Eigene Linie 29
 70
     0
  3

 72
    65
 73
     6
 40
0.9250000007450581
 49
0.25
 74
     0
 49
-0.125
 74
     0
 49
0.25
 74
     0
 49
-0.125
 74
     0
 49
0.0500000007450581
 74
     0
 49
-0.125
 74
     0
  0
LTYPE
  5
5B
330
5
100
AcDbSymbolTableRecord
100
AcDbLinetypeTableRecord
  2
Eigene Linie 30
 70
     0
  3

 72
    65
 73
     2
 40
0.3000000007450581
 49
0.0500000007450581
 74
     0
 49
-0.25
 74
     0
  0
LTYPE
  5
5C
330
5
100
AcDbSymbolTableRecord
100
AcDbLinetypeTableRecord
  2
Eigene Linie 31
 70
     0
  3

 72
    65
 73
     2
 40
0.1750000007450581
 49
0.0500000007450581
 74
     0
 49
-0.125
 74
     0
  0
LTYPE
  5
5D
330
5
100
AcDbSymbolTableRecord
100
AcDbLinetypeTableRecord
  2
Eigene Linie 32
 70
     0
  3

 72
    65
 73
     2
 40
0.5500000007450581
 49
0.0500000007450581
 74
     0
 49
-0.5
 74
     0
  0
LTYPE
  5
5E
330
5
100
AcDbSymbolTableRecord
100
AcDbLinetypeTableRecord
  2
Eigene Linie 33
 70
     0
  3

 72
    65
 73
     4
 40
1.050000000745058
 49
0.5
 74
     0
 49
-0.25
 74
     0
 49
0.0500000007450581
 74
     0
 49
-0.25
 74
     0
  0
LTYPE
  5
5F
330
5
100
AcDbSymbolTableRecord
100
AcDbLinetypeTableRecord
  2
Eigene Linie 34
 70
     0
  3

 72
    65
 73
     4
 40
0.5500000007450581
 49
0.25
 74
     0
 49
-0.125
 74
     0
 49
0.0500000007450581
 74
     0
 49
-0.125
 74
     0
  0
LTYPE
  5
60
330
5
100
AcDbSymbolTableRecord
100
AcDbLinetypeTableRecord
  2
Eigene Linie 35
 70
     0
  3

 72
    65
 73
     4
 40
2.050000000745058
 49
1.0
 74
     0
 49
-0.5
 74
     0
 49
0.0500000007450581
 74
     0
 49
-0.5
 74
     0
  0
LTYPE
  5
61
330
5
100
AcDbSymbolTableRecord
100
AcDbLinetypeTableRecord
  2
Eigene Linie 36
 70
     0
  3

 72
    65
 73
     2
 40
0.75
 49
0.5
 74
     0
 49
-0.25
 74
     0
  0
LTYPE
  5
62
330
5
100
AcDbSymbolTableRecord
100
AcDbLinetypeTableRecord
  2
Eigene Linie 37
 70
     0
  3

 72
    65
 73
     2
 40
0.375
 49
0.25
 74
     0
 49
-0.125
 74
     0
  0
LTYPE
  5
63
330
5
100
AcDbSymbolTableRecord
100
AcDbLinetypeTableRecord
  2
Eigene Linie 38
 70
     0
  3

 72
    65
 73
     2
 40
1.5
 49
1.0
 74
     0
 49
-0.5
 74
     0
  0
LTYPE
  5
64
330
5
100
AcDbSymbolTableRecord
100
AcDbLinetypeTableRecord
  2
Eigene Linie 39
 70
     0
  3

 72
    65
 73
     6
 40
2.5
 49
1.25
 74
     0
 49
-0.25
 74
     0
 49
0.25
 74
     0
 49
-0.25
 74
     0
 49
0.25
 74
     0
 49
-0.25
 74
     0
  0
LTYPE
  5
65
330
5
100
AcDbSymbolTableRecord
100
AcDbLinetypeTableRecord
  2
Eigene Linie 40
 70
     0
  3

 72
    65
 73
     6
 40
1.25
 49
0.625
 74
     0
 49
-0.125
 74
     0
 49
0.125
 74
     0
 49
-0.125
 74
     0
 49
0.125
 74
     0
 49
-0.125
 74
     0
  0
LTYPE
  5
66
330
5
100
AcDbSymbolTableRecord
100
AcDbLinetypeTableRecord
  2
Eigene Linie 41
 70
     0
  3

 72
    65
 73
     6
 40
5.0
 49
2.5
 74
     0
 49
-0.5
 74
     0
 49
0.5
 74
     0
 49
-0.5
 74
     0
 49
0.5
 74
     0
 49
-0.5
 74
     0
  0
LTYPE
  5
67
330
5
100
AcDbSymbolTableRecord
100
AcDbLinetypeTableRecord
  2
Eigene Linie 42
 70
     0
  3

 72
    65
 73
     2
 40
0.300000011920929
 49
0.1500000059604645
 74
     0
 49
-0.1500000059604645
 74
     0
  0
LTYPE
  5
68
330
5
100
AcDbSymbolTableRecord
100
AcDbLinetypeTableRecord
  2
Eigene Linie 43
 70
     0
  3

 72
    65
 73
     2
 40
0.1399999968707561
 49
0.0799999982118607
 74
     0
 49
-0.0599999986588955
 74
     0
  0
LTYPE
  5
69
330
5
100
AcDbSymbolTableRecord
100
AcDbLinetypeTableRecord
  2
Eigene Linie 44
 70
     0
  3

 72
    65
 73
     2
 40
0.3000000007450581
 49
0.0500000007450581
 74
     0
 49
-0.25
 74
     0
  0
LTYPE
  5
6A
330
5
100
AcDbSymbolTableRecord
100
AcDbLinetypeTableRecord
  2
Eigene Linie 45
 70
     0
  3

 72
    65
 73
     2
 40
0.5500000007450581
 49
0.0500000007450581
 74
     0
 49
-0.5
 74
     0
  0
LTYPE
  5
6B
330
5
100
AcDbSymbolTableRecord
100
AcDbLinetypeTableRecord
  2
User line type56
 70
     0
  3

 72
    65
 73
     2
 40
5.399999856948853
 49
3.599999904632568
 74
     0
 49
-1.799999952316284
 74
     0
  0
LTYPE
  5
6C
330
5
100
AcDbSymbolTableRecord
100
AcDbLinetypeTableRecord
  2
User line type57
 70
     0
  3

 72
    65
 73
     2
 40
7.199999809265137
 49
3.599999904632568
 74
     0
 49
-3.599999904632568
 74
     0
  0
LTYPE
  5
6D
330
5
100
AcDbSymbolTableRecord
100
AcDbLinetypeTableRecord
  2
User line type58
 70
     0
  3

 72
    65
 73
     4
 40
8.999999761581421
 49
1.799999952316284
 74
     0
 49
-1.799999952316284
 74
     0
 49
3.599999904632568
 74
     0
 49
-1.799999952316284
 74
     0
  0
LTYPE
  5
6E
330
5
100
AcDbSymbolTableRecord
100
AcDbLinetypeTableRecord
  2
User line type59
 70
     0
  3

 72
    65
 73
     6
 40
7.919999837875366
 49
0.3600000143051147
 74
     0
 49
-1.799999952316284
 74
     0
 49
0.3600000143051147
 74
     0
 49
-1.799999952316284
 74
     0
 49
1.799999952316284
 74
     0
 49
-1.799999952316284
 74
     0
  0
LTYPE
  5
6F
330
5
100
AcDbSymbolTableRecord
100
AcDbLinetypeTableRecord
  2
User line type60
 70
     0
  3

 72
    65
 73
     6
 40
9.359999775886536
 49
1.799999952316284
 74
     0
 49
-1.799999952316284
 74
     0
 49
1.799999952316284
 74
     0
 49
-1.799999952316284
 74
     0
 49
0.3600000143051147
 74
     0
 49
-1.799999952316284
 74
     0
  0
LTYPE
  5
70
330
5
100
AcDbSymbolTableRecord
100
AcDbLinetypeTableRecord
  2
User line type61
 70
     0
  3

 72
    65
 73
     6
 40
20.10000000149012
 49
0.0500000007450581
 74
     0
 49
-0.0500000007450581
 74
     0
 49
5.0
 74
     0
 49
-5.0
 74
     0
 49
5.0
 74
     0
 49
-5.0
 74
     0
  0
LTYPE
  5
71
330
5
100
AcDbSymbolTableRecord
100
AcDbLinetypeTableRecord
  2
User line type62
 70
     0
  3

 72
    65
 73
     6
 40
3.550000000745058
 49
1.0
 74
     0
 49
-0.5
 74
     0
 49
1.0
 74
     0
 49
-0.5
 74
     0
 49
0.0500000007450581
 74
     0
 49
-0.5
 74
     0
  0
LTYPE
  5
72
330
5
100
AcDbSymbolTableRecord
100
AcDbLinetypeTableRecord
  2
User line type63
 70
     0
  3

 72
    65
 73
     6
 40
1.350000001490116
 49
0.5
 74
     0
 49
-0.25
 74
     0
 49
0.0500000007450581
 74
     0
 49
-0.25
 74
     0
 49
0.0500000007450581
 74
     0
 49
-0.25
 74
     0
  0
LTYPE
  5
73
330
5
100
AcDbSymbolTableRecord
100
AcDbLinetypeTableRecord
  2
User line type64
 70
     0
  3

 72
    65
 73
     6
 40
2.600000001490116
 49
1.0
 74
     0
 49
-0.5
 74
     0
 49
0.0500000007450581
 74
     0
 49
-0.5
 74
     0
 49
0.0500000007450581
 74
     0
 49
-0.5
 74
     0
  0
LTYPE
  5
74
330
5
100
AcDbSymbolTableRecord
100
AcDbLinetypeTableRecord
  2
User line type65
 70
     0
  3

 72
    65
 73
     6
 40
1.800000000745058
 49
0.5
 74
     0
 49
-0.25
 74
     0
 49
0.5
 74
     0
 49
-0.25
 74
     0
 49
0.0500000007450581
 74
     0
 49
-0.25
 74
     0
  0
LTYPE
  5
75
330
5
100
AcDbSymbolTableRecord
100
AcDbLinetypeTableRecord
  2
User line type66
 70
     0
  3

 72
    65
 73
     6
 40
0.9250000007450581
 49
0.25
 74
     0
 49
-0.125
 74
     0
 49
0.25
 74
     0
 49
-0.125
 74
     0
 49
0.0500000007450581
 74
     0
 49
-0.125
 74
     0
  0
LTYPE
  5
76
330
5
100
AcDbSymbolTableRecord
100
AcDbLinetypeTableRecord
  2
User line type67
 70
     0
  3

 72
    65
 73
     2
 40
0.3000000007450581
 49
0.0500000007450581
 74
     0
 49
-0.25
 74
     0
  0
LTYPE
  5
77
330
5
100
AcDbSymbolTableRecord
100
AcDbLinetypeTableRecord
  2
User line type68
 70
     0
  3

 72
    65
 73
     2
 40
0.1750000007450581
 49
0.0500000007450581
 74
     0
 49
-0.125
 74
     0
  0
LTYPE
  5
78
330
5
100
AcDbSymbolTableRecord
100
AcDbLinetypeTableRecord
  2
User line type69
 70
     0
  3

 72
    65
 73
     2
 40
0.5500000007450581
 49
0.0500000007450581
 74
     0
 49
-0.5
 74
     0
  0
LTYPE
  5
79
330
5
100
AcDbSymbolTableRecord
100
AcDbLinetypeTableRecord
  2
User line type70
 70
     0
  3

 72
    65
 73
     4
 40
1.050000000745058
 49
0.5
 74
     0
 49
-0.25
 74
     0
 49
0.0500000007450581
 74
     0
 49
-0.25
 74
     0
  0
LTYPE
  5
7A
330
5
100
AcDbSymbolTableRecord
100
AcDbLinetypeTableRecord
  2
User line type71
 70
     0
  3

 72
    65
 73
     4
 40
0.5500000007450581
 49
0.25
 74
     0
 49
-0.125
 74
     0
 49
0.0500000007450581
 74
     0
 49
-0.125
 74
     0
  0
LTYPE
  5
7B
330
5
100
AcDbSymbolTableRecord
100
AcDbLinetypeTableRecord
  2
User line type72
 70
     0
  3

 72
    65
 73
     4
 40
2.050000000745058
 49
1.0
 74
     0
 49
-0.5
 74
     0
 49
0.0500000007450581
 74
     0
 49
-0.5
 74
     0
  0
LTYPE
  5
7C
330
5
100
AcDbSymbolTableRecord
100
AcDbLinetypeTableRecord
  2
User line type73
 70
     0
  3

 72
    65
 73
     2
 40
0.75
 49
0.5
 74
     0
 49
-0.25
 74
     0
  0
LTYPE
  5
7D
330
5
100
AcDbSymbolTableRecord
100
AcDbLinetypeTableRecord
  2
User line type74
 70
     0
  3

 72
    65
 73
     2
 40
0.375
 49
0.25
 74
     0
 49
-0.125
 74
     0
  0
LTYPE
  5
7E
330
5
100
AcDbSymbolTableRecord
100
AcDbLinetypeTableRecord
  2
User line type75
 70
     0
  3

 72
    65
 73
     2
 40
1.5
 49
1.0
 74
     0
 49
-0.5
 74
     0
  0
LTYPE
  5
7F
330
5
100
AcDbSymbolTableRecord
100
AcDbLinetypeTableRecord
  2
User line type76
 70
     0
  3

 72
    65
 73
     6
 40
2.5
 49
1.25
 74
     0
 49
-0.25
 74
     0
 49
0.25
 74
     0
 49
-0.25
 74
     0
 49
0.25
 74
     0
 49
-0.25
 74
     0
  0
LTYPE
  5
80
330
5
100
AcDbSymbolTableRecord
100
AcDbLinetypeTableRecord
  2
User line type77
 70
     0
  3

 72
    65
 73
     6
 40
1.25
 49
0.625
 74
     0
 49
-0.125
 74
     0
 49
0.125
 74
     0
 49
-0.125
 74
     0
 49
0.125
 74
     0
 49
-0.125
 74
     0
  0
LTYPE
  5
81
330
5
100
AcDbSymbolTableRecord
100
AcDbLinetypeTableRecord
  2
User line type78
 70
     0
  3

 72
    65
 73
     6
 40
5.0
 49
2.5
 74
     0
 49
-0.5
 74
     0
 49
0.5
 74
     0
 49
-0.5
 74
     0
 49
0.5
 74
     0
 49
-0.5
 74
     0
  0
LTYPE
  5
82
330
5
100
AcDbSymbolTableRecord
100
AcDbLinetypeTableRecord
  2
User line type79
 70
     0
  3

 72
    65
 73
     2
 40
0.300000011920929
 49
0.1500000059604645
 74
     0
 49
-0.1500000059604645
 74
     0
  0
LTYPE
  5
83
330
5
100
AcDbSymbolTableRecord
100
AcDbLinetypeTableRecord
  2
User line type80
 70
     0
  3

 72
    65
 73
     2
 40
0.1399999968707561
 49
0.0799999982118607
 74
     0
 49
-0.0599999986588955
 74
     0
  0
LTYPE
  5
84
330
5
100
AcDbSymbolTableRecord
100
AcDbLinetypeTableRecord
  2
User line type81
 70
     0
  3

 72
    65
 73
     2
 40
0.3000000007450581
 49
0.0500000007450581
 74
     0
 49
-0.25
 74
     0
  0
LTYPE
  5
85
330
5
100
AcDbSymbolTableRecord
100
AcDbLinetypeTableRecord
  2
User line type82
 70
     0
  3

 72
    65
 73
     2
 40
0.5500000007450581
 49
0.0500000007450581
 74
     0
 49
-0.5
 74
     0
  0
LTYPE
  5
86
330
5
100
AcDbSymbolTableRecord
100
AcDbLinetypeTableRecord
  2
User line type83
 70
     0
  3

 72
    65
 73
     6
 40
31.84999952465296
 49
12.69999980926514
 74
     0
 49
-6.349999904632568
 74
     0
 49
0.0500000007450581
 74
     0
 49
-6.349999904632568
 74
     0
 49
0.0500000007450581
 74
     0
 49
-6.349999904632568
 74
     0
  0
LTYPE
  5
87
330
5
100
AcDbSymbolTableRecord
100
AcDbLinetypeTableRecord
  2
User line type84
 70
     0
  3

 72
    65
 73
     4
 40
50.79999971389771
 49
31.75
 74
     0
 49
-6.349999904632568
 74
     0
 49
6.349999904632568
 74
     0
 49
-6.349999904632568
 74
     0
  0
LTYPE
  5
88
330
5
100
AcDbSymbolTableRecord
100
AcDbLinetypeTableRecord
  2
User line type85
 70
     0
  3

 72
    65
 73
     2
 40
6.399999905377626
 49
0.0500000007450581
 74
     0
 49
-6.349999904632568
 74
     0
  0
LTYPE
  5
89
330
5
100
AcDbSymbolTableRecord
100
AcDbLinetypeTableRecord
  2
User line type86
 70
     0
  3

 72
    65
 73
     4
 40
25.44999961927533
 49
12.69999980926514
 74
     0
 49
-6.349999904632568
 74
     0
 49
0.0500000007450581
 74
     0
 49
-6.349999904632568
 74
     0
  0
LTYPE
  5
8A
330
5
100
AcDbSymbolTableRecord
100
AcDbLinetypeTableRecord
  2
User line type87
 70
     0
  3

 72
    65
 73
     2
 40
9.524999856948853
 49
6.349999904632568
 74
     0
 49
-3.174999952316284
 74
     0
  0
LTYPE
  5
8B
330
5
100
AcDbSymbolTableRecord
100
AcDbLinetypeTableRecord
  2
User line type88
 70
     0
  3

 72
    65
 73
     2
 40
0.0050000002374873
 49
0.0040000001899898
 74
     0
 49
-0.0010000000474975
 74
     0
  0
LTYPE
  5
8C
330
5
100
AcDbSymbolTableRecord
100
AcDbLinetypeTableRecord
  2
User line type89
 70
     0
  3

 72
    65
 73
     4
 40
0.0550000009825453
 49
0.0040000001899898
 74
     0
 49
-0.0005000000237487
 74
     0
 49
0.0500000007450581
 74
     0
 49
-0.0005000000237487
 74
     0
  0
LTYPE
  5
8D
330
5
100
AcDbSymbolTableRecord
100
AcDbLinetypeTableRecord
  2
DOT
 70
     0
  3

 72
    65
 73
     3
 40
0.5499949939548969
 49
0.0500000007450581
 74
     0
 49
-0.25
 74
     0
 49
0.2499949932098389
 74
     0
  0
LTYPE
  5
8E
330
5
100
AcDbSymbolTableRecord
100
AcDbLinetypeTableRecord
  2
User line type91
 70
     0
  3

 72
    65
 73
     2
 40
4.0
 49
2.0
 74
     0
 49
-2.0
 74
     0
  0
LTYPE
  5
8F
330
5
100
AcDbSymbolTableRecord
100
AcDbLinetypeTableRecord
  2
User line type92
 70
     0
  3

 72
    65
 73
     2
 40
4.0
 49
2.0
 74
     0
 49
-2.0
 74
     0
  0
LTYPE
  5
90
330
5
100
AcDbSymbolTableRecord
100
AcDbLinetypeTableRecord
  2
User line type93
 70
     0
  3

 72
    65
 73
     4
 40
1.050000000745058
 49
0.5
 74
     0
 49
-0.25
 74
     0
 49
0.0500000007450581
 74
     0
 49
-0.25
 74
     0
  0
LTYPE
  5
91
330
5
100
AcDbSymbolTableRecord
100
AcDbLinetypeTableRecord
  2
User line type94
 70
     0
  3

 72
    65
 73
     2
 40
0.75
 49
0.5
 74
     0
 49
-0.25
 74
     0
  0
LTYPE
  5
92
330
5
100
AcDbSymbolTableRecord
100
AcDbLinetypeTableRecord
  2
User line type95
 70
     0
  3

 72
    65
 73
     6
 40
17.60000000149012
 49
10.0
 74
     0
 49
-2.5
 74
     0
 49
0.0500000007450581
 74
     0
 49
-2.5
 74
     0
 49
0.0500000007450581
 74
     0
 49
-2.5
 74
     0
  0
LTYPE
  5
93
330
5
100
AcDbSymbolTableRecord
100
AcDbLinetypeTableRecord
  2
User line type96
 70
     0
  3

 72
    65
 73
     2
 40
0.375
 49
0.25
 74
     0
 49
-0.125
 74
     0
  0
LTYPE
  5
94
330
5
100
AcDbSymbolTableRecord
100
AcDbLinetypeTableRecord
  2
User line type97
 70
     0
  3

 72
    65
 73
     4
 40
1.100000001490116
 49
0.5
 74
     0
 49
-0.25
 74
     0
 49
0.1000000014901161
 74
     0
 49
-0.25
 74
     0
  0
LTYPE
  5
95
330
5
100
AcDbSymbolTableRecord
100
AcDbLinetypeTableRecord
  2
User line type98
 70
     0
  3

 72
    65
 73
     2
 40
0.75
 49
0.5
 74
     0
 49
-0.25
 74
     0
  0
LTYPE
  5
96
330
5
100
AcDbSymbolTableRecord
100
AcDbLinetypeTableRecord
  2
User line type99
 70
     0
  3

 72
    65
 73
     4
 40
1.050000000745058
 49
0.5
 74
     0
 49
-0.25
 74
     0
 49
0.0500000007450581
 74
     0
 49
-0.25
 74
     0
  0
LTYPE
  5
97
330
5
100
AcDbSymbolTableRecord
100
AcDbLinetypeTableRecord
  2
User line type100
 70
     0
  3

 72
    65
 73
     6
 40
1.350000001490116
 49
0.5
 74
     0
 49
-0.25
 74
     0
 49
0.0500000007450581
 74
     0
 49
-0.25
 74
     0
 49
0.0500000007450581
 74
     0
 49
-0.25
 74
     0
  0
LTYPE
  5
98
330
5
100
AcDbSymbolTableRecord
100
AcDbLinetypeTableRecord
  2
User line type101
 70
     0
  3

 72
    65
 73
     4
 40
1.050000000745058
 49
0.5
 74
     0
 49
-0.25
 74
     0
 49
0.0500000007450581
 74
     0
 49
-0.25
 74
     0
  0
LTYPE
  5
99
330
5
100
AcDbSymbolTableRecord
100
AcDbLinetypeTableRecord
  2
User line type102
 70
     0
  3

 72
    65
 73
     2
 40
0.375
 49
0.25
 74
     0
 49
-0.125
 74
     0
  0
ENDTAB
  0
TABLE
  2
LAYER
  5
2
330
0
100
AcDbSymbolTable
 70
     9
  0
LAYER
  5
10
330
2
100
AcDbSymbolTableRecord
100
AcDbLayerTableRecord
  2
0
 70
     0
 62
     7
  6
Continuous
370
    -3
390
F
347
3E
  0
LAYER
  5
9A
330
2
100
AcDbSymbolTableRecord
100
AcDbLayerTableRecord
  2
00_Allgemein
 70
     0
 62
     7
  6
Continuous
370
     0
390
F
347
3E
  0
LAYER
  5
9B
330
2
100
AcDbSymbolTableRecord
100
AcDbLayerTableRecord
  2
37_Bilder
 70
     0
 62
     7
  6
Continuous
370
     0
390
F
347
3E
  0
LAYER
  5
9C
330
2
100
AcDbSymbolTableRecord
100
AcDbLayerTableRecord
  2
34_Gruppe
 70
     0
 62
     7
  6
Continuous
370
     0
390
F
347
3E
  0
LAYER
  5
9D
330
2
100
AcDbSymbolTableRecord
100
AcDbLayerTableRecord
  2
12_Linie
 70
     0
 62
     7
  6
Continuous
370
     0
390
F
347
3E
  0
LAYER
  5
9E
330
2
100
AcDbSymbolTableRecord
100
AcDbLayerTableRecord
  2
18_Schraffur
 70
     0
 62
     7
  6
Continuous
370
     0
390
F
347
3E
  0
LAYER
  5
9F
330
2
100
AcDbSymbolTableRecord
100
AcDbLayerTableRecord
  2
Folie _ 3
 70
     0
 62
     7
  6
Continuous
370
     0
390
F
347
3E
  0
LAYER
  5
A0
330
2
100
AcDbSymbolTableRecord
100
AcDbLayerTableRecord
  2
Schraff_Dämmung
 70
     0
 62
     7
  6
Continuous
370
     0
390
F
347
3E
  0
LAYER
  5
A1
330
2
100
AcDbSymbolTableRecord
100
AcDbLayerTableRecord
  2
STANDARD
 70
     0
 62
     7
  6
Continuous
370
     0
390
F
347
3E
  0
ENDTAB
  0
TABLE
  2
STYLE
  5
3
330
0
100
AcDbSymbolTable
 70
     3
  0
STYLE
  5
11
330
3
100
AcDbSymbolTableRecord
100
AcDbTextStyleTableRecord
  2
Standard
 70
     0
 40
0.0
 41
1.0
 50
0.0
 71
     0
 42
0.2
  3
txt
  4

  0
STYLE
  5
B7
330
3
100
AcDbSymbolTableRecord
100
AcDbTextStyleTableRecord
  2
Style0
 70
     0
 40
0.0
 41
1.0
 50
0.0
 71
     0
 42
0.2
  3
arial.ttf
  4

1001
ACAD
1000
Arial
1071
        0
  0
STYLE
  5
B8
330
3
100
AcDbSymbolTableRecord
100
AcDbTextStyleTableRecord
  2
Style1
 70
     0
 40
0.0
 41
1.0
 50
0.0
 71
     0
 42
0.2
  3
ariblk.ttf
  4

1001
ACAD
1000
Arial Black
1071
        0
  0
ENDTAB
  0
TABLE
  2
VIEW
  5
6
330
0
100
AcDbSymbolTable
 70
     0
  0
ENDTAB
  0
TABLE
  2
UCS
  5
7
330
0
100
AcDbSymbolTable
 70
     0
  0
ENDTAB
  0
TABLE
  2
APPID
  5
9
330
0
100
AcDbSymbolTable
 70
     1
  0
APPID
  5
12
330
9
100
AcDbSymbolTableRecord
100
AcDbRegAppTableRecord
  2
ACAD
 70
     0
  0
ENDTAB
  0
TABLE
  2
DIMSTYLE
  5
A
330
0
100
AcDbSymbolTable
 70
     1
100
AcDbDimStyleTable
  0
DIMSTYLE
105
27
330
A
100
AcDbSymbolTableRecord
100
AcDbDimStyleTableRecord
  2
Standard
 70
     0
178
     0
340
11
  0
ENDTAB
  0
TABLE
  2
BLOCK_RECORD
  5
1
330
0
100
AcDbSymbolTable
 70
     4
  0
BLOCK_RECORD
  5
1F
330
1
100
AcDbSymbolTableRecord
100
AcDbBlockTableRecord
  2
*Model_Space
340
22
 70
     0
280
     1
281
     0
  0
BLOCK_RECORD
  5
1B
330
1
100
AcDbSymbolTableRecord
100
AcDbBlockTableRecord
  2
*Paper_Space
340
1E
 70
     0
280
     1
281
     0
  0
BLOCK_RECORD
  5
23
330
1
100
AcDbSymbolTableRecord
100
AcDbBlockTableRecord
  2
*Paper_Space0
340
26
 70
     0
280
     1
281
     0
  0
BLOCK_RECORD
  5
A2
330
1
100
AcDbSymbolTableRecord
100
AcDbBlockTableRecord
  2
printlayout(id_1)
340
0
102
{BLKREFS
331
AF
102
}
 70
     0
280
     1
281
     0
  0
BLOCK_RECORD
  5
B4
330
1
100
AcDbSymbolTableRecord
100
AcDbBlockTableRecord
  2
hatch6
340
0
102
{BLKREFS
331
BB
102
}
 70
     0
280
     1
281
     0
  0
BLOCK_RECORD
  5
B9
330
1
100
AcDbSymbolTableRecord
100
AcDbBlockTableRecord
  2
dokument alle 2d details_asc(id_4)
340
0
102
{BLKREFS
331
36D
102
}
 70
     0
280
     1
281
     0
  0
ENDTAB
  0
ENDSEC
  0
SECTION
  2
BLOCKS
  0
BLOCK
  5
20
330
1F
100
AcDbEntity
  8
0
100
AcDbBlockBegin
  2
*Model_Space
 70
     0
 10
0.0
 20
0.0
 30
0.0
  3
*Model_Space
  1

  0
ENDBLK
  5
21
330
1F
100
AcDbEntity
  8
0
100
AcDbBlockEnd
  0
BLOCK
  5
1C
330
1B
100
AcDbEntity
 67
     1
  8
0
100
AcDbBlockBegin
  2
*Paper_Space
 70
     0
 10
0.0
 20
0.0
 30
0.0
  3
*Paper_Space
  1

  0
ENDBLK
  5
1D
330
1B
100
AcDbEntity
 67
     1
  8
0
100
AcDbBlockEnd
  0
BLOCK
  5
24
330
23
100
AcDbEntity
  8
0
100
AcDbBlockBegin
  2
*Paper_Space0
 70
     0
 10
0.0
 20
0.0
 30
0.0
  3
*Paper_Space0
  1

  0
ENDBLK
  5
25
330
23
100
AcDbEntity
  8
0
100
AcDbBlockEnd
  0
BLOCK
  5
B0
330
A2
100
AcDbEntity
  8
0
100
AcDbBlockBegin
  2
printlayout(id_1)
 70
     0
 10
0.0
 20
0.0
 30
0.0
  3
printlayout(id_1)
  1

  0
POLYLINE
  5
A3
330
A2
100
AcDbEntity
  8
00_Allgemein
  6
Continuous
 62
     7
370
     0
100
AcDb2dPolyline
 66
     1
 10
0.0
 20
0.0
 30
0.0
 70
     1
  0
VERTEX
  5
A4
330
A3
100
AcDbEntity
  8
00_Allgemein
  6
Continuous
 62
     7
370
     0
100
AcDbVertex
100
AcDb2dVertex
 10
0.0
 20
0.0
 30
0.0
  0
VERTEX
  5
A5
330
A3
100
AcDbEntity
  8
00_Allgemein
  6
Continuous
 62
     7
370
     0
100
AcDbVertex
100
AcDb2dVertex
 10
297.0
 20
0.0
 30
0.0
  0
VERTEX
  5
A6
330
A3
100
AcDbEntity
  8
00_Allgemein
  6
Continuous
 62
     7
370
     0
100
AcDbVertex
100
AcDb2dVertex
 10
297.0
 20
210.0
 30
0.0
  0
VERTEX
  5
A7
330
A3
100
AcDbEntity
  8
00_Allgemein
  6
Continuous
 62
     7
370
     0
100
AcDbVertex
100
AcDb2dVertex
 10
0.0
 20
210.0
 30
0.0
  0
SEQEND
  5
A8
330
A3
100
AcDbEntity
  8
00_Allgemein
  6
Continuous
 62
     7
370
     0
  0
POLYLINE
  5
A9
330
A2
100
AcDbEntity
  8
00_Allgemein
  6
Strichpunktierte
 62
     5
420
      255
 48
5.0
370
     0
100
AcDb2dPolyline
 66
     1
 10
0.0
 20
0.0
 30
0.0
 70
     1
  0
VERTEX
  5
AA
330
A9
100
AcDbEntity
  8
00_Allgemein
  6
Strichpunktierte
 62
     5
420
      255
370
     0
100
AcDbVertex
100
AcDb2dVertex
 10
3.0
 20
3.0
 30
0.0
  0
VERTEX
  5
AB
330
A9
100
AcDbEntity
  8
00_Allgemein
  6
Strichpunktierte
 62
     5
420
      255
370
     0
100
AcDbVertex
100
AcDb2dVertex
 10
294.0
 20
3.0
 30
0.0
  0
VERTEX
  5
AC
330
A9
100
AcDbEntity
  8
00_Allgemein
  6
Strichpunktierte
 62
     5
420
      255
370
     0
100
AcDbVertex
100
AcDb2dVertex
 10
294.0
 20
207.0
 30
0.0
  0
VERTEX
  5
AD
330
A9
100
AcDbEntity
  8
00_Allgemein
  6
Strichpunktierte
 62
     5
420
      255
370
     0
100
AcDbVertex
100
AcDb2dVertex
 10
3.0
 20
207.0
 30
0.0
  0
SEQEND
  5
AE
330
A9
100
AcDbEntity
  8
00_Allgemein
  6
Strichpunktierte
 62
     5
420
      255
 48
5.0
370
     0
  0
ENDBLK
  5
B1
330
A2
100
AcDbEntity
  8
0
100
AcDbBlockEnd
  0
BLOCK
  5
B5
330
B4
100
AcDbEntity
  8
0
100
AcDbBlockBegin
  2
hatch6
 70
     0
 10
0.0
 20
0.0
 30
0.0
  3
hatch6
  1

  0
ENDBLK
  5
B6
330
B4
100
AcDbEntity
  8
0
100
AcDbBlockEnd
  0
BLOCK
  5
36E
330
B9
100
AcDbEntity
  8
0
100
AcDbBlockBegin
  2
dokument alle 2d details_asc(id_4)
 70
     0
 10
0.0
 20
0.0
 30
0.0
  3
dokument alle 2d details_asc(id_4)
  1

  0
IMAGE
  5
BA
330
B9
100
AcDbEntity
  8
37_Bilder
  6
Continuous
 62
     7
370
     0
160
               140
310
8C00000001000000840000000600000005000000623F38DD7DC76E40607D7E0819A431400000000000000000B11F9CDEEF237240607D7E0819A431400000000000000000B11F9CDEEF237240B03E3F74D92D40400000000000000000623F38DD7DC76E40B03E3F74D92D40400000000000000000623F38DD7DC76E40607D7E
310
0819A431400000000000000000
100
AcDbRasterImage
 90
        0
 10
246.2341142748438
 20
17.64100697601441
 30
0.0
 11
0.0279263627105558
 21
0.0
 31
0.0
 12
0.0
 22
0.02792635995477608
 32
0.0
 13
1576.0
 23
527.0
340
B3
 70
     3
280
     0
281
    50
282
    50
283
     0
360
0
 71
     1
 91
        2
 14
-0.5
 24
-0.5
 14
1575.5
 24
526.5
290
     0
  0
INSERT
  5
BB
330
B9
100
AcDbEntity
  8
Schraff_Dämmung
 62
     7
100
AcDbBlockReference
  2
hatch6
 10
0.0
 20
0.0
 30
0.0
  0
HATCH
  5
BC
330
B9
100
AcDbEntity
  8
Schraff_Dämmung
 62
   253
100
AcDbHatch
 10
0.0
 20
0.0
 30
0.0
210
0.0
220
0.0
230
1.0
  2
SOLID
 70
     1
 71
     0
 91
        1
 92
        0
 93
        2
 72
     1
 10
145.4218002392034
 20
120.0883851148372
 11
145.4218002392034
 21
119.9638882409801
 72
     2
 10
145.9179102392034
 20
120.0261366779087
 40
0.5
 50
187.1517018187411
 51
532.848298181259
 73
     1
 97
        0
 75
     0
 76
     1
 98
        0
  0
LINE
  5
BD
330
B9
100
AcDbEntity
  8
STANDARD
  6
Continuous
 62
     7
370
    20
100
AcDbLine
 10
170.9218002392034
 20
121.0801166779087
 30
0.0
 11
170.9218002392034
 21
120.5643466779087
 31
0.0
  0
HATCH
  5
BE
330
B9
100
AcDbEntity
  8
Schraff_Dämmung
 62
   254
420
 13421772
100
AcDbHatch
 10
0.0
 20
0.0
 30
0.0
210
0.0
220
0.0
230
1.0
  2
SOLID
 70
     1
 71
     0
 91
        1
 92
        0
 93
        2
 72
     1
 10
127.0558647719267
 20
100.0894166779088
 11
127.1227957064801
 21
100.0894166779088
 72
     2
 10
127.0893302392034
 20
100.3371666779087
 40
0.25
 50
277.6928124517202
 51
622.3071875482799
 73
     1
 97
        0
 75
     0
 76
     1
 98
        0
  0
HATCH
  5
BF
330
B9
100
AcDbEntity
  8
Schraff_Dämmung
 62
   254
420
 13421772
100
AcDbHatch
 10
0.0
 20
0.0
 30
0.0
210
0.0
220
0.0
230
1.0
  2
SOLID
 70
     1
 71
     0
 91
        1
 92
        0
 93
        1
 72
     2
 10
127.0641802392034
 20
117.8394666779086
 40
0.25
 50
0.0
 51
360.0
 73
     1
 97
        0
 75
     0
 76
     1
 98
        0
  0
LINE
  5
C0
330
B9
100
AcDbEntity
  8
STANDARD
  6
Continuous
 62
     7
370
    20
100
AcDbLine
 10
109.8615602392034
 20
117.5894166779088
 30
0.0
 11
109.8615602392034
 21
116.5894166779088
 31
0.0
  0
LINE
  5
C1
330
B9
100
AcDbEntity
  8
STANDARD
  6
Continuous
 62
     7
370
    20
100
AcDbLine
 10
109.8615602392034
 20
101.5894166779088
 30
0.0
 11
109.8615602392034
 21
100.5894166779088
 31
0.0
  0
HATCH
  5
C2
330
B9
100
AcDbEntity
  8
Schraff_Dämmung
 62
   254
100
AcDbHatch
 10
0.0
 20
0.0
 30
0.0
210
0.0
220
0.0
230
1.0
  2
SOLID
 70
     1
 71
     0
 91
        1
 92
        0
 93
        8
 72
     1
 10
123.8308802392034
 20
118.0894166779088
 11
129.4109502392034
 21
118.0894166779088
 72
     1
 10
129.4109502392034
 20
118.0894166779088
 11
129.4109502392034
 21
119.0894166779088
 72
     1
 10
129.4109502392034
 20
119.0894166779088
 11
123.5101302392034
 21
119.0894166779088
 72
     1
 10
123.5101302392034
 20
119.0894166779088
 11
121.4124702392034
 21
117.5894166779088
 72
     1
 10
121.4124702392034
 20
117.5894166779088
 11
109.8615602392034
 21
117.5894166779088
 72
     1
 10
109.8615602392034
 20
117.5894166779088
 11
109.8615602392034
 21
116.5894166779088
 72
     1
 10
109.8615602392034
 20
116.5894166779088
 11
121.7332302392034
 21
116.5894166779088
 72
     1
 10
121.7332302392034
 20
116.5894166779088
 11
123.8308802392034
 21
118.0894166779088
 97
        0
 75
     0
 76
     1
 98
        0
  0
HATCH
  5
C3
330
B9
100
AcDbEntity
  8
Schraff_Dämmung
 62
   254
420
 13421772
100
AcDbHatch
 10
0.0
 20
0.0
 30
0.0
210
0.0
220
0.0
230
1.0
  2
SOLID
 70
     1
 71
     0
 91
        1
 92
        0
 93
       10
 72
     1
 10
121.7332302392034
 20
101.5894166779088
 11
109.8615602392034
 21
101.5894166779088
 72
     1
 10
109.8615602392034
 20
101.5894166779088
 11
109.8615602392034
 21
100.5894166779088
 72
     1
 10
109.8615602392034
 20
100.5894166779088
 11
121.4124702392034
 21
100.5894166779088
 72
     1
 10
121.4124702392034
 20
100.5894166779088
 11
123.5101302392034
 21
99.08941667790877
 72
     1
 10
123.5101302392034
 20
99.08941667790877
 11
129.4109502392034
 21
99.08941667790877
 72
     1
 10
129.4109502392034
 20
99.08941667790877
 11
129.4109502392034
 21
100.0894166779088
 72
     1
 10
129.4109502392034
 20
100.0894166779088
 11
127.1227957064801
 21
100.0894166779088
 72
     2
 10
127.0893302392034
 20
100.3371666779087
 40
0.25
 50
82.30718754827976
 51
97.69281245172013
 73
     0
 72
     1
 10
127.0558647719267
 20
100.0894166779088
 11
123.8308802392034
 21
100.0894166779088
 72
     1
 10
123.8308802392034
 20
100.0894166779088
 11
121.7332302392034
 21
101.5894166779088
 97
        0
 75
     0
 76
     1
 98
        0
  0
HATCH
  5
C4
330
B9
100
AcDbEntity
  8
Folie _ 3
  6
Continuous
 62
     7
370
    20
100
AcDbHatch
 10
0.0
 20
0.0
 30
0.0
210
0.0
220
0.0
230
1.0
  2
ANSI33
 70
     0
 71
     0
 91
        1
 92
        0
 93
       12
 72
     1
 10
109.8615602392034
 20
117.5894166779088
 11
109.9893766226227
 21
123.4232466779087
 72
     1
 10
109.9893766226227
 20
123.4232466779087
 11
130.1846302392034
 21
123.4232466779087
 72
     1
 10
130.1846302392034
 20
123.4232466779087
 11
130.1846302392034
 21
121.9232466779087
 72
     1
 10
130.1846302392034
 20
121.9232466779087
 11
138.4218002392034
 21
121.9232466779087
 72
     1
 10
138.4218002392034
 20
121.9232466779087
 11
138.4218002392034
 21
120.5643466779087
 72
     1
 10
138.4218002392034
 20
120.5643466779087
 11
143.9218002392034
 21
120.5643466779087
 72
     1
 10
143.9218002392034
 20
120.5643466779087
 11
143.9218002392034
 21
117.5894166779088
 72
     1
 10
143.9218002392034
 20
117.5894166779088
 11
129.4109502392034
 21
117.5894166779088
 72
     1
 10
129.4109502392034
 20
117.5894166779088
 11
129.4109502392034
 21
119.0894166779088
 72
     1
 10
129.4109502392034
 20
119.0894166779088
 11
123.5101302392034
 21
119.0894166779088
 72
     1
 10
123.5101302392034
 20
119.0894166779088
 11
121.4124702392034
 21
117.5894166779088
 72
     1
 10
121.4124702392034
 20
117.5894166779088
 11
109.8615602392034
 21
117.5894166779088
 97
        0
 75
     0
 76
     1
 52
0.0
 41
25.0
 77
     0
 78
     2
 53
45.0
 43
-346.166744661455
 44
1003.186725901151
 45
-4.419417382415922
 46
4.419417382415921
 79
     0
 53
45.0
 43
-341.747327286455
 44
1003.186725901151
 45
-4.419417382415922
 46
4.419417382415921
 79
     2
 49
3.125
 49
-1.5625
 98
        0
  0
HATCH
  5
C5
330
B9
100
AcDbEntity
  8
STANDARD
  6
Continuous
 62
     7
370
    20
100
AcDbHatch
 10
0.0
 20
0.0
 30
0.0
210
0.0
220
0.0
230
1.0
  2
ANSI33
 70
     0
 71
     0
 91
        1
 92
        0
 93
       16
 72
     1
 10
109.8615602392034
 20
100.5894166779088
 11
109.9291702392034
 21
87.20003208589242
 72
     1
 10
109.9291702392034
 20
87.20003208589242
 11
204.8638402392033
 21
87.20003208589242
 72
     1
 10
204.8638402392033
 20
87.20003208589242
 11
204.8638402392033
 21
123.4232466779087
 72
     1
 10
204.8638402392033
 20
123.4232466779087
 11
184.6589702392034
 21
123.4232466779087
 72
     1
 10
184.6589702392034
 20
123.4232466779087
 11
184.6589702392034
 21
121.9232466779087
 72
     1
 10
184.6589702392034
 20
121.9232466779087
 11
176.4218002392034
 21
121.9232466779087
 72
     1
 10
176.4218002392034
 20
121.9232466779087
 11
176.4218002392034
 21
120.5643466779087
 72
     1
 10
176.4218002392034
 20
120.5643466779087
 11
170.9218002392034
 21
120.5643466779087
 72
     1
 10
170.9218002392034
 20
120.5643466779087
 11
170.9218002392034
 21
117.4644166779088
 72
     1
 10
170.9218002392034
 20
117.4644166779088
 11
168.4218002392034
 21
116.8394166779088
 72
     1
 10
168.4218002392034
 20
116.8394166779088
 11
168.4218002392034
 21
100.5894166779088
 72
     1
 10
168.4218002392034
 20
100.5894166779088
 11
129.4109502392034
 21
100.5894166779088
 72
     1
 10
129.4109502392034
 20
100.5894166779088
 11
129.4109502392034
 21
99.08941667790877
 72
     1
 10
129.4109502392034
 20
99.08941667790877
 11
123.5101302392034
 21
99.08941667790877
 72
     1
 10
123.5101302392034
 20
99.08941667790877
 11
121.4124702392034
 21
100.5894166779088
 72
     1
 10
121.4124702392034
 20
100.5894166779088
 11
109.8615602392034
 21
100.5894166779088
 97
        0
 75
     0
 76
     1
 52
0.0
 41
25.0
 77
     0
 78
     2
 53
45.0
 43
-346.166744661455
 44
1003.186725901151
 45
-4.419417382415922
 46
4.419417382415921
 79
     0
 53
45.0
 43
-341.747327286455
 44
1003.186725901151
 45
-4.419417382415922
 46
4.419417382415921
 79
     2
 49
3.125
 49
-1.5625
 98
        0
  0
HATCH
  5
C6
330
B9
100
AcDbEntity
  8
Schraff_Dämmung
 62
     7
100
AcDbHatch
 10
0.0
 20
0.0
 30
0.0
210
0.0
220
0.0
230
1.0
  2
SOLID
 70
     1
 71
     0
 91
        8
 92
        0
 93
        4
 72
     1
 10
145.9584361519465
 20
143.3232466779087
 11
145.9584361519465
 21
143.4072428442341
 72
     1
 10
145.9584361519465
 20
143.4072428442341
 11
145.2864668213426
 21
143.4072428442341
 72
     1
 10
145.2864668213426
 20
143.4072428442341
 11
145.2864668213426
 21
143.3232466779087
 72
     1
 10
145.2864668213426
 20
143.3232466779087
 11
145.9584361519465
 21
143.3232466779087
 97
        0
 92
        0
 93
        4
 72
     1
 10
145.2864668213426
 20
143.3232466779087
 11
145.2864668213426
 21
143.4072428442341
 72
     1
 10
145.2864668213426
 20
143.4072428442341
 11
144.6984936570642
 21
143.4072428442341
 72
     1
 10
144.6984936570642
 20
143.4072428442341
 11
144.6984936570642
 21
143.3232466779087
 72
     1
 10
144.6984936570642
 20
143.3232466779087
 11
145.2864668213426
 21
143.3232466779087
 97
        0
 92
        0
 93
        4
 72
     1
 10
145.2147172960675
 20
143.0721233394455
 11
145.2864668213426
 21
143.3232466779087
 72
     1
 10
145.2864668213426
 20
143.3232466779087
 11
144.6984936570642
 21
143.3232466779087
 72
     1
 10
144.6984936570642
 20
143.3232466779087
 11
144.7702431823393
 21
143.0721233394455
 72
     1
 10
144.7702431823393
 20
143.0721233394455
 11
145.2147172960673
 21
143.0721233394455
 97
        0
 92
        0
 93
        4
 72
     1
 10
144.6984936570642
 20
143.3232466779087
 11
144.6984936570642
 21
143.4072428442341
 72
     1
 10
144.6984936570642
 20
143.4072428442341
 11
144.0265243264603
 21
143.4072428442341
 72
     1
 10
144.0265243264603
 20
143.4072428442341
 11
144.0265243264603
 21
143.3232466779087
 72
     1
 10
144.0265243264603
 20
143.3232466779087
 11
144.6984936570642
 21
143.3232466779087
 97
        0
 92
        0
 93
        4
 72
     1
 10
145.1979180628023
 20
143.0133260230177
 11
145.2147172960675
 21
143.0721233394455
 72
     1
 10
145.2147172960673
 20
143.0721233394455
 11
144.7702431823393
 21
143.0721233394455
 72
     1
 10
144.7702431823393
 20
143.0721233394455
 11
144.7870424156045
 21
143.0133260230177
 72
     1
 10
144.7870424156045
 20
143.0133260230177
 11
145.1979180628023
 21
143.0133260230177
 97
        0
 92
        0
 93
        4
 72
     1
 10
145.1184744886916
 20
142.7352735136303
 11
145.1979180628023
 21
143.0133260230177
 72
     1
 10
145.1979180628023
 20
143.0133260230177
 11
144.7870424156045
 21
143.0133260230177
 72
     1
 10
144.7870424156045
 20
143.0133260230177
 11
144.8664859897152
 21
142.7352735136303
 72
     1
 10
144.8664859897152
 20
142.7352735136303
 11
145.1184744886916
 21
142.7352735136303
 97
        0
 92
        0
 93
        4
 72
     1
 10
145.1184744886916
 20
142.1733643597628
 11
145.1184744886916
 21
142.7352735136303
 72
     1
 10
145.1184744886916
 20
142.7352735136303
 11
144.8664859897152
 21
142.7352735136303
 72
     1
 10
144.8664859897152
 20
142.7352735136303
 11
144.8664859897152
 21
142.1733643597628
 72
     1
 10
144.8664859897152
 20
142.1733643597628
 11
145.1184744886916
 21
142.1733643597628
 97
        0
 92
        0
 93
        4
 72
     1
 10
145.1184744886916
 20
139.1477804506354
 11
145.1184744886916
 21
142.1733643597628
 72
     1
 10
145.1184744886916
 20
142.1733643597628
 11
144.8664859897152
 21
142.1733643597628
 72
     1
 10
144.8664859897152
 20
142.1733643597628
 11
144.8664859897152
 21
139.1477804506354
 72
     1
 10
144.8664859897152
 20
139.1477804506354
 11
145.1184744886916
 21
139.1477804506354
 97
        0
 75
     0
 76
     1
 98
        0
  0
HATCH
  5
C7
330
B9
100
AcDbEntity
  8
Schraff_Dämmung
 62
     7
100
AcDbHatch
 10
0.0
 20
0.0
 30
0.0
210
0.0
220
0.0
230
1.0
  2
SOLID
 70
     1
 71
     0
 91
        8
 92
        0
 93
        4
 72
     1
 10
170.8170761519465
 20
143.3232466779087
 11
170.8170761519465
 21
143.4072428442341
 72
     1
 10
170.8170761519465
 20
143.4072428442341
 11
170.1451068213427
 21
143.4072428442341
 72
     1
 10
170.1451068213427
 20
143.4072428442341
 11
170.1451068213427
 21
143.3232466779087
 72
     1
 10
170.1451068213427
 20
143.3232466779087
 11
170.8170761519465
 21
143.3232466779087
 97
        0
 92
        0
 93
        4
 72
     1
 10
170.1451068213427
 20
143.3232466779087
 11
170.1451068213427
 21
143.4072428442341
 72
     1
 10
170.1451068213427
 20
143.4072428442341
 11
169.5571336570642
 21
143.4072428442341
 72
     1
 10
169.5571336570642
 20
143.4072428442341
 11
169.5571336570642
 21
143.3232466779087
 72
     1
 10
169.5571336570642
 20
143.3232466779087
 11
170.1451068213427
 21
143.3232466779087
 97
        0
 92
        0
 93
        4
 72
     1
 10
170.0733572960675
 20
143.0721233394455
 11
170.1451068213427
 21
143.3232466779087
 72
     1
 10
170.1451068213427
 20
143.3232466779087
 11
169.5571336570642
 21
143.3232466779087
 72
     1
 10
169.5571336570642
 20
143.3232466779087
 11
169.6288831823393
 21
143.0721233394455
 72
     1
 10
169.6288831823393
 20
143.0721233394455
 11
170.0733572960673
 21
143.0721233394455
 97
        0
 92
        0
 93
        4
 72
     1
 10
169.5571336570642
 20
143.3232466779087
 11
169.5571336570642
 21
143.4072428442341
 72
     1
 10
169.5571336570642
 20
143.4072428442341
 11
168.8851643264603
 21
143.4072428442341
 72
     1
 10
168.8851643264603
 20
143.4072428442341
 11
168.8851643264603
 21
143.3232466779087
 72
     1
 10
168.8851643264603
 20
143.3232466779087
 11
169.5571336570642
 21
143.3232466779087
 97
        0
 92
        0
 93
        4
 72
     1
 10
170.0565580628023
 20
143.0133260230177
 11
170.0733572960675
 21
143.0721233394455
 72
     1
 10
170.0733572960673
 20
143.0721233394455
 11
169.6288831823393
 21
143.0721233394455
 72
     1
 10
169.6288831823393
 20
143.0721233394455
 11
169.6456824156045
 21
143.0133260230177
 72
     1
 10
169.6456824156045
 20
143.0133260230177
 11
170.0565580628023
 21
143.0133260230177
 97
        0
 92
        0
 93
        4
 72
     1
 10
169.9771144886917
 20
142.7352735136303
 11
170.0565580628023
 21
143.0133260230177
 72
     1
 10
170.0565580628023
 20
143.0133260230177
 11
169.6456824156045
 21
143.0133260230177
 72
     1
 10
169.6456824156045
 20
143.0133260230177
 11
169.7251259897152
 21
142.7352735136303
 72
     1
 10
169.7251259897152
 20
142.7352735136303
 11
169.9771144886917
 21
142.7352735136303
 97
        0
 92
        0
 93
        4
 72
     1
 10
169.9771144886917
 20
142.1733643597628
 11
169.9771144886917
 21
142.7352735136303
 72
     1
 10
169.9771144886917
 20
142.7352735136303
 11
169.7251259897152
 21
142.7352735136303
 72
     1
 10
169.7251259897152
 20
142.7352735136303
 11
169.7251259897152
 21
142.1733643597628
 72
     1
 10
169.7251259897152
 20
142.1733643597628
 11
169.9771144886917
 21
142.1733643597628
 97
        0
 92
        0
 93
        4
 72
     1
 10
169.9771144886917
 20
139.1477804506354
 11
169.9771144886917
 21
142.1733643597628
 72
     1
 10
169.9771144886917
 20
142.1733643597628
 11
169.7251259897152
 21
142.1733643597628
 72
     1
 10
169.7251259897152
 20
142.1733643597628
 11
169.7251259897152
 21
139.1477804506354
 72
     1
 10
169.7251259897152
 20
139.1477804506354
 11
169.9771144886917
 21
139.1477804506354
 97
        0
 75
     0
 76
     1
 98
        0
  0
HATCH
  5
C8
330
B9
100
AcDbEntity
  8
Schraff_Dämmung
 62
   253
100
AcDbHatch
 10
0.0
 20
0.0
 30
0.0
210
0.0
220
0.0
230
1.0
  2
SOLID
 70
     1
 71
     0
 91
        2
 92
        0
 93
        4
 72
     1
 10
144.6984936570642
 20
143.3232466779087
 11
142.7285702392034
 21
143.3232466779087
 72
     1
 10
142.7285702392034
 20
143.3232466779087
 11
142.7285702392034
 21
142.8232466779087
 72
     1
 10
142.7285702392034
 20
142.8232466779087
 11
144.8413507999213
 21
142.8232466779087
 72
     1
 10
144.8413507999213
 20
142.8232466779087
 11
144.6984936570642
 21
143.3232466779087
 97
        0
 92
        0
 93
        8
 72
     1
 10
148.2218002392034
 20
143.8052766779086
 11
147.7218002392034
 21
143.8052766779086
 72
     1
 10
147.7218002392034
 20
143.8052766779086
 11
147.7218002392034
 21
143.3232466779087
 72
     1
 10
147.7218002392034
 20
143.3232466779087
 11
145.2864668213426
 21
143.3232466779087
 72
     1
 10
145.2864668213426
 20
143.3232466779087
 11
145.1436096784855
 21
142.8232466779087
 72
     1
 10
145.1436096784855
 20
142.8232466779087
 11
147.7218002392034
 21
142.8232466779087
 72
     1
 10
147.7218002392034
 20
142.8232466779087
 11
147.7218002392034
 21
140.8818666779087
 72
     1
 10
147.7218002392034
 20
140.8818666779087
 11
148.2218002392034
 21
140.8818666779087
 72
     1
 10
148.2218002392034
 20
140.8818666779087
 11
148.2218002392034
 21
143.8052766779086
 97
        0
 75
     0
 76
     1
 98
        0
  0
HATCH
  5
C9
330
B9
100
AcDbEntity
  8
Schraff_Dämmung
 62
   253
100
AcDbHatch
 10
0.0
 20
0.0
 30
0.0
210
0.0
220
0.0
230
1.0
  2
SOLID
 70
     1
 71
     0
 91
        2
 92
        0
 93
        8
 72
     1
 10
169.5571336570642
 20
143.3232466779087
 11
167.1218002392034
 21
143.3232466779087
 72
     1
 10
167.1218002392034
 20
143.3232466779087
 11
167.1218002392034
 21
143.8052766779086
 72
     1
 10
167.1218002392034
 20
143.8052766779086
 11
166.6218002392034
 21
143.8052766779086
 72
     1
 10
166.6218002392034
 20
143.8052766779086
 11
166.6218002392034
 21
140.8818666779087
 72
     1
 10
166.6218002392034
 20
140.8818666779087
 11
167.1218002392034
 21
140.8818666779087
 72
     1
 10
167.1218002392034
 20
140.8818666779087
 11
167.1218002392034
 21
142.8232466779087
 72
     1
 10
167.1218002392034
 20
142.8232466779087
 11
169.6999907999214
 21
142.8232466779087
 72
     1
 10
169.6999907999214
 20
142.8232466779087
 11
169.5571336570642
 21
143.3232466779087
 97
        0
 92
        0
 93
        4
 72
     1
 10
172.1150302392034
 20
143.3232466779087
 11
170.1451068213427
 21
143.3232466779087
 72
     1
 10
170.1451068213427
 20
143.3232466779087
 11
170.0022496784855
 21
142.8232466779087
 72
     1
 10
170.0022496784855
 20
142.8232466779087
 11
172.1150302392034
 21
142.8232466779087
 72
     1
 10
172.1150302392034
 20
142.8232466779087
 11
172.1150302392034
 21
143.3232466779087
 97
        0
 75
     0
 76
     1
 98
        0
  0
LINE
  5
CA
330
B9
100
AcDbEntity
  8
STANDARD
  6
Continuous
 62
     7
370
    20
100
AcDbLine
 10
129.3102502392034
 20
123.4232466779087
 30
0.0
 11
129.3102502392034
 21
123.9232466779087
 31
0.0
  0
LINE
  5
CB
330
B9
100
AcDbEntity
  8
STANDARD
  6
Continuous
 62
     7
370
    20
100
AcDbLine
 10
140.5652302392034
 20
122.9232466779087
 30
0.0
 11
140.3660302392034
 21
122.4232466779087
 31
0.0
  0
LINE
  5
CC
330
B9
100
AcDbEntity
  8
STANDARD
  6
Continuous
 62
     7
370
    20
100
AcDbLine
 10
124.3102502392034
 20
123.4232466779087
 30
0.0
 11
124.3102502392034
 21
123.9232466779087
 31
0.0
  0
HATCH
  5
CD
330
B9
100
AcDbEntity
  8
Schraff_Dämmung
 62
   254
100
AcDbHatch
 10
0.0
 20
0.0
 30
0.0
210
0.0
220
0.0
230
1.0
  2
SOLID
 70
     1
 71
     0
 91
        2
 92
        0
 93
        4
 72
     1
 10
142.9924802392034
 20
123.4232466779087
 11
140.6469002392034
 21
123.4232466779087
 72
     1
 10
140.6469002392034
 20
123.4232466779087
 11
140.6469002392034
 21
122.9232466779087
 72
     1
 10
140.6469002392034
 20
122.9232466779087
 11
142.9924802392034
 21
122.9232466779087
 72
     1
 10
142.9924802392034
 20
122.9232466779087
 11
142.9924802392034
 21
123.4232466779087
 97
        0
 92
        0
 93
        4
 72
     1
 10
145.3401302392035
 20
123.4232466779087
 11
142.9924802392034
 21
123.4232466779087
 72
     1
 10
142.9924802392034
 20
123.4232466779087
 11
142.9924802392034
 21
122.9232466779087
 72
     1
 10
142.9924802392034
 20
122.9232466779087
 11
145.3401302392035
 21
122.9232466779087
 72
     1
 10
145.3401302392035
 20
122.9232466779087
 11
145.3401302392035
 21
123.4232466779087
 97
        0
 75
     0
 76
     1
 98
        0
  0
LINE
  5
CE
330
B9
100
AcDbEntity
  8
STANDARD
  6
Continuous
 62
     7
370
    20
100
AcDbLine
 10
119.3102502392034
 20
123.4232466779087
 30
0.0
 11
119.3102502392034
 21
123.9232466779087
 31
0.0
  0
LINE
  5
CF
330
B9
100
AcDbEntity
  8
STANDARD
  6
Continuous
 62
     7
370
    20
100
AcDbLine
 10
114.3102502392034
 20
123.4232466779087
 30
0.0
 11
114.3102502392034
 21
123.9232466779087
 31
0.0
  0
HATCH
  5
D0
330
B9
100
AcDbEntity
  8
18_Schraffur
 62
   251
100
AcDbHatch
 10
0.0
 20
0.0
 30
0.0
210
0.0
220
0.0
230
1.0
  2
SOLID
 70
     1
 71
     0
 91
        1
 92
        0
 93
        5
 72
     1
 10
139.5094502392033
 20
123.9232466779087
 11
139.3102502392034
 21
123.9232466779087
 72
     1
 10
139.3102502392034
 20
123.9232466779087
 11
139.3102502392034
 21
123.4232466779087
 72
     1
 10
139.3102502392034
 20
123.4232466779087
 11
140.3660302392034
 21
122.4232466779087
 72
     1
 10
140.3660302392034
 20
122.4232466779087
 11
140.5652302392034
 21
122.9232466779087
 72
     1
 10
140.5652302392034
 20
122.9232466779087
 11
139.5094502392033
 21
123.9232466779087
 97
        0
 75
     0
 76
     1
 98
        0
  0
HATCH
  5
D1
330
B9
100
AcDbEntity
  8
18_Schraffur
 62
   251
100
AcDbHatch
 10
0.0
 20
0.0
 30
0.0
210
0.0
220
0.0
230
1.0
  2
SOLID
 70
     1
 71
     0
 91
        1
 92
        0
 93
        4
 72
     1
 10
134.3102502392034
 20
123.9232466779087
 11
129.3102502392034
 21
123.9232466779087
 72
     1
 10
129.3102502392034
 20
123.9232466779087
 11
129.3102502392034
 21
123.4232466779087
 72
     1
 10
129.3102502392034
 20
123.4232466779087
 11
134.3102502392034
 21
123.4232466779087
 72
     1
 10
134.3102502392034
 20
123.4232466779087
 11
134.3102502392034
 21
123.9232466779087
 97
        0
 75
     0
 76
     1
 98
        0
  0
HATCH
  5
D2
330
B9
100
AcDbEntity
  8
18_Schraffur
 62
   251
100
AcDbHatch
 10
0.0
 20
0.0
 30
0.0
210
0.0
220
0.0
230
1.0
  2
SOLID
 70
     1
 71
     0
 91
        1
 92
        0
 93
        4
 72
     1
 10
124.3102502392034
 20
123.9232466779087
 11
119.3102502392034
 21
123.9232466779087
 72
     1
 10
119.3102502392034
 20
123.9232466779087
 11
119.3102502392034
 21
123.4232466779087
 72
     1
 10
119.3102502392034
 20
123.4232466779087
 11
124.3102502392034
 21
123.4232466779087
 72
     1
 10
124.3102502392034
 20
123.4232466779087
 11
124.3102502392034
 21
123.9232466779087
 97
        0
 75
     0
 76
     1
 98
        0
  0
HATCH
  5
D3
330
B9
100
AcDbEntity
  8
18_Schraffur
 62
   251
100
AcDbHatch
 10
0.0
 20
0.0
 30
0.0
210
0.0
220
0.0
230
1.0
  2
SOLID
 70
     1
 71
     0
 91
        1
 92
        0
 93
        4
 72
     1
 10
109.9893766226227
 20
123.9232466779087
 11
109.9797502392034
 21
123.4232466779087
 72
     1
 10
109.9797502392034
 20
123.4232466779087
 11
114.3102502392034
 21
123.4232466779087
 72
     1
 10
114.3102502392034
 20
123.4232466779087
 11
114.3102502392034
 21
123.9232466779087
 72
     1
 10
114.3102502392034
 20
123.9232466779087
 11
109.9893766226227
 21
123.9232466779087
 97
        0
 75
     0
 76
     1
 98
        0
  0
LINE
  5
D4
330
B9
100
AcDbEntity
  8
STANDARD
  6
Continuous
 62
     7
370
    20
100
AcDbLine
 10
130.1846302392034
 20
123.4232466779087
 30
0.0
 11
131.4218002392034
 21
123.4232466779087
 31
0.0
  0
LINE
  5
D5
330
B9
100
AcDbEntity
  8
STANDARD
  6
Continuous
 62
     7
370
    20
100
AcDbLine
 10
141.4218002392034
 20
122.4232466779087
 30
0.0
 11
141.4218002392034
 21
122.9232466779087
 31
0.0
  0
HATCH
  5
D6
330
B9
100
AcDbEntity
  8
18_Schraffur
 62
   251
100
AcDbHatch
 10
0.0
 20
0.0
 30
0.0
210
0.0
220
0.0
230
1.0
  2
SOLID
 70
     1
 71
     0
 91
        2
 92
        0
 93
        4
 72
     1
 10
142.9924802392034
 20
122.9232466779087
 11
141.4218002392034
 21
122.9232466779087
 72
     1
 10
141.4218002392034
 20
122.9232466779087
 11
141.4218002392034
 21
122.4232466779087
 72
     1
 10
141.4218002392034
 20
122.4232466779087
 11
142.9924802392034
 21
122.4232466779087
 72
     1
 10
142.9924802392034
 20
122.4232466779087
 11
142.9924802392034
 21
122.9232466779087
 97
        0
 92
        0
 93
        4
 72
     1
 10
145.4218002392034
 20
122.9232466779087
 11
142.9924802392034
 21
122.9232466779087
 72
     1
 10
142.9924802392034
 20
122.9232466779087
 11
142.9924802392034
 21
122.4232466779087
 72
     1
 10
142.9924802392034
 20
122.4232466779087
 11
145.4218002392034
 21
122.4232466779087
 72
     1
 10
145.4218002392034
 20
122.4232466779087
 11
145.4218002392034
 21
122.9232466779087
 97
        0
 75
     0
 76
     1
 98
        0
  0
LINE
  5
D7
330
B9
100
AcDbEntity
  8
STANDARD
  6
Continuous
 62
     7
370
    20
100
AcDbLine
 10
139.3102502392034
 20
123.4232466779087
 30
0.0
 11
139.3102502392034
 21
123.9232466779087
 31
0.0
  0
LINE
  5
D8
330
B9
100
AcDbEntity
  8
STANDARD
  6
Continuous
 62
     7
370
    20
100
AcDbLine
 10
134.3102502392034
 20
123.4232466779087
 30
0.0
 11
134.3102502392034
 21
123.9232466779087
 31
0.0
  0
HATCH
  5
D9
330
B9
100
AcDbEntity
  8
Schraff_Dämmung
 62
     7
100
AcDbHatch
 10
0.0
 20
0.0
 30
0.0
210
0.0
220
0.0
230
1.0
  2
SOLID
 70
     1
 71
     0
 91
        8
 92
        0
 93
        4
 72
     1
 10
143.9584361519465
 20
123.4232466779087
 11
143.9584361519465
 21
123.5072428442341
 72
     1
 10
143.9584361519465
 20
123.5072428442341
 11
143.2864668213426
 21
123.5072428442341
 72
     1
 10
143.2864668213426
 20
123.5072428442341
 11
143.2864668213426
 21
123.4232466779087
 72
     1
 10
143.2864668213426
 20
123.4232466779087
 11
143.9584361519465
 21
123.4232466779087
 97
        0
 92
        0
 93
        4
 72
     1
 10
143.2864668213426
 20
123.4232466779087
 11
143.2864668213426
 21
123.5072428442341
 72
     1
 10
143.2864668213426
 20
123.5072428442341
 11
142.6984936570642
 21
123.5072428442341
 72
     1
 10
142.6984936570642
 20
123.5072428442341
 11
142.6984936570642
 21
123.4232466779087
 72
     1
 10
142.6984936570642
 20
123.4232466779087
 11
143.2864668213426
 21
123.4232466779087
 97
        0
 92
        0
 93
        4
 72
     1
 10
143.2147172960675
 20
123.1721233394455
 11
143.2864668213426
 21
123.4232466779087
 72
     1
 10
143.2864668213426
 20
123.4232466779087
 11
142.6984936570642
 21
123.4232466779087
 72
     1
 10
142.6984936570642
 20
123.4232466779087
 11
142.7702431823393
 21
123.1721233394455
 72
     1
 10
142.7702431823393
 20
123.1721233394455
 11
143.2147172960673
 21
123.1721233394455
 97
        0
 92
        0
 93
        4
 72
     1
 10
142.6984936570642
 20
123.4232466779087
 11
142.6984936570642
 21
123.5072428442341
 72
     1
 10
142.6984936570642
 20
123.5072428442341
 11
142.0265243264603
 21
123.5072428442341
 72
     1
 10
142.0265243264603
 20
123.5072428442341
 11
142.0265243264603
 21
123.4232466779087
 72
     1
 10
142.0265243264603
 20
123.4232466779087
 11
142.6984936570642
 21
123.4232466779087
 97
        0
 92
        0
 93
        4
 72
     1
 10
143.1979180628023
 20
123.1133260230177
 11
143.2147172960675
 21
123.1721233394455
 72
     1
 10
143.2147172960673
 20
123.1721233394455
 11
142.7702431823393
 21
123.1721233394455
 72
     1
 10
142.7702431823393
 20
123.1721233394455
 11
142.7870424156045
 21
123.1133260230177
 72
     1
 10
142.7870424156045
 20
123.1133260230177
 11
143.1979180628023
 21
123.1133260230177
 97
        0
 92
        0
 93
        4
 72
     1
 10
143.1184744886916
 20
122.8352735136303
 11
143.1979180628023
 21
123.1133260230177
 72
     1
 10
143.1979180628023
 20
123.1133260230177
 11
142.7870424156045
 21
123.1133260230177
 72
     1
 10
142.7870424156045
 20
123.1133260230177
 11
142.8664859897152
 21
122.8352735136303
 72
     1
 10
142.8664859897152
 20
122.8352735136303
 11
143.1184744886916
 21
122.8352735136303
 97
        0
 92
        0
 93
        4
 72
     1
 10
143.1184744886916
 20
122.2733643597629
 11
143.1184744886916
 21
122.8352735136303
 72
     1
 10
143.1184744886916
 20
122.8352735136303
 11
142.8664859897152
 21
122.8352735136303
 72
     1
 10
142.8664859897152
 20
122.8352735136303
 11
142.8664859897152
 21
122.2733643597629
 72
     1
 10
142.8664859897152
 20
122.2733643597629
 11
143.1184744886916
 21
122.2733643597629
 97
        0
 92
        0
 93
        4
 72
     1
 10
143.1184744886914
 20
121.397730207683
 11
143.1184744886914
 21
122.273364359763
 72
     1
 10
143.1184744886916
 20
122.2733643597629
 11
142.8664859897152
 21
122.2733643597629
 72
     1
 10
142.8664859897151
 20
122.2733643597629
 11
142.8664859897151
 21
121.3977302076828
 72
     1
 10
142.8664859897152
 20
121.3977302076828
 11
143.1184744886916
 21
121.3977302076828
 97
        0
 75
     0
 76
     1
 98
        0
  0
LINE
  5
DA
330
B9
100
AcDbEntity
  8
12_Linie
 62
     7
370
    20
100
AcDbLine
 10
185.5333502392033
 20
123.4232466779087
 30
0.0
 11
185.5333502392033
 21
123.9232466779087
 31
0.0
  0
LINE
  5
DB
330
B9
100
AcDbEntity
  8
12_Linie
 62
     7
370
    20
100
AcDbLine
 10
190.5333502392033
 20
123.4232466779087
 30
0.0
 11
190.5333502392033
 21
123.9232466779087
 31
0.0
  0
LINE
  5
DC
330
B9
100
AcDbEntity
  8
12_Linie
 62
     7
370
    20
100
AcDbLine
 10
195.5333502392033
 20
123.4232466779087
 30
0.0
 11
195.5333502392033
 21
123.9232466779087
 31
0.0
  0
LINE
  5
DD
330
B9
100
AcDbEntity
  8
12_Linie
 62
     7
370
    20
100
AcDbLine
 10
200.5333502392033
 20
123.4232466779087
 30
0.0
 11
200.5333502392033
 21
123.9232466779087
 31
0.0
  0
HATCH
  5
DE
330
B9
100
AcDbEntity
  8
18_Schraffur
 62
   251
100
AcDbHatch
 10
0.0
 20
0.0
 30
0.0
210
0.0
220
0.0
230
1.0
  2
SOLID
 70
     1
 71
     0
 91
        1
 92
        0
 93
        4
 72
     1
 10
180.5333502392033
 20
123.9232466779087
 11
185.5333502392033
 21
123.9232466779087
 72
     1
 10
185.5333502392033
 20
123.9232466779087
 11
185.5333502392033
 21
123.4232466779087
 72
     1
 10
185.5333502392033
 20
123.4232466779087
 11
180.5333502392033
 21
123.4232466779087
 72
     1
 10
180.5333502392033
 20
123.4232466779087
 11
180.5333502392033
 21
123.9232466779087
 97
        0
 75
     0
 76
     1
 98
        0
  0
HATCH
  5
DF
330
B9
100
AcDbEntity
  8
18_Schraffur
 62
   251
100
AcDbHatch
 10
0.0
 20
0.0
 30
0.0
210
0.0
220
0.0
230
1.0
  2
SOLID
 70
     1
 71
     0
 91
        1
 92
        0
 93
        4
 72
     1
 10
190.5333502392033
 20
123.9232466779087
 11
195.5333502392033
 21
123.9232466779087
 72
     1
 10
195.5333502392033
 20
123.9232466779087
 11
195.5333502392033
 21
123.4232466779087
 72
     1
 10
195.5333502392033
 20
123.4232466779087
 11
190.5333502392033
 21
123.4232466779087
 72
     1
 10
190.5333502392033
 20
123.4232466779087
 11
190.5333502392033
 21
123.9232466779087
 97
        0
 75
     0
 76
     1
 98
        0
  0
HATCH
  5
E0
330
B9
100
AcDbEntity
  8
18_Schraffur
 62
   251
100
AcDbHatch
 10
0.0
 20
0.0
 30
0.0
210
0.0
220
0.0
230
1.0
  2
SOLID
 70
     1
 71
     0
 91
        1
 92
        0
 93
        4
 72
     1
 10
204.8542238557841
 20
123.9232466779087
 11
204.8638502392033
 21
123.4232466779087
 72
     1
 10
204.8638502392033
 20
123.4232466779087
 11
200.5333502392033
 21
123.4232466779087
 72
     1
 10
200.5333502392033
 20
123.4232466779087
 11
200.5333502392033
 21
123.9232466779087
 72
     1
 10
200.5333502392033
 20
123.9232466779087
 11
204.8542238557841
 21
123.9232466779087
 97
        0
 75
     0
 76
     1
 98
        0
  0
LINE
  5
E1
330
B9
100
AcDbEntity
  8
12_Linie
 62
     7
370
    20
100
AcDbLine
 10
169.4218002392033
 20
122.9232466779087
 30
0.0
 11
174.2783702392034
 21
122.9232466779087
 31
0.0
  0
LINE
  5
E2
330
B9
100
AcDbEntity
  8
12_Linie
 62
     7
370
    20
100
AcDbLine
 10
174.2783702392034
 20
122.9232466779087
 30
0.0
 11
174.4775702392034
 21
122.4232466779087
 31
0.0
  0
LINE
  5
E3
330
B9
100
AcDbEntity
  8
12_Linie
 62
     7
370
    20
100
AcDbLine
 10
168.4218002392034
 20
123.4232466779087
 30
0.0
 11
174.1967002392033
 21
123.4232466779087
 31
0.0
  0
HATCH
  5
E4
330
B9
100
AcDbEntity
  8
18_Schraffur
 62
   251
100
AcDbHatch
 10
0.0
 20
0.0
 30
0.0
210
0.0
220
0.0
230
1.0
  2
SOLID
 70
     1
 71
     0
 91
        1
 92
        0
 93
        5
 72
     1
 10
175.3341502392034
 20
123.9232466779087
 11
175.5333502392033
 21
123.9232466779087
 72
     1
 10
175.5333502392033
 20
123.9232466779087
 11
175.5333502392033
 21
123.4232466779087
 72
     1
 10
175.5333502392033
 20
123.4232466779087
 11
174.4775702392034
 21
122.4232466779087
 72
     1
 10
174.4775702392034
 20
122.4232466779087
 11
174.2783702392034
 21
122.9232466779087
 72
     1
 10
174.2783702392034
 20
122.9232466779087
 11
175.3341502392034
 21
123.9232466779087
 97
        0
 75
     0
 76
     1
 98
        0
  0
LINE
  5
E5
330
B9
100
AcDbEntity
  8
12_Linie
 62
     7
370
    20
100
AcDbLine
 10
169.4218002392033
 20
122.4232466779087
 30
0.0
 11
169.4218002392033
 21
122.9232466779087
 31
0.0
  0
HATCH
  5
E6
330
B9
100
AcDbEntity
  8
18_Schraffur
 62
   251
100
AcDbHatch
 10
0.0
 20
0.0
 30
0.0
210
0.0
220
0.0
230
1.0
  2
SOLID
 70
     1
 71
     0
 91
        2
 92
        0
 93
        4
 72
     1
 10
171.8511202392033
 20
122.9232466779087
 11
173.4218002392033
 21
122.9232466779087
 72
     1
 10
173.4218002392033
 20
122.9232466779087
 11
173.4218002392033
 21
122.4232466779087
 72
     1
 10
173.4218002392033
 20
122.4232466779087
 11
171.8511202392033
 21
122.4232466779087
 72
     1
 10
171.8511202392033
 20
122.4232466779087
 11
171.8511202392033
 21
122.9232466779087
 97
        0
 92
        0
 93
        4
 72
     1
 10
169.4218002392033
 20
122.9232466779087
 11
171.8511202392033
 21
122.9232466779087
 72
     1
 10
171.8511202392033
 20
122.9232466779087
 11
171.8511202392033
 21
122.4232466779087
 72
     1
 10
171.8511202392033
 20
122.4232466779087
 11
169.4218002392033
 21
122.4232466779087
 72
     1
 10
169.4218002392033
 20
122.4232466779087
 11
169.4218002392033
 21
122.9232466779087
 97
        0
 75
     0
 76
     1
 98
        0
  0
LINE
  5
E7
330
B9
100
AcDbEntity
  8
12_Linie
 62
     7
370
    20
100
AcDbLine
 10
174.4775702392034
 20
122.4232466779087
 30
0.0
 11
175.5333502392033
 21
123.4232466779087
 31
0.0
  0
LINE
  5
E8
330
B9
100
AcDbEntity
  8
12_Linie
 62
     7
370
    20
100
AcDbLine
 10
174.2783702392034
 20
122.9232466779087
 30
0.0
 11
175.3341502392034
 21
123.9232466779087
 31
0.0
  0
LINE
  5
E9
330
B9
100
AcDbEntity
  8
12_Linie
 62
     7
370
    20
100
AcDbLine
 10
175.3341502392034
 20
123.9232466779087
 30
0.0
 11
204.8542238557841
 21
123.9232466779087
 31
0.0
  0
LINE
  5
EA
330
B9
100
AcDbEntity
  8
12_Linie
 62
     7
370
    20
100
AcDbLine
 10
173.4218002392033
 20
122.4232466779087
 30
0.0
 11
173.4218002392033
 21
122.9232466779087
 31
0.0
  0
POLYLINE
  5
EB
330
B9
100
AcDbEntity
  8
Folie _ 3
  6
Continuous
 62
     7
370
    50
100
AcDb2dPolyline
 66
     1
 10
0.0
 20
0.0
 30
0.0
  0
VERTEX
  5
EC
330
EB
100
AcDbEntity
  8
Folie _ 3
  6
Continuous
 62
     7
370
    50
100
AcDbVertex
100
AcDb2dVertex
 10
0.0
 20
210.0
 30
0.0
  0
VERTEX
  5
ED
330
EB
100
AcDbEntity
  8
Folie _ 3
  6
Continuous
 62
     7
370
    50
100
AcDbVertex
100
AcDb2dVertex
 10
0.0
 20
0.0
 30
0.0
  0
SEQEND
  5
EE
330
EB
100
AcDbEntity
  8
Folie _ 3
  6
Continuous
 62
     7
370
    50
  0
POLYLINE
  5
EF
330
B9
100
AcDbEntity
  8
Folie _ 3
  6
Continuous
 62
     7
370
    50
100
AcDb2dPolyline
 66
     1
 10
0.0
 20
0.0
 30
0.0
  0
VERTEX
  5
F0
330
EF
100
AcDbEntity
  8
Folie _ 3
  6
Continuous
 62
     7
370
    50
100
AcDbVertex
100
AcDb2dVertex
 10
0.0
 20
0.0
 30
0.0
  0
VERTEX
  5
F1
330
EF
100
AcDbEntity
  8
Folie _ 3
  6
Continuous
 62
     7
370
    50
100
AcDbVertex
100
AcDb2dVertex
 10
296.9999999999999
 20
0.0
 30
0.0
  0
SEQEND
  5
F2
330
EF
100
AcDbEntity
  8
Folie _ 3
  6
Continuous
 62
     7
370
    50
  0
POLYLINE
  5
F3
330
B9
100
AcDbEntity
  8
Folie _ 3
  6
Continuous
 62
     7
370
    50
100
AcDb2dPolyline
 66
     1
 10
0.0
 20
0.0
 30
0.0
  0
VERTEX
  5
F4
330
F3
100
AcDbEntity
  8
Folie _ 3
  6
Continuous
 62
     7
370
    50
100
AcDbVertex
100
AcDb2dVertex
 10
296.9999999999999
 20
0.0
 30
0.0
  0
VERTEX
  5
F5
330
F3
100
AcDbEntity
  8
Folie _ 3
  6
Continuous
 62
     7
370
    50
100
AcDbVertex
100
AcDb2dVertex
 10
296.9999999999999
 20
210.0
 30
0.0
  0
SEQEND
  5
F6
330
F3
100
AcDbEntity
  8
Folie _ 3
  6
Continuous
 62
     7
370
    50
  0
POLYLINE
  5
F7
330
B9
100
AcDbEntity
  8
Folie _ 3
  6
Continuous
 62
     7
370
    50
100
AcDb2dPolyline
 66
     1
 10
0.0
 20
0.0
 30
0.0
  0
VERTEX
  5
F8
330
F7
100
AcDbEntity
  8
Folie _ 3
  6
Continuous
 62
     7
370
    50
100
AcDbVertex
100
AcDb2dVertex
 10
296.9999999999999
 20
210.0
 30
0.0
  0
VERTEX
  5
F9
330
F7
100
AcDbEntity
  8
Folie _ 3
  6
Continuous
 62
     7
370
    50
100
AcDbVertex
100
AcDb2dVertex
 10
0.0
 20
210.0
 30
0.0
  0
SEQEND
  5
FA
330
F7
100
AcDbEntity
  8
Folie _ 3
  6
Continuous
 62
     7
370
    50
  0
POLYLINE
  5
FB
330
B9
100
AcDbEntity
  8
Folie _ 3
  6
Continuous
 62
     7
370
    50
100
AcDb2dPolyline
 66
     1
 10
0.0
 20
0.0
 30
0.0
 70
     1
  0
VERTEX
  5
FC
330
FB
100
AcDbEntity
  8
Folie _ 3
  6
Continuous
 62
     7
370
    50
100
AcDbVertex
100
AcDb2dVertex
 10
25.0
 20
205.0
 30
0.0
  0
VERTEX
  5
FD
330
FB
100
AcDbEntity
  8
Folie _ 3
  6
Continuous
 62
     7
370
    50
100
AcDbVertex
100
AcDb2dVertex
 10
291.9999999999999
 20
205.0
 30
0.0
  0
VERTEX
  5
FE
330
FB
100
AcDbEntity
  8
Folie _ 3
  6
Continuous
 62
     7
370
    50
100
AcDbVertex
100
AcDb2dVertex
 10
291.9999999999999
 20
5.0
 30
0.0
  0
VERTEX
  5
FF
330
FB
100
AcDbEntity
  8
Folie _ 3
  6
Continuous
 62
     7
370
    50
100
AcDbVertex
100
AcDb2dVertex
 10
25.0
 20
5.0
 30
0.0
  0
SEQEND
  5
100
330
FB
100
AcDbEntity
  8
Folie _ 3
  6
Continuous
 62
     7
370
    50
  0
POLYLINE
  5
101
330
B9
100
AcDbEntity
  8
Folie _ 3
  6
Continuous
 62
     7
370
    50
100
AcDb2dPolyline
 66
     1
 10
0.0
 20
0.0
 30
0.0
  0
VERTEX
  5
102
330
101
100
AcDbEntity
  8
Folie _ 3
  6
Continuous
 62
     7
370
    50
100
AcDbVertex
100
AcDb2dVertex
 10
157.0000000000001
 20
5.0
 30
0.0
  0
VERTEX
  5
103
330
101
100
AcDbEntity
  8
Folie _ 3
  6
Continuous
 62
     7
370
    50
100
AcDbVertex
100
AcDb2dVertex
 10
157.0000000000001
 20
50.0
 30
0.0
  0
VERTEX
  5
104
330
101
100
AcDbEntity
  8
Folie _ 3
  6
Continuous
 62
     7
370
    50
100
AcDbVertex
100
AcDb2dVertex
 10
291.9999999999999
 20
50.0
 30
0.0
  0
SEQEND
  5
105
330
101
100
AcDbEntity
  8
Folie _ 3
  6
Continuous
 62
     7
370
    50
  0
LINE
  5
106
330
B9
100
AcDbEntity
  8
Folie _ 3
  6
Continuous
 62
     7
100
AcDbLine
 10
157.0000000000001
 20
15.0
 30
0.0
 11
291.9999999999999
 21
15.0
 31
0.0
  0
LINE
  5
107
330
B9
100
AcDbEntity
  8
Folie _ 3
  6
Continuous
 62
     7
100
AcDbLine
 10
157.0000000000001
 20
35.0
 30
0.0
 11
291.9999999999999
 21
35.0
 31
0.0
  0
LINE
  5
108
330
B9
100
AcDbEntity
  8
Folie _ 3
  6
Continuous
 62
     7
100
AcDbLine
 10
184.0000000000001
 20
15.0
 30
0.0
 11
184.0000000000001
 21
5.0
 31
0.0
  0
LINE
  5
109
330
B9
100
AcDbEntity
  8
Folie _ 3
  6
Continuous
 62
     7
100
AcDbLine
 10
211.0000000000001
 20
15.0
 30
0.0
 11
211.0000000000001
 21
5.0
 31
0.0
  0
LINE
  5
10A
330
B9
100
AcDbEntity
  8
Folie _ 3
  6
Continuous
 62
     7
100
AcDbLine
 10
238.0000000000001
 20
15.0
 30
0.0
 11
238.0000000000001
 21
5.0
 31
0.0
  0
LINE
  5
10B
330
B9
100
AcDbEntity
  8
Folie _ 3
  6
Continuous
 62
     7
100
AcDbLine
 10
265.0000000000001
 20
15.0
 30
0.0
 11
265.0000000000001
 21
5.0
 31
0.0
  0
TEXT
  5
10C
330
B9
100
AcDbEntity
  8
Folie _ 3
  6
Continuous
 62
     7
100
AcDbText
 10
159.0000000000001
 20
47.0
 30
0.0
 40
2.269896030426025
  1
PLANINHALT:
 41
0.9569915226000473
  7
Style0
100
AcDbText
  0
TEXT
  5
10D
330
B9
100
AcDbEntity
  8
Folie _ 3
  6
Continuous
 62
     7
100
AcDbText
 10
159.0000000000001
 20
12.0
 30
0.0
 40
2.269896030426025
  1
MASSSTAB:
 41
1.016258694886636
  7
Style0
100
AcDbText
  0
TEXT
  5
10E
330
B9
100
AcDbEntity
  8
Folie _ 3
  6
Continuous
 62
     7
100
AcDbText
 10
186.0000000000001
 20
12.0
 30
0.0
 40
2.269896030426025
  1
ERSTELLT:
 41
1.016258694886636
  7
Style0
100
AcDbText
  0
TEXT
  5
10F
330
B9
100
AcDbEntity
  8
Folie _ 3
  6
Continuous
 62
     7
100
AcDbText
 10
213.0000000000001
 20
12.0
 30
0.0
 40
2.269896030426025
  1
BLATT NR.:
 41
1.016258694886636
  7
Style0
100
AcDbText
  0
TEXT
  5
110
330
B9
100
AcDbEntity
  8
Folie _ 3
  6
Continuous
 62
     7
100
AcDbText
 10
240.0000000000001
 20
12.0
 30
0.0
 40
2.269896030426025
  1
DETAIL NR.:
 41
1.016258694886636
  7
Style0
100
AcDbText
  0
TEXT
  5
111
330
B9
100
AcDbEntity
  8
Folie _ 3
  6
Continuous
 62
     7
100
AcDbText
 10
267.0000000000001
 20
12.0
 30
0.0
 40
2.269896030426025
  1
GEZEICHNET:
 41
1.016258694886636
  7
Style0
100
AcDbText
  0
TEXT
  5
112
330
B9
100
AcDbEntity
  8
Folie _ 3
  6
Continuous
 62
     7
100
AcDbText
 10
159.1274604630972
 20
32.40944652925626
 30
0.0
 40
0.9079585075378418
  1
Die oben dargestellte Detailzeichnung bezieht sich auf eine Regelkonstruktion, d.h. sie ist zu überprüfen,
 41
0.9399217426440335
  7
Style0
100
AcDbText
  0
TEXT
  5
113
330
B9
100
AcDbEntity
  8
Folie _ 3
  6
Continuous
 62
     7
100
AcDbText
 10
159.1274604630972
 20
30.49214549119404
 30
0.0
 40
0.9079585075378418
  1
objektgebunden anzupassen, abzustimmen und gegebenfalls zu ergänzen.
 41
0.9399217426440335
  7
Style0
100
AcDbText
  0
TEXT
  5
114
330
B9
100
AcDbEntity
  8
Folie _ 3
  6
Continuous
 62
     7
100
AcDbText
 10
159.1274604630972
 20
28.57484445313185
 30
0.0
 40
0.9079585075378418
  1
Die empfohlenen Anwendungsbereiche sind auf Grund der Erfahrungen und Normen ausgearbeitet.
 41
0.9399217426440335
  7
Style0
100
AcDbText
  0
TEXT
  5
115
330
B9
100
AcDbEntity
  8
Folie _ 3
  6
Continuous
 62
     7
100
AcDbText
 10
159.1274604630972
 20
26.65754341506943
 30
0.0
 40
0.9079585075378418
  1
Eine Verbindlichkeit kann hieraus nicht abgeleitet werden. Technische Änderungen sind vorbehalten.
 41
0.9399217426440335
  7
Style0
100
AcDbText
  0
TEXT
  5
116
330
B9
100
AcDbEntity
  8
Folie _ 3
  6
Continuous
 62
     7
100
AcDbText
 10
159.1274604630972
 20
24.74024237700704
 30
0.0
 40
0.9079585075378418
  1
Die vorliegende Detailzeichnung verliert bei Erscheinen einer Neuausgabe ihre Gültigkeit.
 41
0.9399217426440335
  7
Style0
100
AcDbText
  0
TEXT
  5
117
330
B9
100
AcDbEntity
  8
Folie _ 3
  6
Continuous
 62
     7
100
AcDbText
 10
159.1274604630972
 20
22.82294133894501
 30
0.0
 40
0.9079585075378418
  1
Jede Haftung von COVERiT bei leichter Fahrlässigkeit sowie für Beratung ohne nachfolgende Warenlieferung
 41
0.9399217426440335
  7
Style0
100
AcDbText
  0
TEXT
  5
118
330
B9
100
AcDbEntity
  8
Folie _ 3
  6
Continuous
 62
     7
100
AcDbText
 10
159.1274604630972
 20
20.90564030088262
 30
0.0
 40
0.9079585075378418
  1
von COVERiT und gegenüber Dritten (andere als COVERiT-Vertragspartner) ist ausgeschlossen.
 41
0.9399217426440335
  7
Style0
100
AcDbText
  0
TEXT
  5
119
330
B9
100
AcDbEntity
  8
Folie _ 3
  6
Continuous
 62
     7
100
AcDbText
 10
159.1274604630972
 20
18.9883392628202
 30
0.0
 40
0.9079585075378418
  1
Verkauf und Lieferung von COVERiT erfolgt ausschließlich zu den allgemeinen Liefer-, Zahlungs- und Gewährleistungsbedingungen von COVERiT.
 41
0.9399217426440335
  7
Style0
100
AcDbText
  0
TEXT
  5
11A
330
B9
100
AcDbEntity
  8
Folie _ 3
  6
Continuous
 62
     7
100
AcDbText
 10
159.1274604630972
 20
17.07103822475801
 30
0.0
 40
0.9079585075378418
  1
Es gilt österreichisches Recht (ohne UN Kaufrecht). Gerichtsstand ist Wels.
 41
0.9399217426440335
  7
Style0
100
AcDbText
  0
TEXT
  5
11B
330
B9
100
AcDbEntity
  8
Folie _ 3
  6
Continuous
 62
     7
100
AcDbText
 10
159.0000000000001
 20
6.000000000000171
 30
0.0
 40
3.177854776382446
  1
1:1
 41
0.647972360387026
  7
Style1
100
AcDbText
  0
TEXT
  5
11C
330
B9
100
AcDbEntity
  8
Folie _ 3
  6
Continuous
 62
     7
100
AcDbText
 10
186.0000000000001
 20
6.000000000000171
 30
0.0
 40
3.177854776382446
  1
07/15
 41
0.647972360387026
  7
Style1
100
AcDbText
  0
TEXT
  5
11D
330
B9
100
AcDbEntity
  8
Folie _ 3
  6
Continuous
 62
     7
100
AcDbText
 10
213.0000000000001
 20
6.000000000000171
 30
0.0
 40
3.177854776382446
  1
18
 41
0.647972360387026
  7
Style1
100
AcDbText
  0
TEXT
  5
11E
330
B9
100
AcDbEntity
  8
Folie _ 3
  6
Continuous
 62
     7
100
AcDbText
 10
240.0000000000001
 20
6.000000000000171
 30
0.0
 40
3.177854776382446
  1
18
 41
0.647972360387026
  7
Style1
100
AcDbText
  0
TEXT
  5
11F
330
B9
100
AcDbEntity
  8
Folie _ 3
  6
Continuous
 62
     7
100
AcDbText
 10
267.0000000000001
 20
6.000000000000171
 30
0.0
 40
3.177854776382446
  1
TR/AP
 41
1.081452562675454
  7
Style0
100
AcDbText
  0
LINE
  5
120
330
B9
100
AcDbEntity
  8
Folie _ 3
  6
Continuous
 62
     7
100
AcDbLine
 10
244.4801761815236
 20
35.0
 30
0.0
 11
244.4801761815236
 21
15.0
 31
0.0
  0
TEXT
  5
121
330
B9
100
AcDbEntity
  8
Folie _ 3
  6
Continuous
 62
     7
100
AcDbText
 10
159.0000000000001
 20
40.12999610452277
 30
0.0
 40
3.177854776382446
  1
Terrassengully abgew.- Plane lose verlegt
 41
1.021345735900753
  7
Style0
100
AcDbText
  0
LINE
  5
122
330
B9
100
AcDbEntity
  8
12_Linie
 62
     7
370
    20
100
AcDbLine
 10
175.5333502392033
 20
123.4232466779087
 30
0.0
 11
175.5333502392033
 21
123.9232466779087
 31
0.0
  0
LINE
  5
123
330
B9
100
AcDbEntity
  8
12_Linie
 62
     7
370
    20
100
AcDbLine
 10
180.5333502392033
 20
123.4232466779087
 30
0.0
 11
180.5333502392033
 21
123.9232466779087
 31
0.0
  0
LINE
  5
124
330
B9
100
AcDbEntity
  8
12_Linie
 62
     7
370
    20
100
AcDbLine
 10
174.1967002392033
 20
122.9232466779087
 30
0.0
 11
174.1967002392033
 21
123.4232466779087
 31
0.0
  0
LINE
  5
125
330
B9
100
AcDbEntity
  8
12_Linie
 62
     7
370
    20
100
AcDbLine
 10
169.5034702392033
 20
122.9232466779087
 30
0.0
 11
169.5034702392033
 21
123.4232466779087
 31
0.0
  0
HATCH
  5
126
330
B9
100
AcDbEntity
  8
Schraff_Dämmung
 62
   254
100
AcDbHatch
 10
0.0
 20
0.0
 30
0.0
210
0.0
220
0.0
230
1.0
  2
SOLID
 70
     1
 71
     0
 91
        2
 92
        0
 93
        4
 72
     1
 10
171.8511202392033
 20
123.4232466779087
 11
174.1967002392033
 21
123.4232466779087
 72
     1
 10
174.1967002392033
 20
123.4232466779087
 11
174.1967002392033
 21
122.9232466779087
 72
     1
 10
174.1967002392033
 20
122.9232466779087
 11
171.8511202392033
 21
122.9232466779087
 72
     1
 10
171.8511202392033
 20
122.9232466779087
 11
171.8511202392033
 21
123.4232466779087
 97
        0
 92
        0
 93
        4
 72
     1
 10
169.5034702392033
 20
123.4232466779087
 11
171.8511202392033
 21
123.4232466779087
 72
     1
 10
171.8511202392033
 20
123.4232466779087
 11
171.8511202392033
 21
122.9232466779087
 72
     1
 10
171.8511202392033
 20
122.9232466779087
 11
169.5034702392033
 21
122.9232466779087
 72
     1
 10
169.5034702392033
 20
122.9232466779087
 11
169.5034702392033
 21
123.4232466779087
 97
        0
 75
     0
 76
     1
 98
        0
  0
LINE
  5
127
330
B9
100
AcDbEntity
  8
STANDARD
  6
Continuous
 62
     7
100
AcDbLine
 10
171.9771144886917
 20
122.8352735136303
 30
0.0
 11
171.7251259897152
 21
122.8352735136303
 31
0.0
  0
LINE
  5
128
330
B9
100
AcDbEntity
  8
STANDARD
  6
Continuous
 62
     7
100
AcDbLine
 10
171.9771144886917
 20
122.8352735136303
 30
0.0
 11
172.1451068213427
 21
123.4232466779087
 31
0.0
  0
LINE
  5
129
330
B9
100
AcDbEntity
  8
STANDARD
  6
Continuous
 62
     7
100
AcDbLine
 10
171.7251259897152
 20
122.8352735136303
 30
0.0
 11
171.5571336570642
 21
123.4232466779087
 31
0.0
  0
LINE
  5
12A
330
B9
100
AcDbEntity
  8
STANDARD
  6
Continuous
 62
     7
100
AcDbLine
 10
172.1451068213427
 20
123.4232466779087
 30
0.0
 11
172.1451068213427
 21
123.5072428442341
 31
0.0
  0
LINE
  5
12B
330
B9
100
AcDbEntity
  8
STANDARD
  6
Continuous
 62
     7
100
AcDbLine
 10
171.5571336570642
 20
123.4232466779087
 30
0.0
 11
171.5571336570642
 21
123.5072428442341
 31
0.0
  0
LINE
  5
12C
330
B9
100
AcDbEntity
  8
STANDARD
  6
Continuous
 62
     7
100
AcDbLine
 10
171.9771144886918
 20
121.397730207683
 30
0.0
 11
171.9771144886918
 21
122.8352735136305
 31
0.0
  0
LINE
  5
12D
330
B9
100
AcDbEntity
  8
STANDARD
  6
Continuous
 62
     7
100
AcDbLine
 10
171.7251259897154
 20
121.397730207683
 30
0.0
 11
171.7251259897154
 21
122.8352735136305
 31
0.0
  0
LINE
  5
12E
330
B9
100
AcDbEntity
  8
STANDARD
  6
Continuous
 62
     7
100
AcDbLine
 10
171.9771144886917
 20
121.3977302076828
 30
0.0
 11
171.7251259897152
 21
121.3977302076828
 31
0.0
  0
LINE
  5
12F
330
B9
100
AcDbEntity
  8
STANDARD
  6
Continuous
 62
     7
100
AcDbLine
 10
172.8170761519465
 20
123.4232466779087
 30
0.0
 11
172.8170761519465
 21
123.5072428442341
 31
0.0
  0
LINE
  5
130
330
B9
100
AcDbEntity
  8
STANDARD
  6
Continuous
 62
     7
100
AcDbLine
 10
170.8851643264603
 20
123.4232466779087
 30
0.0
 11
170.8851643264603
 21
123.5072428442341
 31
0.0
  0
LINE
  5
131
330
B9
100
AcDbEntity
  8
STANDARD
  6
Continuous
 62
     7
100
AcDbLine
 10
172.8170761519465
 20
123.4232466779087
 30
0.0
 11
170.8851643264603
 21
123.4232466779087
 31
0.0
  0
LINE
  5
132
330
B9
100
AcDbEntity
  8
STANDARD
  6
Continuous
 62
     7
100
AcDbLine
 10
172.8170761519465
 20
123.5072428442341
 30
0.0
 11
170.8851643264603
 21
123.5072428442341
 31
0.0
  0
HATCH
  5
133
330
B9
100
AcDbEntity
  8
Schraff_Dämmung
 62
     7
100
AcDbHatch
 10
0.0
 20
0.0
 30
0.0
210
0.0
220
0.0
230
1.0
  2
SOLID
 70
     1
 71
     0
 91
        8
 92
        0
 93
        4
 72
     1
 10
170.8851643264603
 20
123.4232466779087
 11
170.8851643264603
 21
123.5072428442341
 72
     1
 10
170.8851643264603
 20
123.5072428442341
 11
171.5571336570641
 21
123.5072428442341
 72
     1
 10
171.5571336570641
 20
123.5072428442341
 11
171.5571336570641
 21
123.4232466779087
 72
     1
 10
171.5571336570641
 20
123.4232466779087
 11
170.8851643264603
 21
123.4232466779087
 97
        0
 92
        0
 93
        4
 72
     1
 10
171.5571336570641
 20
123.4232466779087
 11
171.5571336570641
 21
123.5072428442341
 72
     1
 10
171.5571336570641
 20
123.5072428442341
 11
172.1451068213426
 21
123.5072428442341
 72
     1
 10
172.1451068213426
 20
123.5072428442341
 11
172.1451068213426
 21
123.4232466779087
 72
     1
 10
172.1451068213426
 20
123.4232466779087
 11
171.5571336570641
 21
123.4232466779087
 97
        0
 92
        0
 93
        4
 72
     1
 10
171.6288831823392
 20
123.1721233394455
 11
171.5571336570641
 21
123.4232466779087
 72
     1
 10
171.5571336570641
 20
123.4232466779087
 11
172.1451068213426
 21
123.4232466779087
 72
     1
 10
172.1451068213426
 20
123.4232466779087
 11
172.0733572960675
 21
123.1721233394455
 72
     1
 10
172.0733572960675
 20
123.1721233394455
 11
171.6288831823394
 21
123.1721233394455
 97
        0
 92
        0
 93
        4
 72
     1
 10
172.1451068213426
 20
123.4232466779087
 11
172.1451068213426
 21
123.5072428442341
 72
     1
 10
172.1451068213426
 20
123.5072428442341
 11
172.8170761519464
 21
123.5072428442341
 72
     1
 10
172.8170761519464
 20
123.5072428442341
 11
172.8170761519464
 21
123.4232466779087
 72
     1
 10
172.8170761519464
 20
123.4232466779087
 11
172.1451068213426
 21
123.4232466779087
 97
        0
 92
        0
 93
        4
 72
     1
 10
171.6456824156044
 20
123.1133260230177
 11
171.6288831823392
 21
123.1721233394455
 72
     1
 10
171.6288831823394
 20
123.1721233394455
 11
172.0733572960675
 21
123.1721233394455
 72
     1
 10
172.0733572960675
 20
123.1721233394455
 11
172.0565580628023
 21
123.1133260230177
 72
     1
 10
172.0565580628023
 20
123.1133260230177
 11
171.6456824156044
 21
123.1133260230177
 97
        0
 92
        0
 93
        4
 72
     1
 10
171.7251259897151
 20
122.8352735136303
 11
171.6456824156044
 21
123.1133260230177
 72
     1
 10
171.6456824156044
 20
123.1133260230177
 11
172.0565580628023
 21
123.1133260230177
 72
     1
 10
172.0565580628023
 20
123.1133260230177
 11
171.9771144886915
 21
122.8352735136303
 72
     1
 10
171.9771144886915
 20
122.8352735136303
 11
171.7251259897151
 21
122.8352735136303
 97
        0
 92
        0
 93
        4
 72
     1
 10
171.7251259897151
 20
122.2733643597629
 11
171.7251259897151
 21
122.8352735136303
 72
     1
 10
171.7251259897151
 20
122.8352735136303
 11
171.9771144886915
 21
122.8352735136303
 72
     1
 10
171.9771144886915
 20
122.8352735136303
 11
171.9771144886915
 21
122.2733643597629
 72
     1
 10
171.9771144886915
 20
122.2733643597629
 11
171.7251259897151
 21
122.2733643597629
 97
        0
 92
        0
 93
        4
 72
     1
 10
171.7251259897153
 20
121.397730207683
 11
171.7251259897153
 21
122.273364359763
 72
     1
 10
171.7251259897151
 20
122.2733643597629
 11
171.9771144886915
 21
122.2733643597629
 72
     1
 10
171.9771144886917
 20
122.2733643597629
 11
171.9771144886917
 21
121.3977302076828
 72
     1
 10
171.9771144886915
 20
121.3977302076828
 11
171.7251259897151
 21
121.3977302076828
 97
        0
 75
     0
 76
     1
 98
        0
  0
HATCH
  5
134
330
B9
100
AcDbEntity
  8
Folie _ 3
  6
Continuous
 62
    30
100
AcDbHatch
 10
0.0
 20
0.0
 30
0.0
210
0.0
220
0.0
230
1.0
  2
SOLID
 70
     1
 71
     0
 91
        2
 92
        0
 93
        4
 72
     1
 10
169.7251259897152
 20
142.3232466779087
 11
167.4218002392034
 21
142.3232466779087
 72
     1
 10
167.4218002392034
 20
142.3232466779087
 11
167.4218002392034
 21
141.3232466779087
 72
     1
 10
167.4218002392034
 20
141.3232466779087
 11
169.7251259897152
 21
141.3232466779087
 72
     1
 10
169.7251259897152
 20
141.3232466779087
 11
169.7251259897152
 21
142.3232466779087
 97
        0
 92
        0
 93
        8
 72
     1
 10
175.0512802392034
 20
142.3232466779087
 11
204.8638402392033
 21
142.3232466779087
 72
     1
 10
204.8638402392033
 20
142.3232466779087
 11
204.8638402392033
 21
143.3232466779087
 72
     1
 10
204.8638402392033
 20
143.3232466779087
 11
174.6528702392034
 21
143.3232466779087
 72
     1
 10
174.6528702392034
 20
143.3232466779087
 11
173.5970902392034
 21
142.3232466779087
 72
     1
 10
173.5970902392034
 20
142.3232466779087
 11
169.9771144886917
 21
142.3232466779087
 72
     1
 10
169.9771144886917
 20
142.3232466779087
 11
169.9771144886917
 21
141.3232466779087
 72
     1
 10
169.9771144886917
 20
141.3232466779087
 11
173.9955002392034
 21
141.3232466779087
 72
     1
 10
173.9955002392034
 20
141.3232466779087
 11
175.0512802392034
 21
142.3232466779087
 97
        0
 75
     0
 76
     1
 98
        0
  0
LINE
  5
135
330
B9
100
AcDbEntity
  8
12_Linie
 62
     7
370
    20
100
AcDbLine
 10
109.9797502392034
 20
132.9732466779087
 30
0.0
 11
146.4218002392034
 21
132.9732466779087
 31
0.0
  0
LINE
  5
136
330
B9
100
AcDbEntity
  8
Folie _ 3
  6
Continuous
 62
    30
420
 16741120
100
AcDbLine
 10
109.9797502392034
 20
143.3232466779087
 30
0.0
 11
109.9797502392034
 21
142.3232466779087
 31
0.0
  0
HATCH
  5
137
330
B9
100
AcDbEntity
  8
Schraff_Dämmung
 62
   253
100
AcDbHatch
 10
0.0
 20
0.0
 30
0.0
210
0.0
220
0.0
230
1.0
  2
SOLID
 70
     1
 71
     0
 91
        1
 92
        0
 93
        4
 72
     1
 10
133.2285702392035
 20
145.3232466779087
 11
143.2285702392035
 21
145.3232466779087
 72
     1
 10
143.2285702392035
 20
145.3232466779087
 11
143.2285702392035
 21
144.3232466779087
 72
     1
 10
143.2285702392035
 20
144.3232466779087
 11
133.2285702392035
 21
144.3232466779087
 72
     1
 10
133.2285702392035
 20
144.3232466779087
 11
133.2285702392035
 21
145.3232466779087
 97
        0
 75
     0
 76
     1
 98
        0
  0
LINE
  5
138
330
B9
100
AcDbEntity
  8
Folie _ 3
  6
Continuous
 62
    30
420
 16741120
100
AcDbLine
 10
204.8638402392033
 20
143.3232466779087
 30
0.0
 11
204.8638402392033
 21
142.3232466779087
 31
0.0
  0
HATCH
  5
139
330
B9
100
AcDbEntity
  8
Folie _ 3
  6
Continuous
 62
    30
100
AcDbHatch
 10
0.0
 20
0.0
 30
0.0
210
0.0
220
0.0
230
1.0
  2
SOLID
 70
     1
 71
     0
 91
        2
 92
        0
 93
        8
 72
     1
 10
144.8664859897152
 20
142.3232466779087
 11
141.2465002392034
 21
142.3232466779087
 72
     1
 10
141.2465002392034
 20
142.3232466779087
 11
140.1907302392034
 21
143.3232466779087
 72
     1
 10
140.1907302392034
 20
143.3232466779087
 11
109.9797502392034
 21
143.3232466779087
 72
     1
 10
109.9797502392034
 20
143.3232466779087
 11
109.9797502392034
 21
142.3232466779087
 72
     1
 10
109.9797502392034
 20
142.3232466779087
 11
139.7923102392033
 21
142.3232466779087
 72
     1
 10
139.7923102392033
 20
142.3232466779087
 11
140.8480902392034
 21
141.3232466779087
 72
     1
 10
140.8480902392034
 20
141.3232466779087
 11
144.8664859897152
 21
141.3232466779087
 72
     1
 10
144.8664859897152
 20
141.3232466779087
 11
144.8664859897152
 21
142.3232466779087
 97
        0
 92
        0
 93
        4
 72
     1
 10
147.4218002392034
 20
142.3232466779087
 11
145.1184744886916
 21
142.3232466779087
 72
     1
 10
145.1184744886916
 20
142.3232466779087
 11
145.1184744886916
 21
141.3232466779087
 72
     1
 10
145.1184744886916
 20
141.3232466779087
 11
147.4218002392034
 21
141.3232466779087
 72
     1
 10
147.4218002392034
 20
141.3232466779087
 11
147.4218002392034
 21
142.3232466779087
 97
        0
 75
     0
 76
     1
 98
        0
  0
HATCH
  5
13A
330
B9
100
AcDbEntity
  8
34_Gruppe
  6
Continuous
 62
     7
370
    20
100
AcDbHatch
 10
0.0
 20
0.0
 30
0.0
210
0.0
220
0.0
230
1.0
  2
ANSI32
 70
     0
 71
     0
 91
        1
 92
        0
 93
        4
 72
     1
 10
110.3278295356664
 20
149.3232466779087
 11
143.2285702392035
 21
149.3232466779087
 72
     1
 10
143.2285702392035
 20
149.3232466779087
 11
143.2285702392035
 21
145.3232466779087
 72
     1
 10
143.2285702392035
 20
145.3232466779087
 11
110.1289270805447
 21
145.3232466779087
 72
     1
 10
110.1289270805447
 20
145.3232466779087
 11
110.3278295356664
 21
149.3232466779087
 97
        0
 75
     0
 76
     1
 52
90.0
 41
10.5
 77
     0
 78
     2
 53
135.0
 43
940.3597076509343
 44
485.9436865636897
 45
-2.784232950922032
 46
-2.784232950922031
 79
     0
 53
135.0
 43
940.3597076509343
 44
487.7998418611897
 45
-2.784232950922032
 46
-2.784232950922031
 79
     0
 98
        0
  0
LINE
  5
13B
330
B9
100
AcDbEntity
  8
34_Gruppe
  6
Continuous
 62
     7
370
    20
100
AcDbLine
 10
171.6150302392034
 20
145.3232466779087
 30
0.0
 11
171.6150302392034
 21
149.3232466779087
 31
0.0
  0
LINE
  5
13C
330
B9
100
AcDbEntity
  8
34_Gruppe
  6
Continuous
 62
     7
370
    20
100
AcDbLine
 10
171.6150302392034
 20
149.3232466779087
 30
0.0
 11
204.5157709427405
 21
149.3232466779087
 31
0.0
  0
LINE
  5
13D
330
B9
100
AcDbEntity
  8
34_Gruppe
  6
Continuous
 62
     7
370
    20
100
AcDbLine
 10
171.6150302392034
 20
145.3232466779087
 30
0.0
 11
204.7146733978622
 21
145.3232466779087
 31
0.0
  0
LINE
  5
13E
330
B9
100
AcDbEntity
  8
34_Gruppe
  6
Continuous
 62
     7
370
    20
100
AcDbLine
 10
171.6150302392034
 20
145.3232466779087
 30
0.0
 11
171.6150302392034
 21
144.3232466779087
 31
0.0
  0
LINE
  5
13F
330
B9
100
AcDbEntity
  8
34_Gruppe
  6
Continuous
 62
     7
370
    20
100
AcDbLine
 10
181.6150302392034
 20
145.3232466779087
 30
0.0
 11
181.6150302392034
 21
144.3232466779087
 31
0.0
  0
HATCH
  5
140
330
B9
100
AcDbEntity
  8
Schraff_Dämmung
 62
   253
100
AcDbHatch
 10
0.0
 20
0.0
 30
0.0
210
0.0
220
0.0
230
1.0
  2
SOLID
 70
     1
 71
     0
 91
        1
 92
        0
 93
        4
 72
     1
 10
181.6150302392034
 20
145.3232466779087
 11
171.6150302392034
 21
145.3232466779087
 72
     1
 10
171.6150302392034
 20
145.3232466779087
 11
171.6150302392034
 21
144.3232466779087
 72
     1
 10
171.6150302392034
 20
144.3232466779087
 11
181.6150302392034
 21
144.3232466779087
 72
     1
 10
181.6150302392034
 20
144.3232466779087
 11
181.6150302392034
 21
145.3232466779087
 97
        0
 75
     0
 76
     1
 98
        0
  0
HATCH
  5
141
330
B9
100
AcDbEntity
  8
34_Gruppe
  6
Continuous
 62
     7
370
    20
100
AcDbHatch
 10
0.0
 20
0.0
 30
0.0
210
0.0
220
0.0
230
1.0
  2
ANSI32
 70
     0
 71
     0
 91
        1
 92
        0
 93
        4
 72
     1
 10
204.5157709427405
 20
149.3232466779087
 11
171.6150302392034
 21
149.3232466779087
 72
     1
 10
171.6150302392034
 20
149.3232466779087
 11
171.6150302392034
 21
145.3232466779087
 72
     1
 10
171.6150302392034
 20
145.3232466779087
 11
204.7146733978622
 21
145.3232466779087
 72
     1
 10
204.7146733978622
 20
145.3232466779087
 11
204.5157709427405
 21
149.3232466779087
 97
        0
 75
     0
 76
     1
 52
0.0
 41
10.5
 77
     0
 78
     2
 53
45.0
 43
-625.5161071725272
 44
485.9436865636897
 45
-2.784232950922031
 46
2.784232950922032
 79
     0
 53
45.0
 43
-623.6599518750272
 44
485.9436865636897
 45
-2.784232950922031
 46
2.784232950922032
 79
     0
 98
        0
  0
LINE
  5
142
330
B9
100
AcDbEntity
  8
12_Linie
 62
     7
370
    20
100
AcDbLine
 10
116.6799161864418
 20
132.9732466779087
 30
0.0
 11
119.9632589403808
 21
142.0232466779087
 31
0.0
  0
LINE
  5
143
330
B9
100
AcDbEntity
  8
12_Linie
 62
     7
370
    20
100
AcDbLine
 10
123.2466016943197
 20
132.9732466779087
 30
0.0
 11
119.9632589403808
 21
142.0232466779087
 31
0.0
  0
LINE
  5
144
330
B9
100
AcDbEntity
  8
12_Linie
 62
     7
370
    20
100
AcDbLine
 10
146.4218002392034
 20
132.9732466779087
 30
0.0
 11
143.9915940419823
 21
139.6717145909726
 31
0.0
  0
LINE
  5
145
330
B9
100
AcDbEntity
  8
12_Linie
 62
     7
370
    20
100
AcDbLine
 10
141.5613878447611
 20
132.9732466779087
 30
0.0
 11
143.9915940419822
 21
139.6717145909726
 31
0.0
  0
LINE
  5
146
330
B9
100
AcDbEntity
  8
12_Linie
 62
     7
370
    20
100
AcDbLine
 10
135.7994922231912
 20
132.9732466779087
 30
0.0
 11
138.6804400339761
 21
140.9141104991851
 31
0.0
  0
LINE
  5
147
330
B9
100
AcDbEntity
  8
12_Linie
 62
     7
370
    20
100
AcDbLine
 10
141.5613878447611
 20
132.9732466779087
 30
0.0
 11
138.6804400339761
 21
140.9141104991851
 31
0.0
  0
LINE
  5
148
330
B9
100
AcDbEntity
  8
12_Linie
 62
     7
370
    20
100
AcDbLine
 10
129.8132872021975
 20
132.9732466779087
 30
0.0
 11
132.8063897126943
 21
141.2232466779087
 31
0.0
  0
LINE
  5
149
330
B9
100
AcDbEntity
  8
12_Linie
 62
     7
370
    20
100
AcDbLine
 10
135.7994922231912
 20
132.9732466779087
 30
0.0
 11
132.8063897126943
 21
141.2232466779087
 31
0.0
  0
LINE
  5
14A
330
B9
100
AcDbEntity
  8
12_Linie
 62
     7
370
    20
100
AcDbLine
 10
123.2466016943197
 20
132.9732466779087
 30
0.0
 11
126.5299444482586
 21
142.0232466779087
 31
0.0
  0
LINE
  5
14B
330
B9
100
AcDbEntity
  8
12_Linie
 62
     7
370
    20
100
AcDbLine
 10
129.8132872021976
 20
132.9732466779087
 30
0.0
 11
126.5299444482586
 21
142.0232466779087
 31
0.0
  0
LINE
  5
14C
330
B9
100
AcDbEntity
  8
12_Linie
 62
     7
370
    20
100
AcDbLine
 10
116.6799161864418
 20
132.9732466779087
 30
0.0
 11
113.3965734325028
 21
142.0232466779087
 31
0.0
  0
LINE
  5
14D
330
B9
100
AcDbEntity
  8
12_Linie
 62
     7
370
    20
100
AcDbLine
 10
110.1132306785639
 20
132.9732466779087
 30
0.0
 11
113.3965734325028
 21
142.0232466779087
 31
0.0
  0
LINE
  5
14E
330
B9
100
AcDbEntity
  8
12_Linie
 62
     7
370
    20
100
AcDbLine
 10
129.8132872021976
 20
123.9232466779087
 30
0.0
 11
126.5299444482586
 21
132.9732466779087
 31
0.0
  0
LINE
  5
14F
330
B9
100
AcDbEntity
  8
12_Linie
 62
     7
370
    20
100
AcDbLine
 10
123.2466016943197
 20
123.9232466779087
 30
0.0
 11
126.5299444482586
 21
132.9732466779087
 31
0.0
  0
LINE
  5
150
330
B9
100
AcDbEntity
  8
12_Linie
 62
     7
370
    20
100
AcDbLine
 10
116.6799161864418
 20
123.9232466779087
 30
0.0
 11
119.9632589403808
 21
132.9732466779087
 31
0.0
  0
LINE
  5
151
330
B9
100
AcDbEntity
  8
12_Linie
 62
     7
370
    20
100
AcDbLine
 10
123.2466016943197
 20
123.9232466779087
 30
0.0
 11
119.9632589403808
 21
132.9732466779087
 31
0.0
  0
LINE
  5
152
330
B9
100
AcDbEntity
  8
12_Linie
 62
     7
370
    20
100
AcDbLine
 10
116.6799161864418
 20
123.9232466779087
 30
0.0
 11
113.3965734325028
 21
132.9732466779087
 31
0.0
  0
LINE
  5
153
330
B9
100
AcDbEntity
  8
12_Linie
 62
     7
370
    20
100
AcDbLine
 10
110.1132306785639
 20
123.9232466779087
 30
0.0
 11
113.3965734325028
 21
132.9732466779087
 31
0.0
  0
LINE
  5
154
330
B9
100
AcDbEntity
  8
12_Linie
 62
     7
370
    20
100
AcDbLine
 10
129.8132872021976
 20
123.9232466779087
 30
0.0
 11
133.0966299561366
 21
132.9732466779087
 31
0.0
  0
LINE
  5
155
330
B9
100
AcDbEntity
  8
12_Linie
 62
     7
370
    20
100
AcDbLine
 10
136.3799727100755
 20
123.9232466779087
 30
0.0
 11
133.0966299561366
 21
132.9732466779087
 31
0.0
  0
LINE
  5
156
330
B9
100
AcDbEntity
  8
12_Linie
 62
     7
370
    20
100
AcDbLine
 10
143.0975845354015
 20
123.5072428442341
 30
0.0
 11
139.6633154640143
 21
132.9732466779087
 31
0.0
  0
LINE
  5
157
330
B9
100
AcDbEntity
  8
12_Linie
 62
     7
370
    20
100
AcDbLine
 10
136.3799727100754
 20
123.9232466779087
 30
0.0
 11
139.6633154640143
 21
132.9732466779087
 31
0.0
  0
LINE
  5
158
330
B9
100
AcDbEntity
  8
12_Linie
 62
     7
370
    20
100
AcDbLine
 10
143.0975845354016
 20
123.5072428442341
 30
0.0
 11
146.4218002392034
 21
132.6699024792402
 31
0.0
  0
LINE
  5
159
330
B9
100
AcDbEntity
  8
12_Linie
 62
     7
370
    20
100
AcDbLine
 10
204.8638502392034
 20
132.9732466779087
 30
0.0
 11
168.4218002392034
 21
132.9732466779087
 31
0.0
  0
LINE
  5
15A
330
B9
100
AcDbEntity
  8
12_Linie
 62
     7
370
    20
100
AcDbLine
 10
168.4218002392034
 20
132.9732466779087
 30
0.0
 11
170.8520064364245
 21
139.6717145909726
 31
0.0
  0
LINE
  5
15B
330
B9
100
AcDbEntity
  8
12_Linie
 62
     7
370
    20
100
AcDbLine
 10
173.2822126336457
 20
132.9732466779087
 30
0.0
 11
170.8520064364246
 21
139.6717145909726
 31
0.0
  0
LINE
  5
15C
330
B9
100
AcDbEntity
  8
12_Linie
 62
     7
370
    20
100
AcDbLine
 10
185.0303132762093
 20
123.9232466779087
 30
0.0
 11
181.7469705222703
 21
132.9732466779087
 31
0.0
  0
LINE
  5
15D
330
B9
100
AcDbEntity
  8
12_Linie
 62
     7
370
    20
100
AcDbLine
 10
173.2822126336457
 20
132.9732466779087
 30
0.0
 11
176.1631604444307
 21
140.9141104991851
 31
0.0
  0
LINE
  5
15E
330
B9
100
AcDbEntity
  8
12_Linie
 62
     7
370
    20
100
AcDbLine
 10
179.0441082552157
 20
132.9732466779087
 30
0.0
 11
176.1631604444307
 21
140.9141104991851
 31
0.0
  0
LINE
  5
15F
330
B9
100
AcDbEntity
  8
12_Linie
 62
     7
370
    20
100
AcDbLine
 10
171.7460159430053
 20
123.5072428442341
 30
0.0
 11
168.4218002392034
 21
132.6699024792402
 31
0.0
  0
LINE
  5
160
330
B9
100
AcDbEntity
  8
12_Linie
 62
     7
370
    20
100
AcDbLine
 10
179.0441082552157
 20
132.9732466779087
 30
0.0
 11
182.0372107657125
 21
141.2232466779087
 31
0.0
  0
LINE
  5
161
330
B9
100
AcDbEntity
  8
12_Linie
 62
     7
370
    20
100
AcDbLine
 10
185.0303132762093
 20
132.9732466779087
 30
0.0
 11
182.0372107657125
 21
141.2232466779087
 31
0.0
  0
LINE
  5
162
330
B9
100
AcDbEntity
  8
12_Linie
 62
     7
370
    20
100
AcDbLine
 10
185.0303132762093
 20
132.9732466779087
 30
0.0
 11
188.3136560301483
 21
142.0232466779087
 31
0.0
  0
LINE
  5
163
330
B9
100
AcDbEntity
  8
12_Linie
 62
     7
370
    20
100
AcDbLine
 10
191.5969987840872
 20
132.9732466779087
 30
0.0
 11
188.3136560301483
 21
142.0232466779087
 31
0.0
  0
LINE
  5
164
330
B9
100
AcDbEntity
  8
12_Linie
 62
     7
370
    20
100
AcDbLine
 10
198.1636842919651
 20
132.9732466779087
 30
0.0
 11
194.8803415380261
 21
142.0232466779087
 31
0.0
  0
LINE
  5
165
330
B9
100
AcDbEntity
  8
12_Linie
 62
     7
370
    20
100
AcDbLine
 10
191.5969987840872
 20
132.9732466779087
 30
0.0
 11
194.8803415380261
 21
142.0232466779087
 31
0.0
  0
LINE
  5
166
330
B9
100
AcDbEntity
  8
12_Linie
 62
     7
370
    20
100
AcDbLine
 10
198.1636842919651
 20
132.9732466779087
 30
0.0
 11
201.4470270459041
 21
142.0232466779087
 31
0.0
  0
LINE
  5
167
330
B9
100
AcDbEntity
  8
12_Linie
 62
     7
370
    20
100
AcDbLine
 10
204.7303697998429
 20
132.9732466779087
 30
0.0
 11
201.4470270459041
 21
142.0232466779087
 31
0.0
  0
LINE
  5
168
330
B9
100
AcDbEntity
  8
12_Linie
 62
     7
370
    20
100
AcDbLine
 10
185.0303132762093
 20
123.9232466779087
 30
0.0
 11
188.3136560301483
 21
132.9732466779087
 31
0.0
  0
LINE
  5
169
330
B9
100
AcDbEntity
  8
12_Linie
 62
     7
370
    20
100
AcDbLine
 10
191.5969987840872
 20
123.9232466779087
 30
0.0
 11
188.3136560301483
 21
132.9732466779087
 31
0.0
  0
LINE
  5
16A
330
B9
100
AcDbEntity
  8
12_Linie
 62
     7
370
    20
100
AcDbLine
 10
198.1636842919651
 20
123.9232466779087
 30
0.0
 11
194.8803415380261
 21
132.9732466779087
 31
0.0
  0
LINE
  5
16B
330
B9
100
AcDbEntity
  8
12_Linie
 62
     7
370
    20
100
AcDbLine
 10
191.5969987840872
 20
123.9232466779087
 30
0.0
 11
194.8803415380261
 21
132.9732466779087
 31
0.0
  0
LINE
  5
16C
330
B9
100
AcDbEntity
  8
12_Linie
 62
     7
370
    20
100
AcDbLine
 10
198.1636842919651
 20
123.9232466779087
 30
0.0
 11
201.4470270459041
 21
132.9732466779087
 31
0.0
  0
LINE
  5
16D
330
B9
100
AcDbEntity
  8
12_Linie
 62
     7
370
    20
100
AcDbLine
 10
204.7303697998429
 20
123.9232466779087
 30
0.0
 11
201.4470270459041
 21
132.9732466779087
 31
0.0
  0
LINE
  5
16E
330
B9
100
AcDbEntity
  8
12_Linie
 62
     7
370
    20
100
AcDbLine
 10
178.4636277683313
 20
123.9232466779087
 30
0.0
 11
181.7469705222703
 21
132.9732466779087
 31
0.0
  0
LINE
  5
16F
330
B9
100
AcDbEntity
  8
12_Linie
 62
     7
370
    20
100
AcDbLine
 10
178.4636277683314
 20
123.9232466779087
 30
0.0
 11
175.1802850143926
 21
132.9732466779087
 31
0.0
  0
LINE
  5
170
330
B9
100
AcDbEntity
  8
12_Linie
 62
     7
370
    20
100
AcDbLine
 10
171.7460159430053
 20
123.5072428442341
 30
0.0
 11
175.1802850143926
 21
132.9732466779087
 31
0.0
  0
HATCH
  5
171
330
B9
100
AcDbEntity
  8
Folie _ 3
  6
Continuous
 62
    50
100
AcDbHatch
 10
0.0
 20
0.0
 30
0.0
210
0.0
220
0.0
230
1.0
  2
SOLID
 70
     1
 71
     0
 91
        1
 92
        0
 93
       13
 72
     1
 10
109.9797502392034
 20
142.0232466779087
 11
131.4218002392034
 21
142.0232466779087
 72
     1
 10
131.4218002392034
 20
142.0232466779087
 11
131.4218002392034
 21
141.2232466779087
 72
     1
 10
131.4218002392034
 20
141.2232466779087
 11
138.3540602392034
 21
141.2232466779087
 72
     1
 10
138.3540602392034
 20
141.2232466779087
 11
139.4098402392034
 21
140.2232466779087
 72
     1
 10
139.4098402392034
 20
140.2232466779087
 11
146.4218002392034
 21
139.3791766779086
 72
     1
 10
146.4218002392034
 20
139.3791766779086
 11
146.4218002392034
 21
123.4232466779087
 72
     1
 10
146.4218002392034
 20
123.4232466779087
 11
140.6469002392034
 21
123.4232466779087
 72
     1
 10
140.6469002392034
 20
123.4232466779087
 11
140.6469002392034
 21
122.9232466779087
 72
     1
 10
140.6469002392034
 20
122.9232466779087
 11
140.5652302392034
 21
122.9232466779087
 72
     1
 10
140.5652302392034
 20
122.9232466779087
 11
139.5094502392033
 21
123.9232466779087
 72
     1
 10
139.5094502392033
 20
123.9232466779087
 11
109.9893766226227
 21
123.9232466779087
 72
     1
 10
109.9893766226227
 20
123.9232466779087
 11
109.9893766226227
 21
142.0232466779087
 72
     1
 10
109.9893766226227
 20
142.0232466779087
 11
109.9797502392034
 21
142.0232466779087
 97
        0
 75
     0
 76
     1
 98
        0
  0
HATCH
  5
172
330
B9
100
AcDbEntity
  8
Folie _ 3
  6
Continuous
 62
    50
100
AcDbHatch
 10
0.0
 20
0.0
 30
0.0
210
0.0
220
0.0
230
1.0
  2
SOLID
 70
     1
 71
     0
 91
        1
 92
        0
 93
       13
 72
     1
 10
204.8638502392034
 20
142.0232466779087
 11
183.4218002392034
 21
142.0232466779087
 72
     1
 10
183.4218002392034
 20
142.0232466779087
 11
183.4218002392034
 21
141.2232466779087
 72
     1
 10
183.4218002392034
 20
141.2232466779087
 11
176.4895402392035
 21
141.2232466779087
 72
     1
 10
176.4895402392035
 20
141.2232466779087
 11
175.4337602392034
 21
140.2232466779087
 72
     1
 10
175.4337602392034
 20
140.2232466779087
 11
168.4218002392034
 21
139.3791766779086
 72
     1
 10
168.4218002392034
 20
139.3791766779086
 11
168.4218002392034
 21
123.4232466779087
 72
     1
 10
168.4218002392034
 20
123.4232466779087
 11
174.1967002392034
 21
123.4232466779087
 72
     1
 10
174.1967002392034
 20
123.4232466779087
 11
174.1967002392034
 21
122.9232466779087
 72
     1
 10
174.1967002392034
 20
122.9232466779087
 11
174.2783702392034
 21
122.9232466779087
 72
     1
 10
174.2783702392034
 20
122.9232466779087
 11
175.3341502392035
 21
123.9232466779087
 72
     1
 10
175.3341502392035
 20
123.9232466779087
 11
204.8542238557842
 21
123.9232466779087
 72
     1
 10
204.8542238557842
 20
123.9232466779087
 11
204.8542238557842
 21
142.0232466779087
 72
     1
 10
204.8542238557842
 20
142.0232466779087
 11
204.8638502392034
 21
142.0232466779087
 97
        0
 75
     0
 76
     1
 98
        0
  0
TEXT
  5
173
330
B9
100
AcDbEntity
  8
Folie _ 3
  6
Continuous
 62
     7
100
AcDbText
 10
189.9255255749977
 20
157.6175834128035
 30
0.0
 40
3.177854776382446
  1
- Stahlbetondecke
 41
1.071865229477616
  7
Style0
100
AcDbText
  0
TEXT
  5
174
330
B9
100
AcDbEntity
  8
Folie _ 3
  6
Continuous
 62
     7
100
AcDbText
 10
189.9255255749977
 20
163.0781370460214
 30
0.0
 40
3.177854776382446
  1
- Voranstrich
 41
1.071865229477616
  7
Style0
100
AcDbText
  0
TEXT
  5
175
330
B9
100
AcDbEntity
  8
Folie _ 3
  6
Continuous
 62
     7
100
AcDbText
 10
189.9255255749977
 20
168.5386906792393
 30
0.0
 40
3.177854776382446
  1
- Dampfsperre (*3)
 41
1.071865229477616
  7
Style0
100
AcDbText
  0
TEXT
  5
176
330
B9
100
AcDbEntity
  8
Folie _ 3
  6
Continuous
 62
     7
100
AcDbText
 10
189.9255255749977
 20
173.9992443124573
 30
0.0
 40
3.177854776382446
  1
- Wärmedämmung (*2)
 41
1.071865229477616
  7
Style0
100
AcDbText
  0
TEXT
  5
177
330
B9
100
AcDbEntity
  8
Folie _ 3
  6
Continuous
 62
    30
100
AcDbText
 10
189.9255255749977
 20
179.4597979456752
 30
0.0
 40
3.177854776382446
  1
- COVERiT NOVOtan EPDM Plane 1,3/ 1,5 mm
 41
0.966666678754029
  7
Style0
100
AcDbText
  0
TEXT
  5
178
330
B9
100
AcDbEntity
  8
Folie _ 3
  6
Continuous
 62
     7
100
AcDbText
 10
189.9255255749977
 20
184.9203515788931
 30
0.0
 40
3.177854776382446
  1
- Schutzlage (*1)
 41
1.071865229477616
  7
Style0
100
AcDbText
  0
TEXT
  5
179
330
B9
100
AcDbEntity
  8
Folie _ 3
  6
Continuous
 62
     7
100
AcDbText
 10
189.9255255749977
 20
190.3809052121113
 30
0.0
 40
3.177854776382446
  1
- Plattenbelag auf Abstandhalter
 41
1.071865229477616
  7
Style0
100
AcDbText
  0
LINE
  5
17A
330
B9
100
AcDbEntity
  8
Folie _ 3
  6
Continuous
 62
     7
370
    30
100
AcDbLine
 10
189.9255255749977
 20
113.0927348505209
 30
0.0
 11
189.9255255749977
 21
191.7748861943678
 31
0.0
  0
TEXT
  5
17B
330
B9
100
AcDbEntity
  8
34_Gruppe
  6
Continuous
 62
     7
100
AcDbText
 10
33.25164199587889
 20
41.34734781664301
 30
0.0
 40
3.177854776382446
  1
(*2) Wärmedämmung entsprechend druckfest,
 41
0.9804659138007177
  7
Style0
100
AcDbText
  0
TEXT
  5
17C
330
B9
100
AcDbEntity
  8
34_Gruppe
  6
Continuous
 62
     7
100
AcDbText
 10
33.25164199587889
 20
35.88679418342508
 30
0.0
 40
3.177854776382446
  1
2-lagig lt. ÖNORM B 3691
 41
0.9804659138007177
  7
Style0
100
AcDbText
  0
TEXT
  5
17D
330
B9
100
AcDbEntity
  8
34_Gruppe
  6
Continuous
 62
     7
100
AcDbText
 10
33.25164199587889
 20
30.6908708527364
 30
0.0
 40
3.177854776382446
  1
(*3) Ohne vorhandene bauphysikalische
 41
0.9804659138007177
  7
Style0
100
AcDbText
  0
TEXT
  5
17E
330
B9
100
AcDbEntity
  8
34_Gruppe
  6
Continuous
 62
     7
100
AcDbText
 10
33.25164199587889
 20
25.23031721951847
 30
0.0
 40
3.177854776382446
  1
Berechnung, Dampfsperre >1000m sd-Wert
 41
0.9804659138007177
  7
Style0
100
AcDbText
  0
TEXT
  5
17F
330
B9
100
AcDbEntity
  8
34_Gruppe
  6
Continuous
 62
     7
100
AcDbText
 10
33.25164199587889
 20
19.76976358630054
 30
0.0
 40
3.177854776382446
  1
lt. ÖNORM B 3691 erforderlich
 41
0.9804659138007177
  7
Style0
100
AcDbText
  0
TEXT
  5
180
330
B9
100
AcDbEntity
  8
34_Gruppe
  6
Continuous
 62
     7
100
AcDbText
 10
33.25164199587889
 20
46.87403652082574
 30
0.0
 40
3.177854776382446
  1
(*1) Schutzlage lt. ÖNORM B 3691 erforderlich
 41
0.9804659138007177
  7
Style0
100
AcDbText
  0
HATCH
  5
181
330
B9
100
AcDbEntity
  8
STANDARD
  6
Continuous
 62
    41
100
AcDbHatch
 10
0.0
 20
0.0
 30
0.0
210
0.0
220
0.0
230
1.0
  2
SOLID
 70
     1
 71
     0
 91
        1
 92
        0
 93
       10
 72
     1
 10
131.4217981973775
 20
141.2232430400154
 11
138.354062481862
 21
141.2232430400154
 72
     1
 10
138.354062481862
 20
141.2232430400154
 11
139.4098413643607
 21
140.2232430399899
 72
     1
 10
139.4098413643607
 20
140.2232430399899
 11
146.4217981973775
 21
139.3791773537654
 72
     1
 10
146.4217981973775
 20
139.3791773537654
 11
146.4217981973775
 21
118.7816225064316
 72
     1
 10
146.4217981973775
 20
118.7816225064316
 11
147.4217981973775
 21
118.7816225064316
 72
     1
 10
147.4217981973775
 20
118.7816225064316
 11
147.4217981973775
 21
141.0232430399883
 72
     1
 10
147.4217981973775
 20
141.0232430399883
 11
140.7285703937704
 21
141.0232430399883
 72
     1
 10
140.7285703937704
 20
141.0232430399883
 11
139.6727915114049
 21
142.0232430400083
 72
     1
 10
139.6727915114049
 20
142.0232430400083
 11
131.4217981973775
 21
142.0232430400083
 72
     1
 10
131.4217981973775
 20
142.0232430400083
 11
131.4217981973775
 21
141.2232430400154
 97
        0
 75
     0
 76
     1
 98
        0
  0
HATCH
  5
182
330
B9
100
AcDbEntity
  8
STANDARD
  6
Continuous
 62
    41
100
AcDbHatch
 10
0.0
 20
0.0
 30
0.0
210
0.0
220
0.0
230
1.0
  2
SOLID
 70
     1
 71
     0
 91
        1
 92
        0
 93
       10
 72
     1
 10
183.4217981973775
 20
141.2232430400154
 11
176.4895339128929
 21
141.2232430400154
 72
     1
 10
176.4895339128929
 20
141.2232430400154
 11
175.4337550303941
 21
140.2232430399899
 72
     1
 10
175.4337550303941
 20
140.2232430399899
 11
168.4217981973775
 21
139.3791773537654
 72
     1
 10
168.4217981973775
 20
139.3791773537654
 11
168.4217981973775
 21
118.7816225064316
 72
     1
 10
168.4217981973775
 20
118.7816225064316
 11
167.4217981973775
 21
118.7816225064316
 72
     1
 10
167.4217981973775
 20
118.7816225064316
 11
167.4217981973775
 21
141.0232430399883
 72
     1
 10
167.4217981973775
 20
141.0232430399883
 11
174.1150260009846
 21
141.0232430399883
 72
     1
 10
174.1150260009846
 20
141.0232430399883
 11
175.1708048833499
 21
142.0232430400083
 72
     1
 10
175.1708048833499
 20
142.0232430400083
 11
183.4217981973775
 21
142.0232430400083
 72
     1
 10
183.4217981973775
 20
142.0232430400083
 11
183.4217981973775
 21
141.2232430400154
 97
        0
 75
     0
 76
     1
 98
        0
  0
HATCH
  5
183
330
B9
100
AcDbEntity
  8
STANDARD
  6
Continuous
 62
    41
100
AcDbHatch
 10
0.0
 20
0.0
 30
0.0
210
0.0
220
0.0
230
1.0
  2
SOLID
 70
     1
 71
     0
 91
        1
 92
        0
 93
       14
 72
     1
 10
183.4217981973775
 20
123.4232430400154
 11
183.4217981973775
 21
122.6232430400154
 72
     1
 10
183.4217981973775
 20
122.6232430400154
 11
176.4895339128929
 21
122.6232430400154
 72
     1
 10
176.4895339128929
 20
122.6232430400154
 11
175.4337550303941
 21
121.6232430399899
 72
     1
 10
175.4337550303941
 20
121.6232430399899
 11
170.9217981973775
 21
121.0801153466556
 72
     1
 10
170.9217981973775
 20
121.0801153466556
 11
170.9217981973775
 21
117.464414529166
 72
     1
 10
170.9217981973775
 20
117.464414529166
 11
168.4217981973775
 21
116.8394145291624
 72
     1
 10
168.4217981973775
 20
116.8394145291624
 11
168.4217981973775
 21
101.5894145291122
 72
     1
 10
168.4217981973775
 20
101.5894145291122
 11
167.4217981973775
 21
101.5894145291122
 72
     1
 10
167.4217981973775
 20
101.5894145291122
 11
167.4217981973775
 21
117.8394145291046
 72
     1
 10
167.4217981973775
 20
117.8394145291046
 11
169.4217981973775
 21
118.3394145291075
 72
     1
 10
169.4217981973775
 20
118.3394145291075
 11
169.4217981973775
 21
122.4232430399885
 72
     1
 10
169.4217981973775
 20
122.4232430399885
 11
175.1150260009846
 21
122.4232430399885
 72
     1
 10
175.1150260009846
 20
122.4232430399885
 11
176.1708048833499
 21
123.4232430400154
 72
     1
 10
176.1708048833499
 20
123.4232430400154
 11
183.4217981973775
 21
123.4232430400154
 97
        0
 75
     0
 76
     1
 98
        0
  0
HATCH
  5
184
330
B9
100
AcDbEntity
  8
STANDARD
  6
Continuous
 62
    41
100
AcDbHatch
 10
0.0
 20
0.0
 30
0.0
210
0.0
220
0.0
230
1.0
  2
SOLID
 70
     1
 71
     0
 91
        1
 92
        0
 93
       14
 72
     1
 10
124.1711783409307
 20
116.5894145291962
 11
147.4217981973775
 21
116.5894145291962
 72
     1
 10
147.4217981973775
 20
116.5894145291962
 11
147.4217981973775
 21
117.8394145291046
 72
     1
 10
147.4217981973775
 20
117.8394145291046
 11
145.4217981973775
 21
118.3394145291075
 72
     1
 10
145.4217981973775
 20
118.3394145291075
 11
145.4217981973775
 21
122.4232430399885
 72
     1
 10
145.4217981973775
 20
122.4232430399885
 11
139.7285703937704
 21
122.4232430399885
 72
     1
 10
139.7285703937704
 20
122.4232430399885
 11
138.6727915114049
 21
123.4232430400154
 72
     1
 10
138.6727915114049
 20
123.4232430400154
 11
131.4217981973775
 21
123.4232430400154
 72
     1
 10
131.4217981973775
 20
123.4232430400154
 11
131.4217981973775
 21
122.6232430400154
 72
     1
 10
131.4217981973775
 20
122.6232430400154
 11
138.354062481862
 21
122.6232430400154
 72
     1
 10
138.354062481862
 20
122.6232430400154
 11
139.4098413643607
 21
121.6232430399899
 72
     1
 10
139.4098413643607
 20
121.6232430399899
 11
143.9217981973775
 21
121.0801153466556
 72
     1
 10
143.9217981973775
 20
121.0801153466556
 11
143.9217981973775
 21
117.5894145291962
 72
     1
 10
143.9217981973775
 20
117.5894145291962
 11
124.1711783409307
 21
117.5894145291962
 72
     1
 10
124.1711783409307
 20
117.5894145291962
 11
124.1711783409307
 21
116.5894145291962
 97
        0
 75
     0
 76
     1
 98
        0
  0
HATCH
  5
185
330
B9
100
AcDbEntity
  8
STANDARD
  6
Continuous
 62
    41
100
AcDbHatch
 10
0.0
 20
0.0
 30
0.0
210
0.0
220
0.0
230
1.0
  2
SOLID
 70
     1
 71
     0
 91
        1
 92
        0
 93
        4
 72
     1
 10
124.1711783409307
 20
100.5894145291962
 11
168.4217981973775
 21
100.5894145291962
 72
     1
 10
168.4217981973775
 20
100.5894145291962
 11
168.4217981973775
 21
101.5894145291122
 72
     1
 10
168.4217981973775
 20
101.5894145291122
 11
124.1711783409307
 21
101.5894145291122
 72
     1
 10
124.1711783409307
 20
101.5894145291122
 11
124.1711783409307
 21
100.5894145291962
 97
        0
 75
     0
 76
     1
 98
        0
  0
LINE
  5
186
330
B9
100
AcDbEntity
  8
12_Linie
 62
     7
370
    20
100
AcDbLine
 10
131.4218002392034
 20
142.0232466779087
 30
0.0
 11
109.9797502392034
 21
142.0232466779087
 31
0.0
  0
HATCH
  5
187
330
B9
100
AcDbEntity
  8
Schraff_Dämmung
 62
   253
100
AcDbHatch
 10
0.0
 20
0.0
 30
0.0
210
0.0
220
0.0
230
1.0
  2
SOLID
 70
     1
 71
     0
 91
        1
 92
        0
 93
        2
 72
     1
 10
169.4218002392034
 20
119.9638882409809
 11
169.4218002392034
 21
120.0883851148365
 72
     2
 10
168.9256902392034
 20
120.0261366779087
 40
0.5
 50
7.151701818657155
 51
352.8482981813428
 73
     1
 97
        0
 75
     0
 76
     1
 98
        0
  0
LINE
  5
188
330
B9
100
AcDbEntity
  8
12_Linie
 62
     7
370
    20
100
AcDbLine
 10
140.7285702392034
 20
141.0232466779087
 30
0.0
 11
139.6727902392034
 21
142.0232466779087
 31
0.0
  0
LINE
  5
189
330
B9
100
AcDbEntity
  8
12_Linie
 62
     7
370
    20
100
AcDbLine
 10
147.4218002392034
 20
141.0232466779087
 30
0.0
 11
140.7285702392034
 21
141.0232466779087
 31
0.0
  0
LINE
  5
18A
330
B9
100
AcDbEntity
  8
STANDARD
  6
Continuous
 62
     7
370
    40
100
AcDbLine
 10
147.4218002392034
 20
142.3232466779087
 30
0.0
 11
141.2465002392034
 21
142.3232466779087
 31
0.0
  0
LINE
  5
18B
330
B9
100
AcDbEntity
  8
STANDARD
  6
Continuous
 62
     7
370
    40
100
AcDbLine
 10
141.2465002392034
 20
142.3232466779087
 30
0.0
 11
140.1907302392034
 21
143.3232466779087
 31
0.0
  0
LINE
  5
18C
330
B9
100
AcDbEntity
  8
STANDARD
  6
Continuous
 62
     7
370
    40
100
AcDbLine
 10
147.4218002392034
 20
141.3232466779087
 30
0.0
 11
140.8480902392034
 21
141.3232466779087
 31
0.0
  0
LINE
  5
18D
330
B9
100
AcDbEntity
  8
STANDARD
  6
Continuous
 62
     7
370
    40
100
AcDbLine
 10
140.8480902392034
 20
141.3232466779087
 30
0.0
 11
139.7923102392033
 21
142.3232466779087
 31
0.0
  0
LINE
  5
18E
330
B9
100
AcDbEntity
  8
STANDARD
  6
Continuous
 62
     7
370
    40
100
AcDbLine
 10
147.4218002392034
 20
141.3232466779087
 30
0.0
 11
147.4218002392034
 21
142.3232466779087
 31
0.0
  0
LINE
  5
18F
330
B9
100
AcDbEntity
  8
STANDARD
  6
Continuous
 62
     7
370
    20
100
AcDbLine
 10
139.7285702392034
 20
122.4232466779087
 30
0.0
 11
138.6727902392034
 21
123.4232466779087
 31
0.0
  0
LINE
  5
190
330
B9
100
AcDbEntity
  8
STANDARD
  6
Continuous
 62
     7
370
    20
100
AcDbLine
 10
145.4218002392034
 20
122.4232466779087
 30
0.0
 11
139.7285702392034
 21
122.4232466779087
 31
0.0
  0
LINE
  5
191
330
B9
100
AcDbEntity
  8
STANDARD
  6
Continuous
 62
     7
370
    20
100
AcDbLine
 10
139.3102502392034
 20
123.4232466779087
 30
0.0
 11
131.4218002392034
 21
123.4232466779087
 31
0.0
  0
LINE
  5
192
330
B9
100
AcDbEntity
  8
STANDARD
  6
Eigene Linie 35
 62
   180
370
    20
100
AcDbLine
 10
157.4218002392034
 20
91.19519667790864
 30
0.0
 11
157.4218002392034
 21
161.8402966779087
 31
0.0
  0
LINE
  5
193
330
B9
100
AcDbEntity
  8
STANDARD
  6
Continuous
 62
     7
370
    20
100
AcDbLine
 10
131.4218002392034
 20
123.4232466779087
 30
0.0
 11
131.4218002392034
 21
122.6232466779087
 31
0.0
  0
LINE
  5
194
330
B9
100
AcDbEntity
  8
STANDARD
  6
Continuous
 62
     7
370
    20
100
AcDbLine
 10
138.3540602392034
 20
122.6232466779087
 30
0.0
 11
131.4218002392034
 21
122.6232466779087
 31
0.0
  0
LINE
  5
195
330
B9
100
AcDbEntity
  8
STANDARD
  6
Continuous
 62
     7
370
    20
100
AcDbLine
 10
139.4098402392034
 20
121.6232466779087
 30
0.0
 11
138.3540602392034
 21
122.6232466779087
 31
0.0
  0
LINE
  5
196
330
B9
100
AcDbEntity
  8
STANDARD
  6
Continuous
 62
     7
370
    20
100
AcDbLine
 10
139.4098402392034
 20
121.6232466779087
 30
0.0
 11
143.9218002392034
 21
121.0801166779087
 31
0.0
  0
LINE
  5
197
330
B9
100
AcDbEntity
  8
12_Linie
 62
     7
370
    20
100
AcDbLine
 10
138.3540602392034
 20
141.2232466779087
 30
0.0
 11
131.4218002392034
 21
141.2232466779087
 31
0.0
  0
LINE
  5
198
330
B9
100
AcDbEntity
  8
12_Linie
 62
     7
370
    20
100
AcDbLine
 10
139.4098402392034
 20
140.2232466779087
 30
0.0
 11
138.3540602392034
 21
141.2232466779087
 31
0.0
  0
LINE
  5
199
330
B9
100
AcDbEntity
  8
12_Linie
 62
     7
370
    20
100
AcDbLine
 10
131.4218002392034
 20
142.0232466779087
 30
0.0
 11
131.4218002392034
 21
141.2232466779087
 31
0.0
  0
LINE
  5
19A
330
B9
100
AcDbEntity
  8
12_Linie
 62
     7
370
    20
100
AcDbLine
 10
139.4098402392034
 20
140.2232466779087
 30
0.0
 11
146.4218002392034
 21
139.3791766779086
 31
0.0
  0
LINE
  5
19B
330
B9
100
AcDbEntity
  8
STANDARD
  6
Continuous
 62
     7
370
    40
100
AcDbLine
 10
139.7923102392033
 20
142.3232466779087
 30
0.0
 11
109.9797502392034
 21
142.3232466779087
 31
0.0
  0
LINE
  5
19C
330
B9
100
AcDbEntity
  8
STANDARD
  6
Continuous
 62
     7
370
    40
100
AcDbLine
 10
140.1907302392034
 20
143.3232466779087
 30
0.0
 11
109.9797502392034
 21
143.3232466779087
 31
0.0
  0
LINE
  5
19D
330
B9
100
AcDbEntity
  8
STANDARD
  6
Continuous
 62
     7
370
    20
100
AcDbLine
 10
142.7285702392034
 20
142.8232466779087
 30
0.0
 11
142.7285702392034
 21
143.3232466779087
 31
0.0
  0
LINE
  5
19E
330
B9
100
AcDbEntity
  8
STANDARD
  6
Continuous
 62
     7
370
    60
100
AcDbLine
 10
130.1846302392034
 20
123.4232466779087
 30
0.0
 11
109.9797502392034
 21
123.4232466779087
 31
0.0
  0
LINE
  5
19F
330
B9
100
AcDbEntity
  8
STANDARD
  6
Continuous
 62
     7
370
    60
100
AcDbLine
 10
130.1846302392034
 20
123.4232466779087
 30
0.0
 11
130.1846302392034
 21
121.9232466779087
 31
0.0
  0
LINE
  5
1A0
330
B9
100
AcDbEntity
  8
STANDARD
  6
Continuous
 62
     7
370
    60
100
AcDbLine
 10
138.4218002392034
 20
121.9232466779087
 30
0.0
 11
130.1846302392034
 21
121.9232466779087
 31
0.0
  0
LINE
  5
1A1
330
B9
100
AcDbEntity
  8
STANDARD
  6
Continuous
 62
     7
370
    60
100
AcDbLine
 10
138.4218002392034
 20
121.9232466779087
 30
0.0
 11
138.4218002392034
 21
120.5643466779087
 31
0.0
  0
LINE
  5
1A2
330
B9
100
AcDbEntity
  8
STANDARD
  6
Continuous
 62
     7
370
    20
100
AcDbLine
 10
183.4218002392034
 20
142.0232466779087
 30
0.0
 11
204.8638402392033
 21
142.0232466779087
 31
0.0
  0
LINE
  5
1A3
330
B9
100
AcDbEntity
  8
STANDARD
  6
Continuous
 62
     7
370
    20
100
AcDbLine
 10
175.1708002392034
 20
142.0232466779087
 30
0.0
 11
183.4218002392034
 21
142.0232466779087
 31
0.0
  0
LINE
  5
1A4
330
B9
100
AcDbEntity
  8
STANDARD
  6
Continuous
 62
     7
370
    20
100
AcDbLine
 10
174.1150302392034
 20
141.0232466779087
 30
0.0
 11
175.1708002392034
 21
142.0232466779087
 31
0.0
  0
LINE
  5
1A5
330
B9
100
AcDbEntity
  8
STANDARD
  6
Continuous
 62
     7
370
    20
100
AcDbLine
 10
167.4218002392034
 20
141.0232466779087
 30
0.0
 11
174.1150302392034
 21
141.0232466779087
 31
0.0
  0
LINE
  5
1A6
330
B9
100
AcDbEntity
  8
STANDARD
  6
Continuous
 62
     7
370
    40
100
AcDbLine
 10
167.4218002392034
 20
142.3232466779087
 30
0.0
 11
173.5970902392034
 21
142.3232466779087
 31
0.0
  0
LINE
  5
1A7
330
B9
100
AcDbEntity
  8
STANDARD
  6
Continuous
 62
     7
370
    40
100
AcDbLine
 10
173.5970902392034
 20
142.3232466779087
 30
0.0
 11
174.6528702392034
 21
143.3232466779087
 31
0.0
  0
LINE
  5
1A8
330
B9
100
AcDbEntity
  8
STANDARD
  6
Continuous
 62
     7
370
    40
100
AcDbLine
 10
167.4218002392034
 20
141.3232466779087
 30
0.0
 11
173.9955002392034
 21
141.3232466779087
 31
0.0
  0
LINE
  5
1A9
330
B9
100
AcDbEntity
  8
STANDARD
  6
Continuous
 62
     7
370
    40
100
AcDbLine
 10
173.9955002392034
 20
141.3232466779087
 30
0.0
 11
175.0512802392034
 21
142.3232466779087
 31
0.0
  0
LINE
  5
1AA
330
B9
100
AcDbEntity
  8
STANDARD
  6
Continuous
 62
     7
370
    40
100
AcDbLine
 10
167.4218002392034
 20
141.3232466779087
 30
0.0
 11
167.4218002392034
 21
142.3232466779087
 31
0.0
  0
LINE
  5
1AB
330
B9
100
AcDbEntity
  8
STANDARD
  6
Continuous
 62
     7
370
    20
100
AcDbLine
 10
175.1150302392034
 20
122.4232466779087
 30
0.0
 11
176.1708002392034
 21
123.4232466779087
 31
0.0
  0
LINE
  5
1AC
330
B9
100
AcDbEntity
  8
STANDARD
  6
Continuous
 62
     7
370
    20
100
AcDbLine
 10
169.4218002392034
 20
122.4232466779087
 30
0.0
 11
175.1150302392034
 21
122.4232466779087
 31
0.0
  0
LINE
  5
1AD
330
B9
100
AcDbEntity
  8
STANDARD
  6
Continuous
 62
     7
370
    20
100
AcDbLine
 10
175.5333502392033
 20
123.4232466779087
 30
0.0
 11
184.6589702392034
 21
123.4232466779087
 31
0.0
  0
LINE
  5
1AE
330
B9
100
AcDbEntity
  8
STANDARD
  6
Continuous
 62
     7
370
    20
100
AcDbLine
 10
183.4218002392034
 20
123.4232466779087
 30
0.0
 11
183.4218002392034
 21
122.6232466779087
 31
0.0
  0
LINE
  5
1AF
330
B9
100
AcDbEntity
  8
STANDARD
  6
Continuous
 62
     7
370
    20
100
AcDbLine
 10
176.4895302392034
 20
122.6232466779087
 30
0.0
 11
183.4218002392034
 21
122.6232466779087
 31
0.0
  0
LINE
  5
1B0
330
B9
100
AcDbEntity
  8
STANDARD
  6
Continuous
 62
     7
370
    20
100
AcDbLine
 10
175.4337502392034
 20
121.6232466779087
 30
0.0
 11
176.4895302392034
 21
122.6232466779087
 31
0.0
  0
LINE
  5
1B1
330
B9
100
AcDbEntity
  8
STANDARD
  6
Continuous
 62
     7
370
    20
100
AcDbLine
 10
175.4337502392034
 20
121.6232466779087
 30
0.0
 11
170.9218002392034
 21
121.0801166779087
 31
0.0
  0
LINE
  5
1B2
330
B9
100
AcDbEntity
  8
STANDARD
  6
Continuous
 62
     7
370
    20
100
AcDbLine
 10
176.4895302392034
 20
141.2232466779087
 30
0.0
 11
183.4218002392034
 21
141.2232466779087
 31
0.0
  0
LINE
  5
1B3
330
B9
100
AcDbEntity
  8
STANDARD
  6
Continuous
 62
     7
370
    20
100
AcDbLine
 10
175.4337502392034
 20
140.2232466779087
 30
0.0
 11
176.4895302392034
 21
141.2232466779087
 31
0.0
  0
LINE
  5
1B4
330
B9
100
AcDbEntity
  8
STANDARD
  6
Continuous
 62
     7
370
    20
100
AcDbLine
 10
183.4218002392034
 20
142.0232466779087
 30
0.0
 11
183.4218002392034
 21
141.2232466779087
 31
0.0
  0
LINE
  5
1B5
330
B9
100
AcDbEntity
  8
STANDARD
  6
Continuous
 62
     7
370
    20
100
AcDbLine
 10
175.4337502392034
 20
140.2232466779087
 30
0.0
 11
168.4218002392034
 21
139.3791766779086
 31
0.0
  0
LINE
  5
1B6
330
B9
100
AcDbEntity
  8
STANDARD
  6
Continuous
 62
     7
370
    40
100
AcDbLine
 10
175.0512802392034
 20
142.3232466779087
 30
0.0
 11
204.8638402392033
 21
142.3232466779087
 31
0.0
  0
LINE
  5
1B7
330
B9
100
AcDbEntity
  8
STANDARD
  6
Continuous
 62
     7
370
    40
100
AcDbLine
 10
174.6528702392034
 20
143.3232466779087
 30
0.0
 11
204.8638402392033
 21
143.3232466779087
 31
0.0
  0
LINE
  5
1B8
330
B9
100
AcDbEntity
  8
STANDARD
  6
Continuous
 62
     7
370
    20
100
AcDbLine
 10
172.1150302392034
 20
142.8232466779087
 30
0.0
 11
172.1150302392034
 21
143.3232466779087
 31
0.0
  0
LINE
  5
1B9
330
B9
100
AcDbEntity
  8
STANDARD
  6
Continuous
 62
     7
370
    60
100
AcDbLine
 10
184.6589702392034
 20
123.4232466779087
 30
0.0
 11
204.8638402392033
 21
123.4232466779087
 31
0.0
  0
LINE
  5
1BA
330
B9
100
AcDbEntity
  8
STANDARD
  6
Continuous
 62
     7
370
    60
100
AcDbLine
 10
184.6589702392034
 20
123.4232466779087
 30
0.0
 11
184.6589702392034
 21
121.9232466779087
 31
0.0
  0
LINE
  5
1BB
330
B9
100
AcDbEntity
  8
STANDARD
  6
Continuous
 62
     7
370
    60
100
AcDbLine
 10
176.4218002392034
 20
121.9232466779087
 30
0.0
 11
184.6589702392034
 21
121.9232466779087
 31
0.0
  0
LINE
  5
1BC
330
B9
100
AcDbEntity
  8
STANDARD
  6
Continuous
 62
     7
370
    60
100
AcDbLine
 10
176.4218002392034
 20
121.9232466779087
 30
0.0
 11
176.4218002392034
 21
120.5643466779087
 31
0.0
  0
CIRCLE
  5
1BD
330
B9
100
AcDbEntity
  8
STANDARD
  6
Continuous
 62
     7
370
    20
100
AcDbCircle
 10
145.9179102392034
 20
120.0261366779087
 30
0.0
 40
0.5
  0
LINE
  5
1BE
330
B9
100
AcDbEntity
  8
STANDARD
  6
Continuous
 62
     7
370
    20
100
AcDbLine
 10
145.4218002392034
 20
118.3394166779088
 30
0.0
 11
147.4218002392034
 21
117.8394166779088
 31
0.0
  0
LINE
  5
1BF
330
B9
100
AcDbEntity
  8
STANDARD
  6
Continuous
 62
     7
370
    20
100
AcDbLine
 10
145.4218002392034
 20
118.3394166779088
 30
0.0
 11
145.4218002392034
 21
122.4232466779087
 31
0.0
  0
LINE
  5
1C0
330
B9
100
AcDbEntity
  8
STANDARD
  6
Continuous
 62
     7
370
    20
100
AcDbLine
 10
146.4521002392034
 20
118.7816266779087
 30
0.0
 11
147.4218002392034
 21
118.7816266779087
 31
0.0
  0
LINE
  5
1C1
330
B9
100
AcDbEntity
  8
STANDARD
  6
Continuous
 62
     7
370
    20
100
AcDbLine
 10
147.4218002392034
 20
118.7816266779087
 30
0.0
 11
147.4218002392034
 21
141.0232466779087
 31
0.0
  0
LINE
  5
1C2
330
B9
100
AcDbEntity
  8
STANDARD
  6
Continuous
 62
     7
370
    20
100
AcDbLine
 10
146.4218002392034
 20
118.7816266779087
 30
0.0
 11
146.4218002392034
 21
139.3791766779086
 31
0.0
  0
CIRCLE
  5
1C3
330
B9
100
AcDbEntity
  8
STANDARD
  6
Continuous
 62
     7
370
    20
100
AcDbCircle
 10
168.9256902392034
 20
120.0261366779087
 30
0.0
 40
0.5
  0
LINE
  5
1C4
330
B9
100
AcDbEntity
  8
STANDARD
  6
Continuous
 62
     7
370
    20
100
AcDbLine
 10
169.4218002392034
 20
118.3394166779088
 30
0.0
 11
167.4218002392034
 21
117.8394166779088
 31
0.0
  0
LINE
  5
1C5
330
B9
100
AcDbEntity
  8
STANDARD
  6
Continuous
 62
     7
370
    60
100
AcDbLine
 10
170.9218002392034
 20
117.4644166779088
 30
0.0
 11
168.4218002392034
 21
116.8394166779088
 31
0.0
  0
LINE
  5
1C6
330
B9
100
AcDbEntity
  8
STANDARD
  6
Continuous
 62
     7
370
    20
100
AcDbLine
 10
169.4218002392034
 20
118.3394166779088
 30
0.0
 11
169.4218002392034
 21
122.4232466779087
 31
0.0
  0
LINE
  5
1C7
330
B9
100
AcDbEntity
  8
STANDARD
  6
Continuous
 62
     7
370
    60
100
AcDbLine
 10
170.9218002392034
 20
117.4644166779088
 30
0.0
 11
170.9218002392034
 21
120.5643466779087
 31
0.0
  0
LINE
  5
1C8
330
B9
100
AcDbEntity
  8
STANDARD
  6
Continuous
 62
     7
370
    20
100
AcDbLine
 10
168.3915002392034
 20
118.7816266779087
 30
0.0
 11
167.4218002392034
 21
118.7816266779087
 31
0.0
  0
LINE
  5
1C9
330
B9
100
AcDbEntity
  8
STANDARD
  6
Continuous
 62
     7
370
    20
100
AcDbLine
 10
167.4218002392034
 20
118.7816266779087
 30
0.0
 11
167.4218002392034
 21
141.0232466779087
 31
0.0
  0
LINE
  5
1CA
330
B9
100
AcDbEntity
  8
STANDARD
  6
Continuous
 62
     7
370
    20
100
AcDbLine
 10
168.4218002392034
 20
118.7816266779087
 30
0.0
 11
168.4218002392034
 21
139.3791766779086
 31
0.0
  0
LINE
  5
1CB
330
B9
100
AcDbEntity
  8
STANDARD
  6
Continuous
 62
     7
370
    20
100
AcDbLine
 10
124.1711802392034
 20
117.5894166779088
 30
0.0
 11
124.1711802392034
 21
116.5894166779088
 31
0.0
  0
LINE
  5
1CC
330
B9
100
AcDbEntity
  8
STANDARD
  6
Continuous
 62
     7
370
    20
100
AcDbLine
 10
124.1711802392034
 20
116.5894166779088
 30
0.0
 11
147.4218002392034
 21
116.5894166779088
 31
0.0
  0
LINE
  5
1CD
330
B9
100
AcDbEntity
  8
STANDARD
  6
Continuous
 62
     7
370
    20
100
AcDbLine
 10
147.4218002392034
 20
117.8394166779088
 30
0.0
 11
147.4218002392034
 21
116.5894166779088
 31
0.0
  0
LINE
  5
1CE
330
B9
100
AcDbEntity
  8
STANDARD
  6
Continuous
 62
     7
370
    60
100
AcDbLine
 10
124.1711802392034
 20
117.5894166779088
 30
0.0
 11
143.9218002392034
 21
117.5894166779088
 31
0.0
  0
LINE
  5
1CF
330
B9
100
AcDbEntity
  8
STANDARD
  6
Continuous
 62
     7
370
    60
100
AcDbLine
 10
143.9218002392034
 20
117.5894166779088
 30
0.0
 11
143.9218002392034
 21
120.5643466779087
 31
0.0
  0
LINE
  5
1D0
330
B9
100
AcDbEntity
  8
STANDARD
  6
Continuous
 62
     7
370
    20
100
AcDbLine
 10
167.4218002392034
 20
101.5894166779088
 30
0.0
 11
167.4218002392034
 21
117.8394166779088
 31
0.0
  0
LINE
  5
1D1
330
B9
100
AcDbEntity
  8
STANDARD
  6
Continuous
 62
     7
370
    60
100
AcDbLine
 10
124.1711802392034
 20
100.5894166779088
 30
0.0
 11
168.4218002392034
 21
100.5894166779088
 31
0.0
  0
LINE
  5
1D2
330
B9
100
AcDbEntity
  8
STANDARD
  6
Continuous
 62
     7
370
    60
100
AcDbLine
 10
168.4218002392034
 20
100.5894166779088
 30
0.0
 11
168.4218002392034
 21
116.8394166779088
 31
0.0
  0
LINE
  5
1D3
330
B9
100
AcDbEntity
  8
STANDARD
  6
Continuous
 62
     7
370
    20
100
AcDbLine
 10
124.1711802392034
 20
101.5894166779088
 30
0.0
 11
167.4218002392034
 21
101.5894166779088
 31
0.0
  0
LINE
  5
1D4
330
B9
100
AcDbEntity
  8
STANDARD
  6
Continuous
 62
     7
370
    20
100
AcDbLine
 10
124.1711802392034
 20
101.5894166779088
 30
0.0
 11
124.1711802392034
 21
100.5894166779088
 31
0.0
  0
LINE
  5
1D5
330
B9
100
AcDbEntity
  8
STANDARD
  6
Continuous
 62
     7
370
    60
100
AcDbLine
 10
170.9218002392034
 20
120.5643466779087
 30
0.0
 11
176.4218002392034
 21
120.5643466779087
 31
0.0
  0
LINE
  5
1D6
330
B9
100
AcDbEntity
  8
STANDARD
  6
Continuous
 62
     7
370
    60
100
AcDbLine
 10
143.9218002392034
 20
120.5643466779087
 30
0.0
 11
138.4218002392034
 21
120.5643466779087
 31
0.0
  0
LINE
  5
1D7
330
B9
100
AcDbEntity
  8
STANDARD
  6
Continuous
 62
     7
370
    20
100
AcDbLine
 10
167.1218002392034
 20
142.8232466779087
 30
0.0
 11
172.1150302392034
 21
142.8232466779087
 31
0.0
  0
LINE
  5
1D8
330
B9
100
AcDbEntity
  8
STANDARD
  6
Continuous
 62
     7
370
    20
100
AcDbLine
 10
167.1218002392034
 20
143.3232466779087
 30
0.0
 11
174.6528702392034
 21
143.3232466779087
 31
0.0
  0
LINE
  5
1D9
330
B9
100
AcDbEntity
  8
STANDARD
  6
Continuous
 62
     7
370
    20
100
AcDbLine
 10
166.6218002392034
 20
140.8818666779087
 30
0.0
 11
167.1218002392034
 21
140.8818666779087
 31
0.0
  0
LINE
  5
1DA
330
B9
100
AcDbEntity
  8
STANDARD
  6
Continuous
 62
     7
370
    20
100
AcDbLine
 10
171.1150302392034
 20
143.3232466779087
 30
0.0
 11
171.1150302392034
 21
146.5940166779086
 31
0.0
  0
POINT
  5
1DB
330
B9
100
AcDbEntity
  8
STANDARD
  6
Continuous
 62
     7
100
AcDbPoint
 10
171.1150302392034
 20
143.3232466779087
 30
0.0
  0
LINE
  5
1DC
330
B9
100
AcDbEntity
  8
STANDARD
  6
Continuous
 62
     7
370
    20
100
AcDbLine
 10
166.2218002392034
 20
140.8818666779087
 30
0.0
 11
165.7218002392034
 21
140.8818666779087
 31
0.0
  0
LINE
  5
1DD
330
B9
100
AcDbEntity
  8
STANDARD
  6
Continuous
 62
     7
370
    20
100
AcDbLine
 10
166.6218002392034
 20
140.8818666779087
 30
0.0
 11
166.6218002392034
 21
143.8052766779086
 31
0.0
  0
LINE
  5
1DE
330
B9
100
AcDbEntity
  8
STANDARD
  6
Continuous
 62
     7
370
    20
100
AcDbLine
 10
166.6218002392034
 20
143.8052766779086
 30
0.0
 11
167.1218002392034
 21
143.8052766779086
 31
0.0
  0
LINE
  5
1DF
330
B9
100
AcDbEntity
  8
STANDARD
  6
Continuous
 62
     7
370
    20
100
AcDbLine
 10
144.7206802392033
 20
148.3232466779087
 30
0.0
 11
144.7206802392033
 21
149.3232466779087
 31
0.0
  0
LINE
  5
1E0
330
B9
100
AcDbEntity
  8
STANDARD
  6
Continuous
 62
     7
370
    20
100
AcDbLine
 10
145.2206802392033
 20
148.6430766779087
 30
0.0
 11
145.2206802392033
 21
149.3232466779087
 31
0.0
  0
LINE
  5
1E1
330
B9
100
AcDbEntity
  8
STANDARD
  6
Continuous
 62
     7
370
    20
100
AcDbLine
 10
148.6218002392034
 20
140.8818666779087
 30
0.0
 11
149.1218002392034
 21
140.8818666779087
 31
0.0
  0
LINE
  5
1E2
330
B9
100
AcDbEntity
  8
STANDARD
  6
Continuous
 62
     7
370
    20
100
AcDbLine
 10
148.2218002392034
 20
140.8818666779087
 30
0.0
 11
147.7218002392034
 21
140.8818666779087
 31
0.0
  0
LINE
  5
1E3
330
B9
100
AcDbEntity
  8
STANDARD
  6
Continuous
 62
     7
370
    20
100
AcDbLine
 10
148.2218002392034
 20
140.8818666779087
 30
0.0
 11
148.2218002392034
 21
143.8052766779086
 31
0.0
  0
LINE
  5
1E4
330
B9
100
AcDbEntity
  8
STANDARD
  6
Continuous
 62
     7
370
    20
100
AcDbLine
 10
148.2218002392034
 20
143.8052766779086
 30
0.0
 11
147.7218002392034
 21
143.8052766779086
 31
0.0
  0
LINE
  5
1E5
330
B9
100
AcDbEntity
  8
STANDARD
  6
Continuous
 62
     7
370
    20
100
AcDbLine
 10
147.7218002392034
 20
143.3232466779087
 30
0.0
 11
140.1907302392034
 21
143.3232466779087
 31
0.0
  0
LINE
  5
1E6
330
B9
100
AcDbEntity
  8
STANDARD
  6
Continuous
 62
     7
370
    20
100
AcDbLine
 10
147.7218002392034
 20
142.8232466779087
 30
0.0
 11
142.7285702392034
 21
142.8232466779087
 31
0.0
  0
LINE
  5
1E7
330
B9
100
AcDbEntity
  8
STANDARD
  6
Continuous
 62
     7
370
    20
100
AcDbLine
 10
147.7218002392034
 20
140.8818666779087
 30
0.0
 11
147.7218002392034
 21
142.8232466779087
 31
0.0
  0
LINE
  5
1E8
330
B9
100
AcDbEntity
  8
STANDARD
  6
Continuous
 62
     7
370
    20
100
AcDbLine
 10
147.7218002392034
 20
143.3232466779087
 30
0.0
 11
147.7218002392034
 21
143.8052766779086
 31
0.0
  0
LINE
  5
1E9
330
B9
100
AcDbEntity
  8
STANDARD
  6
Continuous
 62
     7
370
    20
100
AcDbLine
 10
167.1218002392034
 20
140.8818666779087
 30
0.0
 11
167.1218002392034
 21
142.8232466779087
 31
0.0
  0
LINE
  5
1EA
330
B9
100
AcDbEntity
  8
STANDARD
  6
Continuous
 62
     7
370
    20
100
AcDbLine
 10
167.1218002392034
 20
143.3232466779087
 30
0.0
 11
167.1218002392034
 21
143.8052766779086
 31
0.0
  0
LINE
  5
1EB
330
B9
100
AcDbEntity
  8
STANDARD
  6
Continuous
 62
     7
370
    20
100
AcDbLine
 10
143.7285702392034
 20
143.3232466779087
 30
0.0
 11
143.7285702392034
 21
146.5940166779086
 31
0.0
  0
POINT
  5
1EC
330
B9
100
AcDbEntity
  8
STANDARD
  6
Continuous
 62
     7
100
AcDbPoint
 10
143.7285702392034
 20
143.3232466779087
 30
0.0
  0
LINE
  5
1ED
330
B9
100
AcDbEntity
  8
STANDARD
  6
Continuous
 62
     7
370
    20
100
AcDbLine
 10
145.2206802392033
 20
149.3232466779087
 30
0.0
 11
144.7206802392033
 21
149.3232466779087
 31
0.0
  0
LINE
  5
1EE
330
B9
100
AcDbEntity
  8
STANDARD
  6
Continuous
 62
     7
370
    20
100
AcDbLine
 10
157.4218002392034
 20
148.6430766779087
 30
0.0
 11
145.2206802392033
 21
148.6430766779087
 31
0.0
  0
LINE
  5
1EF
330
B9
100
AcDbEntity
  8
STANDARD
  6
Continuous
 62
     7
370
    20
100
AcDbLine
 10
157.4218002392034
 20
148.6430766779087
 30
0.0
 11
169.6229202392034
 21
148.6430766779087
 31
0.0
  0
LINE
  5
1F0
330
B9
100
AcDbEntity
  8
STANDARD
  6
Continuous
 62
     7
370
    20
100
AcDbLine
 10
157.4218002392034
 20
149.3232466779087
 30
0.0
 11
145.2206802392033
 21
149.3232466779087
 31
0.0
  0
LINE
  5
1F1
330
B9
100
AcDbEntity
  8
STANDARD
  6
Continuous
 62
     7
370
    20
100
AcDbLine
 10
157.4218002392034
 20
149.3232466779087
 30
0.0
 11
169.6229202392034
 21
149.3232466779087
 31
0.0
  0
CIRCLE
  5
1F2
330
B9
100
AcDbEntity
  8
STANDARD
  6
Continuous
 62
     7
370
    20
100
AcDbCircle
 10
127.0893302392034
 20
100.3371666779087
 30
0.0
 40
0.25
  0
CIRCLE
  5
1F3
330
B9
100
AcDbEntity
  8
STANDARD
  6
Continuous
 62
     7
370
    20
100
AcDbCircle
 10
127.0641802392034
 20
117.8394666779086
 30
0.0
 40
0.25
  0
LINE
  5
1F4
330
B9
100
AcDbEntity
  8
STANDARD
  6
Continuous
 62
     7
370
    60
100
AcDbLine
 10
129.4109502392034
 20
118.0894166779088
 30
0.0
 11
129.4109502392034
 21
119.0894166779088
 31
0.0
  0
LINE
  5
1F5
330
B9
100
AcDbEntity
  8
STANDARD
  6
Continuous
 62
     7
370
    20
100
AcDbLine
 10
123.8308802392034
 20
118.0894166779088
 30
0.0
 11
121.7332302392034
 21
116.5894166779088
 31
0.0
  0
LINE
  5
1F6
330
B9
100
AcDbEntity
  8
STANDARD
  6
Continuous
 62
     7
370
    20
100
AcDbLine
 10
121.7332302392034
 20
116.5894166779088
 30
0.0
 11
109.8615602392034
 21
116.5894166779088
 31
0.0
  0
LINE
  5
1F7
330
B9
100
AcDbEntity
  8
STANDARD
  6
Continuous
 62
     7
370
    60
100
AcDbLine
 10
123.5101302392034
 20
119.0894166779088
 30
0.0
 11
121.4124702392034
 21
117.5894166779088
 31
0.0
  0
LINE
  5
1F8
330
B9
100
AcDbEntity
  8
STANDARD
  6
Continuous
 62
     7
370
    60
100
AcDbLine
 10
121.4124702392034
 20
117.5894166779088
 30
0.0
 11
109.8615602392034
 21
117.5894166779088
 31
0.0
  0
LINE
  5
1F9
330
B9
100
AcDbEntity
  8
STANDARD
  6
Continuous
 62
     7
370
    20
100
AcDbLine
 10
123.8308802392034
 20
118.0894166779088
 30
0.0
 11
129.4109502392034
 21
118.0894166779088
 31
0.0
  0
LINE
  5
1FA
330
B9
100
AcDbEntity
  8
STANDARD
  6
Continuous
 62
     7
370
    60
100
AcDbLine
 10
123.5101302392034
 20
119.0894166779088
 30
0.0
 11
129.4109502392034
 21
119.0894166779088
 31
0.0
  0
LINE
  5
1FB
330
B9
100
AcDbEntity
  8
STANDARD
  6
Continuous
 62
     7
370
    60
100
AcDbLine
 10
129.4109502392034
 20
100.0894166779088
 30
0.0
 11
129.4109502392034
 21
99.08941667790877
 31
0.0
  0
LINE
  5
1FC
330
B9
100
AcDbEntity
  8
STANDARD
  6
Continuous
 62
     7
370
    20
100
AcDbLine
 10
123.8308802392034
 20
100.0894166779088
 30
0.0
 11
121.7332302392034
 21
101.5894166779088
 31
0.0
  0
LINE
  5
1FD
330
B9
100
AcDbEntity
  8
STANDARD
  6
Continuous
 62
     7
370
    20
100
AcDbLine
 10
121.7332302392034
 20
101.5894166779088
 30
0.0
 11
109.8615602392034
 21
101.5894166779088
 31
0.0
  0
LINE
  5
1FE
330
B9
100
AcDbEntity
  8
STANDARD
  6
Continuous
 62
     7
370
    60
100
AcDbLine
 10
123.5101302392034
 20
99.08941667790877
 30
0.0
 11
121.4124702392034
 21
100.5894166779088
 31
0.0
  0
LINE
  5
1FF
330
B9
100
AcDbEntity
  8
STANDARD
  6
Continuous
 62
     7
370
    20
100
AcDbLine
 10
123.8308802392034
 20
100.0894166779088
 30
0.0
 11
129.4109502392034
 21
100.0894166779088
 31
0.0
  0
LINE
  5
200
330
B9
100
AcDbEntity
  8
STANDARD
  6
Continuous
 62
     7
370
    60
100
AcDbLine
 10
123.5101302392034
 20
99.08941667790877
 30
0.0
 11
129.4109502392034
 21
99.08941667790877
 31
0.0
  0
LINE
  5
201
330
B9
100
AcDbEntity
  8
STANDARD
  6
Continuous
 62
     7
370
    60
100
AcDbLine
 10
121.4124702392034
 20
100.5894166779088
 30
0.0
 11
109.8615602392034
 21
100.5894166779088
 31
0.0
  0
LINE
  5
202
330
B9
100
AcDbEntity
  8
STANDARD
  6
Continuous
 62
     7
370
    60
100
AcDbLine
 10
109.9291702392034
 20
87.20003208589242
 30
0.0
 11
204.8360602392033
 21
87.20003208589242
 31
0.0
  0
LINE
  5
203
330
B9
100
AcDbEntity
  8
STANDARD
  6
Continuous
 62
     7
370
    20
100
AcDbLine
 10
149.1218002392034
 20
140.8818666779087
 30
0.0
 11
165.7218002392034
 21
140.8818666779087
 31
0.0
  0
LINE
  5
204
330
B9
100
AcDbEntity
  8
STANDARD
  6
Continuous
 62
     7
370
    20
100
AcDbLine
 10
166.2218002392034
 20
140.8818666779087
 30
0.0
 11
166.2218002392034
 21
145.4052766779087
 31
0.0
  0
LINE
  5
205
330
B9
100
AcDbEntity
  8
STANDARD
  6
Continuous
 62
     7
370
    20
100
AcDbLine
 10
165.7218002392034
 20
140.8818666779087
 30
0.0
 11
165.7218002392034
 21
145.9052766779087
 31
0.0
  0
LINE
  5
206
330
B9
100
AcDbEntity
  8
STANDARD
  6
Continuous
 62
     7
370
    20
100
AcDbLine
 10
149.1218002392034
 20
140.8818666779087
 30
0.0
 11
149.1218002392034
 21
145.9052766779087
 31
0.0
  0
LINE
  5
207
330
B9
100
AcDbEntity
  8
STANDARD
  6
Continuous
 62
     7
370
    20
100
AcDbLine
 10
148.6218002392034
 20
140.8818666779087
 30
0.0
 11
148.6218002392034
 21
145.5475866779087
 31
0.0
  0
LINE
  5
208
330
B9
100
AcDbEntity
  8
STANDARD
  6
Continuous
 62
     7
370
    20
100
AcDbLine
 10
149.1218002392034
 20
145.9052766779087
 30
0.0
 11
148.6565602392033
 21
146.4052766779087
 31
0.0
  0
LINE
  5
209
330
B9
100
AcDbEntity
  8
STANDARD
  6
Continuous
 62
     7
370
    20
100
AcDbLine
 10
148.6218002392034
 20
145.5475866779087
 30
0.0
 11
148.1565602392034
 21
146.0475866779087
 31
0.0
  0
LINE
  5
20A
330
B9
100
AcDbEntity
  8
STANDARD
  6
Continuous
 62
     7
370
    20
100
AcDbLine
 10
148.1565602392034
 20
146.9982866779086
 30
0.0
 11
144.7206802392033
 21
148.3232466779087
 31
0.0
  0
LINE
  5
20B
330
B9
100
AcDbEntity
  8
STANDARD
  6
Continuous
 62
     7
370
    20
100
AcDbLine
 10
148.6565602392033
 20
147.3181166779086
 30
0.0
 11
145.2206802392033
 21
148.6430766779087
 31
0.0
  0
LINE
  5
20C
330
B9
100
AcDbEntity
  8
STANDARD
  6
Continuous
 62
     7
370
    20
100
AcDbLine
 10
148.656560239203
 20
146.4052766779087
 30
0.0
 11
148.656560239203
 21
147.3181166779084
 31
0.0
  0
LINE
  5
20D
330
B9
100
AcDbEntity
  8
STANDARD
  6
Continuous
 62
     7
370
    20
100
AcDbLine
 10
148.156560239203
 20
146.0475866779087
 30
0.0
 11
148.156560239203
 21
146.9982866779088
 31
0.0
  0
LINE
  5
20E
330
B9
100
AcDbEntity
  8
STANDARD
  6
Continuous
 62
     7
370
    20
100
AcDbLine
 10
170.1229202392034
 20
148.3232466779087
 30
0.0
 11
170.1229202392034
 21
149.3232466779087
 31
0.0
  0
LINE
  5
20F
330
B9
100
AcDbEntity
  8
STANDARD
  6
Continuous
 62
     7
370
    20
100
AcDbLine
 10
169.6229202392034
 20
148.6430766779087
 30
0.0
 11
169.6229202392034
 21
149.3232466779087
 31
0.0
  0
LINE
  5
210
330
B9
100
AcDbEntity
  8
STANDARD
  6
Continuous
 62
     7
370
    20
100
AcDbLine
 10
166.2218002392034
 20
140.8818666779087
 30
0.0
 11
165.7218002392034
 21
140.8818666779087
 31
0.0
  0
LINE
  5
211
330
B9
100
AcDbEntity
  8
STANDARD
  6
Continuous
 62
     7
370
    20
100
AcDbLine
 10
169.6229202392034
 20
149.3232466779087
 30
0.0
 11
170.1229202392034
 21
149.3232466779087
 31
0.0
  0
LINE
  5
212
330
B9
100
AcDbEntity
  8
STANDARD
  6
Continuous
 62
     7
370
    20
100
AcDbLine
 10
165.7218002392034
 20
140.8818666779087
 30
0.0
 11
165.7218002392034
 21
145.9052766779087
 31
0.0
  0
LINE
  5
213
330
B9
100
AcDbEntity
  8
STANDARD
  6
Continuous
 62
     7
370
    20
100
AcDbLine
 10
166.2218002392034
 20
140.8818666779087
 30
0.0
 11
166.2218002392034
 21
145.5475866779087
 31
0.0
  0
LINE
  5
214
330
B9
100
AcDbEntity
  8
STANDARD
  6
Continuous
 62
     7
370
    20
100
AcDbLine
 10
165.7218002392034
 20
145.9052766779087
 30
0.0
 11
166.1870302392034
 21
146.4052766779087
 31
0.0
  0
LINE
  5
215
330
B9
100
AcDbEntity
  8
STANDARD
  6
Continuous
 62
     7
370
    20
100
AcDbLine
 10
166.2218002392034
 20
145.5475866779087
 30
0.0
 11
166.6870302392034
 21
146.0475866779087
 31
0.0
  0
LINE
  5
216
330
B9
100
AcDbEntity
  8
STANDARD
  6
Continuous
 62
     7
370
    20
100
AcDbLine
 10
166.6870302392034
 20
146.9982866779086
 30
0.0
 11
170.1229202392034
 21
148.3232466779087
 31
0.0
  0
LINE
  5
217
330
B9
100
AcDbEntity
  8
STANDARD
  6
Continuous
 62
     7
370
    20
100
AcDbLine
 10
166.1870302392034
 20
147.3181166779086
 30
0.0
 11
169.6229202392034
 21
148.6430766779087
 31
0.0
  0
LINE
  5
218
330
B9
100
AcDbEntity
  8
STANDARD
  6
Continuous
 62
     7
370
    20
100
AcDbLine
 10
166.187030239203
 20
146.4052766779092
 30
0.0
 11
166.187030239203
 21
147.318116677909
 31
0.0
  0
LINE
  5
219
330
B9
100
AcDbEntity
  8
STANDARD
  6
Continuous
 62
     7
370
    20
100
AcDbLine
 10
166.687030239203
 20
146.0475866779085
 30
0.0
 11
166.687030239203
 21
146.9982866779086
 31
0.0
  0
LINE
  5
21A
330
B9
100
AcDbEntity
  8
STANDARD
  6
Continuous
 62
     7
370
    20
100
AcDbLine
 10
148.6565602392033
 20
147.3181166779086
 30
0.0
 11
157.4218002392034
 21
147.3181166779086
 31
0.0
  0
LINE
  5
21B
330
B9
100
AcDbEntity
  8
STANDARD
  6
Continuous
 62
     7
370
    20
100
AcDbLine
 10
149.1218002392034
 20
145.9052766779087
 30
0.0
 11
157.4218002392034
 21
145.9052766779087
 31
0.0
  0
LINE
  5
21C
330
B9
100
AcDbEntity
  8
STANDARD
  6
Continuous
 62
     7
370
    20
100
AcDbLine
 10
149.6951502392033
 20
141.3311266779086
 30
0.0
 11
150.1951502392033
 21
141.3311266779086
 31
0.0
  0
LINE
  5
21D
330
B9
100
AcDbEntity
  8
STANDARD
  6
Continuous
 62
     7
370
    20
100
AcDbLine
 10
150.1951502392033
 20
145.3426366779087
 30
0.0
 11
149.6951502392033
 21
145.3426366779087
 31
0.0
  0
LINE
  5
21E
330
B9
100
AcDbEntity
  8
STANDARD
  6
Continuous
 62
     7
370
    20
100
AcDbLine
 10
149.6951502392033
 20
145.3426366779087
 30
0.0
 11
149.6951502392033
 21
143.8935766779086
 31
0.0
  0
LINE
  5
21F
330
B9
100
AcDbEntity
  8
STANDARD
  6
Continuous
 62
     7
370
    20
100
AcDbLine
 10
149.6951502392033
 20
142.8935766779086
 30
0.0
 11
149.6951502392033
 21
141.3311266779086
 31
0.0
  0
LINE
  5
220
330
B9
100
AcDbEntity
  8
STANDARD
  6
Continuous
 62
     7
370
    20
100
AcDbLine
 10
150.1951502392033
 20
141.3311266779086
 30
0.0
 11
150.1951502392033
 21
142.8935766779086
 31
0.0
  0
LINE
  5
221
330
B9
100
AcDbEntity
  8
STANDARD
  6
Continuous
 62
     7
370
    20
100
AcDbLine
 10
150.1951502392033
 20
143.8935766779086
 30
0.0
 11
150.1951502392033
 21
145.3426366779087
 31
0.0
  0
LINE
  5
222
330
B9
100
AcDbEntity
  8
STANDARD
  6
Continuous
 62
     7
370
    20
100
AcDbLine
 10
150.7684902392034
 20
141.3311266779086
 30
0.0
 11
151.2684902392034
 21
141.3311266779086
 31
0.0
  0
LINE
  5
223
330
B9
100
AcDbEntity
  8
STANDARD
  6
Continuous
 62
     7
370
    20
100
AcDbLine
 10
151.2684902392034
 20
145.3426366779087
 30
0.0
 11
150.7684902392034
 21
145.3426366779087
 31
0.0
  0
LINE
  5
224
330
B9
100
AcDbEntity
  8
STANDARD
  6
Continuous
 62
     7
370
    20
100
AcDbLine
 10
150.7684902392034
 20
145.3426366779087
 30
0.0
 11
150.7684902392034
 21
143.8935766779086
 31
0.0
  0
LINE
  5
225
330
B9
100
AcDbEntity
  8
STANDARD
  6
Continuous
 62
     7
370
    20
100
AcDbLine
 10
150.7684902392034
 20
142.8935766779086
 30
0.0
 11
150.7684902392034
 21
141.3311266779086
 31
0.0
  0
LINE
  5
226
330
B9
100
AcDbEntity
  8
STANDARD
  6
Continuous
 62
     7
370
    20
100
AcDbLine
 10
151.2684902392034
 20
141.3311266779086
 30
0.0
 11
151.2684902392034
 21
142.8935766779086
 31
0.0
  0
LINE
  5
227
330
B9
100
AcDbEntity
  8
STANDARD
  6
Continuous
 62
     7
370
    20
100
AcDbLine
 10
151.2684902392034
 20
143.8935766779086
 30
0.0
 11
151.2684902392034
 21
145.3426366779087
 31
0.0
  0
LINE
  5
228
330
B9
100
AcDbEntity
  8
STANDARD
  6
Continuous
 62
     7
370
    20
100
AcDbLine
 10
151.8418402392034
 20
141.3311266779086
 30
0.0
 11
152.3418402392034
 21
141.3311266779086
 31
0.0
  0
LINE
  5
229
330
B9
100
AcDbEntity
  8
STANDARD
  6
Continuous
 62
     7
370
    20
100
AcDbLine
 10
152.3418402392034
 20
145.3426366779087
 30
0.0
 11
151.8418402392034
 21
145.3426366779087
 31
0.0
  0
LINE
  5
22A
330
B9
100
AcDbEntity
  8
STANDARD
  6
Continuous
 62
     7
370
    20
100
AcDbLine
 10
151.8418402392034
 20
145.3426366779087
 30
0.0
 11
151.8418402392034
 21
143.8935766779086
 31
0.0
  0
LINE
  5
22B
330
B9
100
AcDbEntity
  8
STANDARD
  6
Continuous
 62
     7
370
    20
100
AcDbLine
 10
151.8418402392034
 20
142.8935766779086
 30
0.0
 11
151.8418402392034
 21
141.3311266779086
 31
0.0
  0
LINE
  5
22C
330
B9
100
AcDbEntity
  8
STANDARD
  6
Continuous
 62
     7
370
    20
100
AcDbLine
 10
152.3418402392034
 20
141.3311266779086
 30
0.0
 11
152.3418402392034
 21
142.8935766779086
 31
0.0
  0
LINE
  5
22D
330
B9
100
AcDbEntity
  8
STANDARD
  6
Continuous
 62
     7
370
    20
100
AcDbLine
 10
152.3418402392034
 20
143.8935766779086
 30
0.0
 11
152.3418402392034
 21
145.3426366779087
 31
0.0
  0
LINE
  5
22E
330
B9
100
AcDbEntity
  8
STANDARD
  6
Continuous
 62
     7
370
    20
100
AcDbLine
 10
152.9151902392034
 20
141.3311266779086
 30
0.0
 11
153.4151902392034
 21
141.3311266779086
 31
0.0
  0
LINE
  5
22F
330
B9
100
AcDbEntity
  8
STANDARD
  6
Continuous
 62
     7
370
    20
100
AcDbLine
 10
153.4151902392034
 20
145.3426366779087
 30
0.0
 11
152.9151902392034
 21
145.3426366779087
 31
0.0
  0
LINE
  5
230
330
B9
100
AcDbEntity
  8
STANDARD
  6
Continuous
 62
     7
370
    20
100
AcDbLine
 10
152.9151902392034
 20
145.3426366779087
 30
0.0
 11
152.9151902392034
 21
143.8935766779086
 31
0.0
  0
LINE
  5
231
330
B9
100
AcDbEntity
  8
STANDARD
  6
Continuous
 62
     7
370
    20
100
AcDbLine
 10
152.9151902392034
 20
142.8935766779086
 30
0.0
 11
152.9151902392034
 21
141.3311266779086
 31
0.0
  0
LINE
  5
232
330
B9
100
AcDbEntity
  8
STANDARD
  6
Continuous
 62
     7
370
    20
100
AcDbLine
 10
153.4151902392034
 20
141.3311266779086
 30
0.0
 11
153.4151902392034
 21
142.8935766779086
 31
0.0
  0
LINE
  5
233
330
B9
100
AcDbEntity
  8
STANDARD
  6
Continuous
 62
     7
370
    20
100
AcDbLine
 10
153.4151902392034
 20
143.8935766779086
 30
0.0
 11
153.4151902392034
 21
145.3426366779087
 31
0.0
  0
LINE
  5
234
330
B9
100
AcDbEntity
  8
STANDARD
  6
Continuous
 62
     7
370
    20
100
AcDbLine
 10
153.9885402392034
 20
141.3311266779086
 30
0.0
 11
154.4885402392034
 21
141.3311266779086
 31
0.0
  0
LINE
  5
235
330
B9
100
AcDbEntity
  8
STANDARD
  6
Continuous
 62
     7
370
    20
100
AcDbLine
 10
154.4885402392034
 20
145.3426366779087
 30
0.0
 11
153.9885402392034
 21
145.3426366779087
 31
0.0
  0
LINE
  5
236
330
B9
100
AcDbEntity
  8
STANDARD
  6
Continuous
 62
     7
370
    20
100
AcDbLine
 10
153.9885402392034
 20
145.3426366779087
 30
0.0
 11
153.9885402392034
 21
143.8935766779086
 31
0.0
  0
LINE
  5
237
330
B9
100
AcDbEntity
  8
STANDARD
  6
Continuous
 62
     7
370
    20
100
AcDbLine
 10
153.9885402392034
 20
142.8935766779086
 30
0.0
 11
153.9885402392034
 21
141.3311266779086
 31
0.0
  0
LINE
  5
238
330
B9
100
AcDbEntity
  8
STANDARD
  6
Continuous
 62
     7
370
    20
100
AcDbLine
 10
154.4885402392034
 20
141.3311266779086
 30
0.0
 11
154.4885402392034
 21
142.8935766779086
 31
0.0
  0
LINE
  5
239
330
B9
100
AcDbEntity
  8
STANDARD
  6
Continuous
 62
     7
370
    20
100
AcDbLine
 10
154.4885402392034
 20
143.8935766779086
 30
0.0
 11
154.4885402392034
 21
145.3426366779087
 31
0.0
  0
LINE
  5
23A
330
B9
100
AcDbEntity
  8
STANDARD
  6
Continuous
 62
     7
370
    20
100
AcDbLine
 10
155.0618802392034
 20
141.3311266779086
 30
0.0
 11
155.5618802392034
 21
141.3311266779086
 31
0.0
  0
LINE
  5
23B
330
B9
100
AcDbEntity
  8
STANDARD
  6
Continuous
 62
     7
370
    20
100
AcDbLine
 10
155.5618802392034
 20
145.3426366779087
 30
0.0
 11
155.0618802392034
 21
145.3426366779087
 31
0.0
  0
LINE
  5
23C
330
B9
100
AcDbEntity
  8
STANDARD
  6
Continuous
 62
     7
370
    20
100
AcDbLine
 10
155.0618802392034
 20
145.3426366779087
 30
0.0
 11
155.0618802392034
 21
143.8935766779086
 31
0.0
  0
LINE
  5
23D
330
B9
100
AcDbEntity
  8
STANDARD
  6
Continuous
 62
     7
370
    20
100
AcDbLine
 10
155.0618802392034
 20
142.8935766779086
 30
0.0
 11
155.0618802392034
 21
141.3311266779086
 31
0.0
  0
LINE
  5
23E
330
B9
100
AcDbEntity
  8
STANDARD
  6
Continuous
 62
     7
370
    20
100
AcDbLine
 10
155.5618802392034
 20
141.3311266779086
 30
0.0
 11
155.5618802392034
 21
142.8935766779086
 31
0.0
  0
LINE
  5
23F
330
B9
100
AcDbEntity
  8
STANDARD
  6
Continuous
 62
     7
370
    20
100
AcDbLine
 10
155.5618802392034
 20
143.8935766779086
 30
0.0
 11
155.5618802392034
 21
145.3426366779087
 31
0.0
  0
LINE
  5
240
330
B9
100
AcDbEntity
  8
STANDARD
  6
Continuous
 62
     7
370
    20
100
AcDbLine
 10
156.1352302392034
 20
141.3311266779086
 30
0.0
 11
156.6352302392034
 21
141.3311266779086
 31
0.0
  0
LINE
  5
241
330
B9
100
AcDbEntity
  8
STANDARD
  6
Continuous
 62
     7
370
    20
100
AcDbLine
 10
156.6352302392034
 20
145.3426366779087
 30
0.0
 11
156.1352302392034
 21
145.3426366779087
 31
0.0
  0
LINE
  5
242
330
B9
100
AcDbEntity
  8
STANDARD
  6
Continuous
 62
     7
370
    20
100
AcDbLine
 10
156.1352302392034
 20
145.3426366779087
 30
0.0
 11
156.1352302392034
 21
143.8935766779086
 31
0.0
  0
LINE
  5
243
330
B9
100
AcDbEntity
  8
STANDARD
  6
Continuous
 62
     7
370
    20
100
AcDbLine
 10
156.1352302392034
 20
142.8935766779086
 30
0.0
 11
156.1352302392034
 21
141.3311266779086
 31
0.0
  0
LINE
  5
244
330
B9
100
AcDbEntity
  8
STANDARD
  6
Continuous
 62
     7
370
    20
100
AcDbLine
 10
156.6352302392034
 20
141.3311266779086
 30
0.0
 11
156.6352302392034
 21
142.8935766779086
 31
0.0
  0
LINE
  5
245
330
B9
100
AcDbEntity
  8
STANDARD
  6
Continuous
 62
     7
370
    20
100
AcDbLine
 10
156.6352302392034
 20
143.8935766779086
 30
0.0
 11
156.6352302392034
 21
145.3426366779087
 31
0.0
  0
LINE
  5
246
330
B9
100
AcDbEntity
  8
STANDARD
  6
Continuous
 62
     7
370
    20
100
AcDbLine
 10
149.6951502392033
 20
143.8935766779086
 30
0.0
 11
150.1951502392033
 21
143.8935766779086
 31
0.0
  0
LINE
  5
247
330
B9
100
AcDbEntity
  8
STANDARD
  6
Continuous
 62
     7
370
    20
100
AcDbLine
 10
149.6951502392033
 20
142.8935766779086
 30
0.0
 11
150.1951502392033
 21
142.8935766779086
 31
0.0
  0
LINE
  5
248
330
B9
100
AcDbEntity
  8
STANDARD
  6
Continuous
 62
     7
370
    20
100
AcDbLine
 10
150.7684902392034
 20
143.8935766779086
 30
0.0
 11
151.2684902392034
 21
143.8935766779086
 31
0.0
  0
LINE
  5
249
330
B9
100
AcDbEntity
  8
STANDARD
  6
Continuous
 62
     7
370
    20
100
AcDbLine
 10
150.7684902392034
 20
142.8935766779086
 30
0.0
 11
151.2684902392034
 21
142.8935766779086
 31
0.0
  0
LINE
  5
24A
330
B9
100
AcDbEntity
  8
STANDARD
  6
Continuous
 62
     7
370
    20
100
AcDbLine
 10
151.8418402392034
 20
143.8935766779086
 30
0.0
 11
152.3418402392034
 21
143.8935766779086
 31
0.0
  0
LINE
  5
24B
330
B9
100
AcDbEntity
  8
STANDARD
  6
Continuous
 62
     7
370
    20
100
AcDbLine
 10
151.8418402392034
 20
142.8935766779086
 30
0.0
 11
152.3418402392034
 21
142.8935766779086
 31
0.0
  0
LINE
  5
24C
330
B9
100
AcDbEntity
  8
STANDARD
  6
Continuous
 62
     7
370
    20
100
AcDbLine
 10
152.9151902392034
 20
143.8935766779086
 30
0.0
 11
153.4151902392034
 21
143.8935766779086
 31
0.0
  0
LINE
  5
24D
330
B9
100
AcDbEntity
  8
STANDARD
  6
Continuous
 62
     7
370
    20
100
AcDbLine
 10
152.9151902392034
 20
142.8935766779086
 30
0.0
 11
153.4151902392034
 21
142.8935766779086
 31
0.0
  0
LINE
  5
24E
330
B9
100
AcDbEntity
  8
STANDARD
  6
Continuous
 62
     7
370
    20
100
AcDbLine
 10
153.9885402392034
 20
143.8935766779086
 30
0.0
 11
154.4885402392034
 21
143.8935766779086
 31
0.0
  0
LINE
  5
24F
330
B9
100
AcDbEntity
  8
STANDARD
  6
Continuous
 62
     7
370
    20
100
AcDbLine
 10
153.9885402392034
 20
142.8935766779086
 30
0.0
 11
154.4885402392034
 21
142.8935766779086
 31
0.0
  0
LINE
  5
250
330
B9
100
AcDbEntity
  8
STANDARD
  6
Continuous
 62
     7
370
    20
100
AcDbLine
 10
155.0618802392034
 20
143.8935766779086
 30
0.0
 11
155.5618802392034
 21
143.8935766779086
 31
0.0
  0
LINE
  5
251
330
B9
100
AcDbEntity
  8
STANDARD
  6
Continuous
 62
     7
370
    20
100
AcDbLine
 10
155.0618802392034
 20
142.8935766779086
 30
0.0
 11
155.5618802392034
 21
142.8935766779086
 31
0.0
  0
LINE
  5
252
330
B9
100
AcDbEntity
  8
STANDARD
  6
Continuous
 62
     7
370
    20
100
AcDbLine
 10
156.1352302392034
 20
143.8935766779086
 30
0.0
 11
156.6352302392034
 21
143.8935766779086
 31
0.0
  0
LINE
  5
253
330
B9
100
AcDbEntity
  8
STANDARD
  6
Continuous
 62
     7
370
    20
100
AcDbLine
 10
156.1352302392034
 20
142.8935766779086
 30
0.0
 11
156.6352302392034
 21
142.8935766779086
 31
0.0
  0
LINE
  5
254
330
B9
100
AcDbEntity
  8
STANDARD
  6
Continuous
 62
     7
370
    20
100
AcDbLine
 10
166.1870302392034
 20
147.3181166779086
 30
0.0
 11
157.4218002392034
 21
147.3181166779086
 31
0.0
  0
LINE
  5
255
330
B9
100
AcDbEntity
  8
STANDARD
  6
Continuous
 62
     7
370
    20
100
AcDbLine
 10
165.7218002392034
 20
145.9052766779087
 30
0.0
 11
157.4218002392034
 21
145.9052766779087
 31
0.0
  0
LINE
  5
256
330
B9
100
AcDbEntity
  8
STANDARD
  6
Continuous
 62
     7
370
    20
100
AcDbLine
 10
165.1484502392034
 20
141.3311266779086
 30
0.0
 11
164.6484502392034
 21
141.3311266779086
 31
0.0
  0
LINE
  5
257
330
B9
100
AcDbEntity
  8
STANDARD
  6
Continuous
 62
     7
370
    20
100
AcDbLine
 10
164.6484502392034
 20
145.3426366779087
 30
0.0
 11
165.1484502392034
 21
145.3426366779087
 31
0.0
  0
LINE
  5
258
330
B9
100
AcDbEntity
  8
STANDARD
  6
Continuous
 62
     7
370
    20
100
AcDbLine
 10
165.1484502392034
 20
145.3426366779087
 30
0.0
 11
165.1484502392034
 21
143.8935766779086
 31
0.0
  0
LINE
  5
259
330
B9
100
AcDbEntity
  8
STANDARD
  6
Continuous
 62
     7
370
    20
100
AcDbLine
 10
165.1484502392034
 20
142.8935766779086
 30
0.0
 11
165.1484502392034
 21
141.3311266779086
 31
0.0
  0
LINE
  5
25A
330
B9
100
AcDbEntity
  8
STANDARD
  6
Continuous
 62
     7
370
    20
100
AcDbLine
 10
164.6484502392034
 20
141.3311266779086
 30
0.0
 11
164.6484502392034
 21
142.8935766779086
 31
0.0
  0
LINE
  5
25B
330
B9
100
AcDbEntity
  8
STANDARD
  6
Continuous
 62
     7
370
    20
100
AcDbLine
 10
164.6484502392034
 20
143.8935766779086
 30
0.0
 11
164.6484502392034
 21
145.3426366779087
 31
0.0
  0
LINE
  5
25C
330
B9
100
AcDbEntity
  8
STANDARD
  6
Continuous
 62
     7
370
    20
100
AcDbLine
 10
164.0751002392034
 20
141.3311266779086
 30
0.0
 11
163.5751002392034
 21
141.3311266779086
 31
0.0
  0
LINE
  5
25D
330
B9
100
AcDbEntity
  8
STANDARD
  6
Continuous
 62
     7
370
    20
100
AcDbLine
 10
163.5751002392034
 20
145.3426366779087
 30
0.0
 11
164.0751002392034
 21
145.3426366779087
 31
0.0
  0
LINE
  5
25E
330
B9
100
AcDbEntity
  8
STANDARD
  6
Continuous
 62
     7
370
    20
100
AcDbLine
 10
164.0751002392034
 20
145.3426366779087
 30
0.0
 11
164.0751002392034
 21
143.8935766779086
 31
0.0
  0
LINE
  5
25F
330
B9
100
AcDbEntity
  8
STANDARD
  6
Continuous
 62
     7
370
    20
100
AcDbLine
 10
164.0751002392034
 20
142.8935766779086
 30
0.0
 11
164.0751002392034
 21
141.3311266779086
 31
0.0
  0
LINE
  5
260
330
B9
100
AcDbEntity
  8
STANDARD
  6
Continuous
 62
     7
370
    20
100
AcDbLine
 10
163.5751002392034
 20
141.3311266779086
 30
0.0
 11
163.5751002392034
 21
142.8935766779086
 31
0.0
  0
LINE
  5
261
330
B9
100
AcDbEntity
  8
STANDARD
  6
Continuous
 62
     7
370
    20
100
AcDbLine
 10
163.5751002392034
 20
143.8935766779086
 30
0.0
 11
163.5751002392034
 21
145.3426366779087
 31
0.0
  0
LINE
  5
262
330
B9
100
AcDbEntity
  8
STANDARD
  6
Continuous
 62
     7
370
    20
100
AcDbLine
 10
163.0017502392033
 20
141.3311266779086
 30
0.0
 11
162.5017502392033
 21
141.3311266779086
 31
0.0
  0
LINE
  5
263
330
B9
100
AcDbEntity
  8
STANDARD
  6
Continuous
 62
     7
370
    20
100
AcDbLine
 10
162.5017502392033
 20
145.3426366779087
 30
0.0
 11
163.0017502392033
 21
145.3426366779087
 31
0.0
  0
LINE
  5
264
330
B9
100
AcDbEntity
  8
STANDARD
  6
Continuous
 62
     7
370
    20
100
AcDbLine
 10
163.0017502392033
 20
145.3426366779087
 30
0.0
 11
163.0017502392033
 21
143.8935766779086
 31
0.0
  0
LINE
  5
265
330
B9
100
AcDbEntity
  8
STANDARD
  6
Continuous
 62
     7
370
    20
100
AcDbLine
 10
163.0017502392033
 20
142.8935766779086
 30
0.0
 11
163.0017502392033
 21
141.3311266779086
 31
0.0
  0
LINE
  5
266
330
B9
100
AcDbEntity
  8
STANDARD
  6
Continuous
 62
     7
370
    20
100
AcDbLine
 10
162.5017502392033
 20
141.3311266779086
 30
0.0
 11
162.5017502392033
 21
142.8935766779086
 31
0.0
  0
LINE
  5
267
330
B9
100
AcDbEntity
  8
STANDARD
  6
Continuous
 62
     7
370
    20
100
AcDbLine
 10
162.5017502392033
 20
143.8935766779086
 30
0.0
 11
162.5017502392033
 21
145.3426366779087
 31
0.0
  0
LINE
  5
268
330
B9
100
AcDbEntity
  8
STANDARD
  6
Continuous
 62
     7
370
    20
100
AcDbLine
 10
161.9284102392034
 20
141.3311266779086
 30
0.0
 11
161.4284102392034
 21
141.3311266779086
 31
0.0
  0
LINE
  5
269
330
B9
100
AcDbEntity
  8
STANDARD
  6
Continuous
 62
     7
370
    20
100
AcDbLine
 10
161.4284102392034
 20
145.3426366779087
 30
0.0
 11
161.9284102392034
 21
145.3426366779087
 31
0.0
  0
LINE
  5
26A
330
B9
100
AcDbEntity
  8
STANDARD
  6
Continuous
 62
     7
370
    20
100
AcDbLine
 10
161.9284102392034
 20
145.3426366779087
 30
0.0
 11
161.9284102392034
 21
143.8935766779086
 31
0.0
  0
LINE
  5
26B
330
B9
100
AcDbEntity
  8
STANDARD
  6
Continuous
 62
     7
370
    20
100
AcDbLine
 10
161.9284102392034
 20
142.8935766779086
 30
0.0
 11
161.9284102392034
 21
141.3311266779086
 31
0.0
  0
LINE
  5
26C
330
B9
100
AcDbEntity
  8
STANDARD
  6
Continuous
 62
     7
370
    20
100
AcDbLine
 10
161.4284102392034
 20
141.3311266779086
 30
0.0
 11
161.4284102392034
 21
142.8935766779086
 31
0.0
  0
LINE
  5
26D
330
B9
100
AcDbEntity
  8
STANDARD
  6
Continuous
 62
     7
370
    20
100
AcDbLine
 10
161.4284102392034
 20
143.8935766779086
 30
0.0
 11
161.4284102392034
 21
145.3426366779087
 31
0.0
  0
LINE
  5
26E
330
B9
100
AcDbEntity
  8
STANDARD
  6
Continuous
 62
     7
370
    20
100
AcDbLine
 10
160.8550602392034
 20
141.3311266779086
 30
0.0
 11
160.3550602392034
 21
141.3311266779086
 31
0.0
  0
LINE
  5
26F
330
B9
100
AcDbEntity
  8
STANDARD
  6
Continuous
 62
     7
370
    20
100
AcDbLine
 10
160.3550602392034
 20
145.3426366779087
 30
0.0
 11
160.8550602392034
 21
145.3426366779087
 31
0.0
  0
LINE
  5
270
330
B9
100
AcDbEntity
  8
STANDARD
  6
Continuous
 62
     7
370
    20
100
AcDbLine
 10
160.8550602392034
 20
145.3426366779087
 30
0.0
 11
160.8550602392034
 21
143.8935766779086
 31
0.0
  0
LINE
  5
271
330
B9
100
AcDbEntity
  8
STANDARD
  6
Continuous
 62
     7
370
    20
100
AcDbLine
 10
160.8550602392034
 20
142.8935766779086
 30
0.0
 11
160.8550602392034
 21
141.3311266779086
 31
0.0
  0
LINE
  5
272
330
B9
100
AcDbEntity
  8
STANDARD
  6
Continuous
 62
     7
370
    20
100
AcDbLine
 10
160.3550602392034
 20
141.3311266779086
 30
0.0
 11
160.3550602392034
 21
142.8935766779086
 31
0.0
  0
LINE
  5
273
330
B9
100
AcDbEntity
  8
STANDARD
  6
Continuous
 62
     7
370
    20
100
AcDbLine
 10
160.3550602392034
 20
143.8935766779086
 30
0.0
 11
160.3550602392034
 21
145.3426366779087
 31
0.0
  0
LINE
  5
274
330
B9
100
AcDbEntity
  8
STANDARD
  6
Continuous
 62
     7
370
    20
100
AcDbLine
 10
159.7817102392034
 20
141.3311266779086
 30
0.0
 11
159.2817102392034
 21
141.3311266779086
 31
0.0
  0
LINE
  5
275
330
B9
100
AcDbEntity
  8
STANDARD
  6
Continuous
 62
     7
370
    20
100
AcDbLine
 10
159.2817102392034
 20
145.3426366779087
 30
0.0
 11
159.7817102392034
 21
145.3426366779087
 31
0.0
  0
LINE
  5
276
330
B9
100
AcDbEntity
  8
STANDARD
  6
Continuous
 62
     7
370
    20
100
AcDbLine
 10
159.7817102392034
 20
145.3426366779087
 30
0.0
 11
159.7817102392034
 21
143.8935766779086
 31
0.0
  0
LINE
  5
277
330
B9
100
AcDbEntity
  8
STANDARD
  6
Continuous
 62
     7
370
    20
100
AcDbLine
 10
159.7817102392034
 20
142.8935766779086
 30
0.0
 11
159.7817102392034
 21
141.3311266779086
 31
0.0
  0
LINE
  5
278
330
B9
100
AcDbEntity
  8
STANDARD
  6
Continuous
 62
     7
370
    20
100
AcDbLine
 10
159.2817102392034
 20
141.3311266779086
 30
0.0
 11
159.2817102392034
 21
142.8935766779086
 31
0.0
  0
LINE
  5
279
330
B9
100
AcDbEntity
  8
STANDARD
  6
Continuous
 62
     7
370
    20
100
AcDbLine
 10
159.2817102392034
 20
143.8935766779086
 30
0.0
 11
159.2817102392034
 21
145.3426366779087
 31
0.0
  0
LINE
  5
27A
330
B9
100
AcDbEntity
  8
STANDARD
  6
Continuous
 62
     7
370
    20
100
AcDbLine
 10
158.7083602392033
 20
141.3311266779086
 30
0.0
 11
158.2083602392033
 21
141.3311266779086
 31
0.0
  0
LINE
  5
27B
330
B9
100
AcDbEntity
  8
STANDARD
  6
Continuous
 62
     7
370
    20
100
AcDbLine
 10
158.2083602392033
 20
145.3426366779087
 30
0.0
 11
158.7083602392033
 21
145.3426366779087
 31
0.0
  0
LINE
  5
27C
330
B9
100
AcDbEntity
  8
STANDARD
  6
Continuous
 62
     7
370
    20
100
AcDbLine
 10
158.7083602392033
 20
145.3426366779087
 30
0.0
 11
158.7083602392033
 21
143.8935766779086
 31
0.0
  0
LINE
  5
27D
330
B9
100
AcDbEntity
  8
STANDARD
  6
Continuous
 62
     7
370
    20
100
AcDbLine
 10
158.7083602392033
 20
142.8935766779086
 30
0.0
 11
158.7083602392033
 21
141.3311266779086
 31
0.0
  0
LINE
  5
27E
330
B9
100
AcDbEntity
  8
STANDARD
  6
Continuous
 62
     7
370
    20
100
AcDbLine
 10
158.2083602392033
 20
141.3311266779086
 30
0.0
 11
158.2083602392033
 21
142.8935766779086
 31
0.0
  0
LINE
  5
27F
330
B9
100
AcDbEntity
  8
STANDARD
  6
Continuous
 62
     7
370
    20
100
AcDbLine
 10
158.2083602392033
 20
143.8935766779086
 30
0.0
 11
158.2083602392033
 21
145.3426366779087
 31
0.0
  0
LINE
  5
280
330
B9
100
AcDbEntity
  8
STANDARD
  6
Continuous
 62
     7
370
    20
100
AcDbLine
 10
165.1484502392034
 20
143.8935766779086
 30
0.0
 11
164.6484502392034
 21
143.8935766779086
 31
0.0
  0
LINE
  5
281
330
B9
100
AcDbEntity
  8
STANDARD
  6
Continuous
 62
     7
370
    20
100
AcDbLine
 10
165.1484502392034
 20
142.8935766779086
 30
0.0
 11
164.6484502392034
 21
142.8935766779086
 31
0.0
  0
LINE
  5
282
330
B9
100
AcDbEntity
  8
STANDARD
  6
Continuous
 62
     7
370
    20
100
AcDbLine
 10
164.0751002392034
 20
143.8935766779086
 30
0.0
 11
163.5751002392034
 21
143.8935766779086
 31
0.0
  0
LINE
  5
283
330
B9
100
AcDbEntity
  8
STANDARD
  6
Continuous
 62
     7
370
    20
100
AcDbLine
 10
164.0751002392034
 20
142.8935766779086
 30
0.0
 11
163.5751002392034
 21
142.8935766779086
 31
0.0
  0
LINE
  5
284
330
B9
100
AcDbEntity
  8
STANDARD
  6
Continuous
 62
     7
370
    20
100
AcDbLine
 10
163.0017502392033
 20
143.8935766779086
 30
0.0
 11
162.5017502392033
 21
143.8935766779086
 31
0.0
  0
LINE
  5
285
330
B9
100
AcDbEntity
  8
STANDARD
  6
Continuous
 62
     7
370
    20
100
AcDbLine
 10
163.0017502392033
 20
142.8935766779086
 30
0.0
 11
162.5017502392033
 21
142.8935766779086
 31
0.0
  0
LINE
  5
286
330
B9
100
AcDbEntity
  8
STANDARD
  6
Continuous
 62
     7
370
    20
100
AcDbLine
 10
161.9284102392034
 20
143.8935766779086
 30
0.0
 11
161.4284102392034
 21
143.8935766779086
 31
0.0
  0
LINE
  5
287
330
B9
100
AcDbEntity
  8
STANDARD
  6
Continuous
 62
     7
370
    20
100
AcDbLine
 10
161.9284102392034
 20
142.8935766779086
 30
0.0
 11
161.4284102392034
 21
142.8935766779086
 31
0.0
  0
LINE
  5
288
330
B9
100
AcDbEntity
  8
STANDARD
  6
Continuous
 62
     7
370
    20
100
AcDbLine
 10
160.8550602392034
 20
143.8935766779086
 30
0.0
 11
160.3550602392034
 21
143.8935766779086
 31
0.0
  0
LINE
  5
289
330
B9
100
AcDbEntity
  8
STANDARD
  6
Continuous
 62
     7
370
    20
100
AcDbLine
 10
160.8550602392034
 20
142.8935766779086
 30
0.0
 11
160.3550602392034
 21
142.8935766779086
 31
0.0
  0
LINE
  5
28A
330
B9
100
AcDbEntity
  8
STANDARD
  6
Continuous
 62
     7
370
    20
100
AcDbLine
 10
159.7817102392034
 20
143.8935766779086
 30
0.0
 11
159.2817102392034
 21
143.8935766779086
 31
0.0
  0
LINE
  5
28B
330
B9
100
AcDbEntity
  8
STANDARD
  6
Continuous
 62
     7
370
    20
100
AcDbLine
 10
159.7817102392034
 20
142.8935766779086
 30
0.0
 11
159.2817102392034
 21
142.8935766779086
 31
0.0
  0
LINE
  5
28C
330
B9
100
AcDbEntity
  8
STANDARD
  6
Continuous
 62
     7
370
    20
100
AcDbLine
 10
158.7083602392033
 20
143.8935766779086
 30
0.0
 11
158.2083602392033
 21
143.8935766779086
 31
0.0
  0
LINE
  5
28D
330
B9
100
AcDbEntity
  8
STANDARD
  6
Continuous
 62
     7
370
    20
100
AcDbLine
 10
158.7083602392033
 20
142.8935766779086
 30
0.0
 11
158.2083602392033
 21
142.8935766779086
 31
0.0
  0
LINE
  5
28E
330
B9
100
AcDbEntity
  8
STANDARD
  6
Continuous
 62
     7
370
    20
100
AcDbLine
 10
145.4218002392034
 20
122.4232466779087
 30
0.0
 11
145.4218002392034
 21
122.9232466779087
 31
0.0
  0
LINE
  5
28F
330
B9
100
AcDbEntity
  8
STANDARD
  6
Continuous
 62
     7
370
    20
100
AcDbLine
 10
140.3660302392034
 20
122.4232466779087
 30
0.0
 11
139.3102502392034
 21
123.4232466779087
 31
0.0
  0
LINE
  5
290
330
B9
100
AcDbEntity
  8
12_Linie
 62
     7
370
    20
100
AcDbLine
 10
131.4218002392034
 20
142.0232466779087
 30
0.0
 11
139.6727902392034
 21
142.0232466779087
 31
0.0
  0
LINE
  5
291
330
B9
100
AcDbEntity
  8
STANDARD
  6
Continuous
 62
     7
370
    20
100
AcDbLine
 10
146.4218002392034
 20
123.4232466779087
 30
0.0
 11
140.6469002392034
 21
123.4232466779087
 31
0.0
  0
LINE
  5
292
330
B9
100
AcDbEntity
  8
STANDARD
  6
Continuous
 62
     7
370
    20
100
AcDbLine
 10
140.6469002392034
 20
122.9232466779087
 30
0.0
 11
140.6469002392034
 21
123.4232466779087
 31
0.0
  0
LINE
  5
293
330
B9
100
AcDbEntity
  8
STANDARD
  6
Continuous
 62
     7
370
    20
100
AcDbLine
 10
145.3401302392035
 20
122.9232466779087
 30
0.0
 11
145.3401302392035
 21
123.4232466779087
 31
0.0
  0
LINE
  5
294
330
B9
100
AcDbEntity
  8
STANDARD
  6
Continuous
 62
     7
370
    20
100
AcDbLine
 10
140.5652302392034
 20
122.9232466779087
 30
0.0
 11
139.5094502392033
 21
123.9232466779087
 31
0.0
  0
LINE
  5
295
330
B9
100
AcDbEntity
  8
STANDARD
  6
Continuous
 62
     7
370
    20
100
AcDbLine
 10
139.5094502392033
 20
123.9232466779087
 30
0.0
 11
109.9893766226227
 21
123.9232466779087
 31
0.0
  0
LINE
  5
296
330
B9
100
AcDbEntity
  8
STANDARD
  6
Continuous
 62
     7
370
    20
100
AcDbLine
 10
145.4218002392034
 20
122.9232466779087
 30
0.0
 11
140.5652302392034
 21
122.9232466779087
 31
0.0
  0
LINE
  5
297
330
B9
100
AcDbEntity
  8
Folie _ 3
  6
Continuous
 62
     7
370
    20
100
AcDbLine
 10
143.2285702392035
 20
144.3232466779087
 30
0.0
 11
110.3278295356664
 21
144.3232466779087
 31
0.0
  0
LINE
  5
298
330
B9
100
AcDbEntity
  8
STANDARD
  6
Continuous
 62
     7
370
    20
100
AcDbLine
 10
143.9218002392034
 20
121.0801166779087
 30
0.0
 11
143.9218002392034
 21
120.5643466779087
 31
0.0
  0
LINE
  5
299
330
B9
100
AcDbEntity
  8
Folie _ 3
  6
Continuous
 62
     7
370
    20
100
AcDbLine
 10
171.6150302392034
 20
144.3232466779087
 30
0.0
 11
204.5157709427405
 21
144.3232466779087
 31
0.0
  0
ARC
  5
29A
330
B9
100
AcDbEntity
  8
Folie _ 3
  6
Continuous
 62
     7
370
    20
100
AcDbCircle
 10
171.6150302392035
 20
143.9899133644436
 30
0.0
 40
0.3333288181230383
100
AcDbArc
 50
30.00044020598454
 51
90.00000000001172
  0
LINE
  5
29B
330
B9
100
AcDbEntity
  8
Folie _ 3
  6
Continuous
 62
     7
370
    20
100
AcDbLine
 10
171.9037051898031
 20
144.1565799913738
 30
0.0
 11
172.3263552886038
 21
143.4899133793448
 31
0.0
  0
ARC
  5
29C
330
B9
100
AcDbEntity
  8
Folie _ 3
  6
Continuous
 62
     7
370
    20
100
AcDbCircle
 10
172.6150302392035
 20
143.6565799913738
 30
0.0
 40
0.3333331466701038
100
AcDbArc
 50
210.0000076799411
 51
270.0
  0
ARC
  5
29D
330
B9
100
AcDbEntity
  8
Folie _ 3
  6
Continuous
 62
     7
370
    20
100
AcDbCircle
 10
172.6150302392035
 20
143.6565799913738
 30
0.0
 40
0.3333333134651184
100
AcDbArc
 50
270.0
 51
329.9999974427038
  0
LINE
  5
29E
330
B9
100
AcDbEntity
  8
Folie _ 3
  6
Continuous
 62
     7
370
    20
100
AcDbLine
 10
172.9037052494078
 20
143.4899133793448
 30
0.0
 11
173.3263552289991
 21
144.1565799913738
 31
0.0
  0
ARC
  5
29F
330
B9
100
AcDbEntity
  8
Folie _ 3
  6
Continuous
 62
     7
370
    20
100
AcDbCircle
 10
173.6150302392035
 20
143.9899133644436
 30
0.0
 40
0.3333288181230383
100
AcDbArc
 50
30.00044020598454
 51
149.9999952245361
  0
LINE
  5
2A0
330
B9
100
AcDbEntity
  8
Folie _ 3
  6
Continuous
 62
     7
370
    20
100
AcDbLine
 10
173.9037051898031
 20
144.1565799913738
 30
0.0
 11
174.3263552886038
 21
143.4899133793448
 31
0.0
  0
ARC
  5
2A1
330
B9
100
AcDbEntity
  8
Folie _ 3
  6
Continuous
 62
     7
370
    20
100
AcDbCircle
 10
174.6150302392035
 20
143.6565799913738
 30
0.0
 40
0.3333331466701038
100
AcDbArc
 50
210.0000076799411
 51
270.0
  0
ARC
  5
2A2
330
B9
100
AcDbEntity
  8
Folie _ 3
  6
Continuous
 62
     7
370
    20
100
AcDbCircle
 10
174.6150302392035
 20
143.6565799913738
 30
0.0
 40
0.3333333134651184
100
AcDbArc
 50
270.0
 51
329.9999974427038
  0
LINE
  5
2A3
330
B9
100
AcDbEntity
  8
Folie _ 3
  6
Continuous
 62
     7
370
    20
100
AcDbLine
 10
174.9037052494078
 20
143.4899133793448
 30
0.0
 11
175.3263552289991
 21
144.1565799913738
 31
0.0
  0
ARC
  5
2A4
330
B9
100
AcDbEntity
  8
Folie _ 3
  6
Continuous
 62
     7
370
    20
100
AcDbCircle
 10
175.6150302392035
 20
143.9899133644436
 30
0.0
 40
0.3333288181230383
100
AcDbArc
 50
30.00044020598454
 51
149.9999952245361
  0
LINE
  5
2A5
330
B9
100
AcDbEntity
  8
Folie _ 3
  6
Continuous
 62
     7
370
    20
100
AcDbLine
 10
175.9037051898031
 20
144.1565799913738
 30
0.0
 11
176.3263552886038
 21
143.4899133793448
 31
0.0
  0
ARC
  5
2A6
330
B9
100
AcDbEntity
  8
Folie _ 3
  6
Continuous
 62
     7
370
    20
100
AcDbCircle
 10
176.6150302392035
 20
143.6565799913738
 30
0.0
 40
0.3333331466701038
100
AcDbArc
 50
210.0000076799411
 51
270.0
  0
ARC
  5
2A7
330
B9
100
AcDbEntity
  8
Folie _ 3
  6
Continuous
 62
     7
370
    20
100
AcDbCircle
 10
176.6150302392035
 20
143.6565799913738
 30
0.0
 40
0.3333333134651184
100
AcDbArc
 50
270.0
 51
329.9999974427038
  0
LINE
  5
2A8
330
B9
100
AcDbEntity
  8
Folie _ 3
  6
Continuous
 62
     7
370
    20
100
AcDbLine
 10
176.9037052494078
 20
143.4899133793448
 30
0.0
 11
177.3263552289991
 21
144.1565799913738
 31
0.0
  0
ARC
  5
2A9
330
B9
100
AcDbEntity
  8
Folie _ 3
  6
Continuous
 62
     7
370
    20
100
AcDbCircle
 10
177.6150302392035
 20
143.9899133644436
 30
0.0
 40
0.3333288181230383
100
AcDbArc
 50
30.00044020598454
 51
149.9999952245361
  0
LINE
  5
2AA
330
B9
100
AcDbEntity
  8
Folie _ 3
  6
Continuous
 62
     7
370
    20
100
AcDbLine
 10
177.9037051898031
 20
144.1565799913738
 30
0.0
 11
178.3263552886038
 21
143.4899133793448
 31
0.0
  0
ARC
  5
2AB
330
B9
100
AcDbEntity
  8
Folie _ 3
  6
Continuous
 62
     7
370
    20
100
AcDbCircle
 10
178.6150302392035
 20
143.6565799913738
 30
0.0
 40
0.3333331466701038
100
AcDbArc
 50
210.0000076799411
 51
270.0
  0
ARC
  5
2AC
330
B9
100
AcDbEntity
  8
Folie _ 3
  6
Continuous
 62
     7
370
    20
100
AcDbCircle
 10
178.6150302392035
 20
143.6565799913738
 30
0.0
 40
0.3333333134651184
100
AcDbArc
 50
270.0
 51
329.9999974427038
  0
LINE
  5
2AD
330
B9
100
AcDbEntity
  8
Folie _ 3
  6
Continuous
 62
     7
370
    20
100
AcDbLine
 10
178.9037052494079
 20
143.4899133793448
 30
0.0
 11
179.3263552289992
 21
144.1565799913738
 31
0.0
  0
ARC
  5
2AE
330
B9
100
AcDbEntity
  8
Folie _ 3
  6
Continuous
 62
     7
370
    20
100
AcDbCircle
 10
179.6150302392035
 20
143.9899133644436
 30
0.0
 40
0.3333288181230383
100
AcDbArc
 50
30.00044020598454
 51
149.9999952245361
  0
LINE
  5
2AF
330
B9
100
AcDbEntity
  8
Folie _ 3
  6
Continuous
 62
     7
370
    20
100
AcDbLine
 10
179.9037051898033
 20
144.1565799913738
 30
0.0
 11
180.3263552886039
 21
143.4899133793448
 31
0.0
  0
ARC
  5
2B0
330
B9
100
AcDbEntity
  8
Folie _ 3
  6
Continuous
 62
     7
370
    20
100
AcDbCircle
 10
180.6150302392036
 20
143.6565799913738
 30
0.0
 40
0.3333331466701038
100
AcDbArc
 50
210.0000076799411
 51
270.0
  0
ARC
  5
2B1
330
B9
100
AcDbEntity
  8
Folie _ 3
  6
Continuous
 62
     7
370
    20
100
AcDbCircle
 10
180.6150302392036
 20
143.6565799913738
 30
0.0
 40
0.3333333134651184
100
AcDbArc
 50
270.0
 51
329.9999974427038
  0
LINE
  5
2B2
330
B9
100
AcDbEntity
  8
Folie _ 3
  6
Continuous
 62
     7
370
    20
100
AcDbLine
 10
180.9037052494079
 20
143.4899133793448
 30
0.0
 11
181.3263552289993
 21
144.1565799913738
 31
0.0
  0
ARC
  5
2B3
330
B9
100
AcDbEntity
  8
Folie _ 3
  6
Continuous
 62
     7
370
    20
100
AcDbCircle
 10
181.6150302392036
 20
143.9899133644436
 30
0.0
 40
0.3333288181230383
100
AcDbArc
 50
30.00044020598454
 51
149.9999952245361
  0
LINE
  5
2B4
330
B9
100
AcDbEntity
  8
Folie _ 3
  6
Continuous
 62
     7
370
    20
100
AcDbLine
 10
181.9037051898033
 20
144.1565799913738
 30
0.0
 11
182.326355288604
 21
143.4899133793448
 31
0.0
  0
ARC
  5
2B5
330
B9
100
AcDbEntity
  8
Folie _ 3
  6
Continuous
 62
     7
370
    20
100
AcDbCircle
 10
182.6150302392036
 20
143.6565799913738
 30
0.0
 40
0.3333331466701038
100
AcDbArc
 50
210.0000076799411
 51
270.0
  0
ARC
  5
2B6
330
B9
100
AcDbEntity
  8
Folie _ 3
  6
Continuous
 62
     7
370
    20
100
AcDbCircle
 10
182.6150302392036
 20
143.6565799913738
 30
0.0
 40
0.3333333134651184
100
AcDbArc
 50
270.0
 51
329.9999974427038
  0
LINE
  5
2B7
330
B9
100
AcDbEntity
  8
Folie _ 3
  6
Continuous
 62
     7
370
    20
100
AcDbLine
 10
182.9037052494079
 20
143.4899133793448
 30
0.0
 11
183.3263552289993
 21
144.1565799913738
 31
0.0
  0
ARC
  5
2B8
330
B9
100
AcDbEntity
  8
Folie _ 3
  6
Continuous
 62
     7
370
    20
100
AcDbCircle
 10
183.6150302392036
 20
143.9899133644436
 30
0.0
 40
0.3333288181230383
100
AcDbArc
 50
30.00044020598454
 51
149.9999952245361
  0
LINE
  5
2B9
330
B9
100
AcDbEntity
  8
Folie _ 3
  6
Continuous
 62
     7
370
    20
100
AcDbLine
 10
183.9037051898033
 20
144.1565799913738
 30
0.0
 11
184.326355288604
 21
143.4899133793448
 31
0.0
  0
ARC
  5
2BA
330
B9
100
AcDbEntity
  8
Folie _ 3
  6
Continuous
 62
     7
370
    20
100
AcDbCircle
 10
184.6150302392036
 20
143.6565799913738
 30
0.0
 40
0.3333331466701038
100
AcDbArc
 50
210.0000076799411
 51
270.0
  0
ARC
  5
2BB
330
B9
100
AcDbEntity
  8
Folie _ 3
  6
Continuous
 62
     7
370
    20
100
AcDbCircle
 10
184.6150302392036
 20
143.6565799913738
 30
0.0
 40
0.3333333134651184
100
AcDbArc
 50
270.0
 51
329.9999974427038
  0
LINE
  5
2BC
330
B9
100
AcDbEntity
  8
Folie _ 3
  6
Continuous
 62
     7
370
    20
100
AcDbLine
 10
184.9037052494079
 20
143.4899133793448
 30
0.0
 11
185.3263552289993
 21
144.1565799913738
 31
0.0
  0
ARC
  5
2BD
330
B9
100
AcDbEntity
  8
Folie _ 3
  6
Continuous
 62
     7
370
    20
100
AcDbCircle
 10
185.6150302392036
 20
143.9899133644436
 30
0.0
 40
0.3333288181230383
100
AcDbArc
 50
30.00044020598454
 51
149.9999952245361
  0
LINE
  5
2BE
330
B9
100
AcDbEntity
  8
Folie _ 3
  6
Continuous
 62
     7
370
    20
100
AcDbLine
 10
185.9037051898033
 20
144.1565799913738
 30
0.0
 11
186.326355288604
 21
143.4899133793448
 31
0.0
  0
ARC
  5
2BF
330
B9
100
AcDbEntity
  8
Folie _ 3
  6
Continuous
 62
     7
370
    20
100
AcDbCircle
 10
186.6150302392036
 20
143.6565799913738
 30
0.0
 40
0.3333331466701038
100
AcDbArc
 50
210.0000076799411
 51
270.0
  0
ARC
  5
2C0
330
B9
100
AcDbEntity
  8
Folie _ 3
  6
Continuous
 62
     7
370
    20
100
AcDbCircle
 10
186.6150302392036
 20
143.6565799913738
 30
0.0
 40
0.3333333134651184
100
AcDbArc
 50
270.0
 51
329.9999974427038
  0
LINE
  5
2C1
330
B9
100
AcDbEntity
  8
Folie _ 3
  6
Continuous
 62
     7
370
    20
100
AcDbLine
 10
186.9037052494079
 20
143.4899133793448
 30
0.0
 11
187.3263552289993
 21
144.1565799913738
 31
0.0
  0
ARC
  5
2C2
330
B9
100
AcDbEntity
  8
Folie _ 3
  6
Continuous
 62
     7
370
    20
100
AcDbCircle
 10
187.6150302392036
 20
143.9899133644436
 30
0.0
 40
0.3333288181230383
100
AcDbArc
 50
30.00044020598454
 51
149.9999952245361
  0
LINE
  5
2C3
330
B9
100
AcDbEntity
  8
Folie _ 3
  6
Continuous
 62
     7
370
    20
100
AcDbLine
 10
187.9037051898033
 20
144.1565799913738
 30
0.0
 11
188.326355288604
 21
143.4899133793448
 31
0.0
  0
ARC
  5
2C4
330
B9
100
AcDbEntity
  8
Folie _ 3
  6
Continuous
 62
     7
370
    20
100
AcDbCircle
 10
188.6150302392036
 20
143.6565799913738
 30
0.0
 40
0.3333331466701038
100
AcDbArc
 50
210.0000076799411
 51
270.0
  0
ARC
  5
2C5
330
B9
100
AcDbEntity
  8
Folie _ 3
  6
Continuous
 62
     7
370
    20
100
AcDbCircle
 10
188.6150302392036
 20
143.6565799913738
 30
0.0
 40
0.3333333134651184
100
AcDbArc
 50
270.0
 51
329.9999974427038
  0
LINE
  5
2C6
330
B9
100
AcDbEntity
  8
Folie _ 3
  6
Continuous
 62
     7
370
    20
100
AcDbLine
 10
188.9037052494079
 20
143.4899133793448
 30
0.0
 11
189.3263552289993
 21
144.1565799913738
 31
0.0
  0
ARC
  5
2C7
330
B9
100
AcDbEntity
  8
Folie _ 3
  6
Continuous
 62
     7
370
    20
100
AcDbCircle
 10
189.6150302392036
 20
143.9899133644436
 30
0.0
 40
0.3333288181230383
100
AcDbArc
 50
30.00044020598454
 51
149.9999952245361
  0
LINE
  5
2C8
330
B9
100
AcDbEntity
  8
Folie _ 3
  6
Continuous
 62
     7
370
    20
100
AcDbLine
 10
189.9037051898033
 20
144.1565799913738
 30
0.0
 11
190.326355288604
 21
143.4899133793448
 31
0.0
  0
ARC
  5
2C9
330
B9
100
AcDbEntity
  8
Folie _ 3
  6
Continuous
 62
     7
370
    20
100
AcDbCircle
 10
190.6150302392036
 20
143.6565799913738
 30
0.0
 40
0.3333331466701038
100
AcDbArc
 50
210.0000076799411
 51
270.0
  0
ARC
  5
2CA
330
B9
100
AcDbEntity
  8
Folie _ 3
  6
Continuous
 62
     7
370
    20
100
AcDbCircle
 10
190.6150302392036
 20
143.6565799913738
 30
0.0
 40
0.3333333134651184
100
AcDbArc
 50
270.0
 51
329.9999974427038
  0
LINE
  5
2CB
330
B9
100
AcDbEntity
  8
Folie _ 3
  6
Continuous
 62
     7
370
    20
100
AcDbLine
 10
190.9037052494079
 20
143.4899133793448
 30
0.0
 11
191.3263552289993
 21
144.1565799913738
 31
0.0
  0
ARC
  5
2CC
330
B9
100
AcDbEntity
  8
Folie _ 3
  6
Continuous
 62
     7
370
    20
100
AcDbCircle
 10
191.6150302392037
 20
143.9899133644436
 30
0.0
 40
0.3333288181230383
100
AcDbArc
 50
30.00044020598454
 51
149.9999952245361
  0
LINE
  5
2CD
330
B9
100
AcDbEntity
  8
Folie _ 3
  6
Continuous
 62
     7
370
    20
100
AcDbLine
 10
191.9037051898034
 20
144.1565799913738
 30
0.0
 11
192.3263552886041
 21
143.4899133793448
 31
0.0
  0
ARC
  5
2CE
330
B9
100
AcDbEntity
  8
Folie _ 3
  6
Continuous
 62
     7
370
    20
100
AcDbCircle
 10
192.6150302392037
 20
143.6565799913738
 30
0.0
 40
0.3333331466701038
100
AcDbArc
 50
210.0000076799411
 51
270.0
  0
ARC
  5
2CF
330
B9
100
AcDbEntity
  8
Folie _ 3
  6
Continuous
 62
     7
370
    20
100
AcDbCircle
 10
192.6150302392037
 20
143.6565799913738
 30
0.0
 40
0.3333333134651184
100
AcDbArc
 50
270.0
 51
329.9999974427038
  0
LINE
  5
2D0
330
B9
100
AcDbEntity
  8
Folie _ 3
  6
Continuous
 62
     7
370
    20
100
AcDbLine
 10
192.9037052494081
 20
143.4899133793448
 30
0.0
 11
193.3263552289995
 21
144.1565799913738
 31
0.0
  0
ARC
  5
2D1
330
B9
100
AcDbEntity
  8
Folie _ 3
  6
Continuous
 62
     7
370
    20
100
AcDbCircle
 10
193.6150302392038
 20
143.9899133644436
 30
0.0
 40
0.3333288181230383
100
AcDbArc
 50
30.00044020598454
 51
149.9999952245361
  0
LINE
  5
2D2
330
B9
100
AcDbEntity
  8
Folie _ 3
  6
Continuous
 62
     7
370
    20
100
AcDbLine
 10
193.9037051898035
 20
144.1565799913738
 30
0.0
 11
194.3263552886042
 21
143.4899133793448
 31
0.0
  0
ARC
  5
2D3
330
B9
100
AcDbEntity
  8
Folie _ 3
  6
Continuous
 62
     7
370
    20
100
AcDbCircle
 10
194.6150302392038
 20
143.6565799913738
 30
0.0
 40
0.3333331466701038
100
AcDbArc
 50
210.0000076799411
 51
270.0
  0
ARC
  5
2D4
330
B9
100
AcDbEntity
  8
Folie _ 3
  6
Continuous
 62
     7
370
    20
100
AcDbCircle
 10
194.6150302392038
 20
143.6565799913738
 30
0.0
 40
0.3333333134651184
100
AcDbArc
 50
270.0
 51
329.9999974427038
  0
LINE
  5
2D5
330
B9
100
AcDbEntity
  8
Folie _ 3
  6
Continuous
 62
     7
370
    20
100
AcDbLine
 10
194.9037052494081
 20
143.4899133793448
 30
0.0
 11
195.3263552289995
 21
144.1565799913738
 31
0.0
  0
ARC
  5
2D6
330
B9
100
AcDbEntity
  8
Folie _ 3
  6
Continuous
 62
     7
370
    20
100
AcDbCircle
 10
195.6150302392038
 20
143.9899133644436
 30
0.0
 40
0.3333288181230383
100
AcDbArc
 50
30.00044020598454
 51
149.9999952245361
  0
LINE
  5
2D7
330
B9
100
AcDbEntity
  8
Folie _ 3
  6
Continuous
 62
     7
370
    20
100
AcDbLine
 10
195.9037051898035
 20
144.1565799913738
 30
0.0
 11
196.3263552886042
 21
143.4899133793448
 31
0.0
  0
ARC
  5
2D8
330
B9
100
AcDbEntity
  8
Folie _ 3
  6
Continuous
 62
     7
370
    20
100
AcDbCircle
 10
196.6150302392038
 20
143.6565799913738
 30
0.0
 40
0.3333331466701038
100
AcDbArc
 50
210.0000076799411
 51
270.0
  0
ARC
  5
2D9
330
B9
100
AcDbEntity
  8
Folie _ 3
  6
Continuous
 62
     7
370
    20
100
AcDbCircle
 10
196.6150302392038
 20
143.6565799913738
 30
0.0
 40
0.3333333134651184
100
AcDbArc
 50
270.0
 51
329.9999974427038
  0
LINE
  5
2DA
330
B9
100
AcDbEntity
  8
Folie _ 3
  6
Continuous
 62
     7
370
    20
100
AcDbLine
 10
196.9037052494081
 20
143.4899133793448
 30
0.0
 11
197.3263552289995
 21
144.1565799913738
 31
0.0
  0
ARC
  5
2DB
330
B9
100
AcDbEntity
  8
Folie _ 3
  6
Continuous
 62
     7
370
    20
100
AcDbCircle
 10
197.6150302392038
 20
143.9899133644436
 30
0.0
 40
0.3333288181230383
100
AcDbArc
 50
30.00044020598454
 51
149.9999952245361
  0
LINE
  5
2DC
330
B9
100
AcDbEntity
  8
Folie _ 3
  6
Continuous
 62
     7
370
    20
100
AcDbLine
 10
197.9037051898035
 20
144.1565799913738
 30
0.0
 11
198.3263552886042
 21
143.4899133793448
 31
0.0
  0
ARC
  5
2DD
330
B9
100
AcDbEntity
  8
Folie _ 3
  6
Continuous
 62
     7
370
    20
100
AcDbCircle
 10
198.6150302392038
 20
143.6565799913738
 30
0.0
 40
0.3333331466701038
100
AcDbArc
 50
210.0000076799411
 51
270.0
  0
ARC
  5
2DE
330
B9
100
AcDbEntity
  8
Folie _ 3
  6
Continuous
 62
     7
370
    20
100
AcDbCircle
 10
198.6150302392038
 20
143.6565799913738
 30
0.0
 40
0.3333333134651184
100
AcDbArc
 50
270.0
 51
329.9999974427038
  0
LINE
  5
2DF
330
B9
100
AcDbEntity
  8
Folie _ 3
  6
Continuous
 62
     7
370
    20
100
AcDbLine
 10
198.9037052494081
 20
143.4899133793448
 30
0.0
 11
199.3263552289995
 21
144.1565799913738
 31
0.0
  0
ARC
  5
2E0
330
B9
100
AcDbEntity
  8
Folie _ 3
  6
Continuous
 62
     7
370
    20
100
AcDbCircle
 10
199.6150302392038
 20
143.9899133644436
 30
0.0
 40
0.3333288181230383
100
AcDbArc
 50
30.00044020598454
 51
149.9999952245361
  0
LINE
  5
2E1
330
B9
100
AcDbEntity
  8
Folie _ 3
  6
Continuous
 62
     7
370
    20
100
AcDbLine
 10
199.9037051898035
 20
144.1565799913738
 30
0.0
 11
200.3263552886042
 21
143.4899133793448
 31
0.0
  0
ARC
  5
2E2
330
B9
100
AcDbEntity
  8
Folie _ 3
  6
Continuous
 62
     7
370
    20
100
AcDbCircle
 10
200.6150302392038
 20
143.6565799913738
 30
0.0
 40
0.3333331466701038
100
AcDbArc
 50
210.0000076799411
 51
270.0
  0
ARC
  5
2E3
330
B9
100
AcDbEntity
  8
Folie _ 3
  6
Continuous
 62
     7
370
    20
100
AcDbCircle
 10
200.6150302392038
 20
143.6565799913738
 30
0.0
 40
0.3333333134651184
100
AcDbArc
 50
270.0
 51
329.9999974427038
  0
LINE
  5
2E4
330
B9
100
AcDbEntity
  8
Folie _ 3
  6
Continuous
 62
     7
370
    20
100
AcDbLine
 10
200.9037052494081
 20
143.4899133793448
 30
0.0
 11
201.3263552289995
 21
144.1565799913738
 31
0.0
  0
ARC
  5
2E5
330
B9
100
AcDbEntity
  8
Folie _ 3
  6
Continuous
 62
     7
370
    20
100
AcDbCircle
 10
201.6150302392038
 20
143.9899133644436
 30
0.0
 40
0.3333288181230383
100
AcDbArc
 50
30.00044020598454
 51
149.9999952245361
  0
LINE
  5
2E6
330
B9
100
AcDbEntity
  8
Folie _ 3
  6
Continuous
 62
     7
370
    20
100
AcDbLine
 10
201.9037051898035
 20
144.1565799913738
 30
0.0
 11
202.3263552886042
 21
143.4899133793448
 31
0.0
  0
ARC
  5
2E7
330
B9
100
AcDbEntity
  8
Folie _ 3
  6
Continuous
 62
     7
370
    20
100
AcDbCircle
 10
202.6150302392038
 20
143.6565799913738
 30
0.0
 40
0.3333331466701038
100
AcDbArc
 50
210.0000076799411
 51
270.0
  0
ARC
  5
2E8
330
B9
100
AcDbEntity
  8
Folie _ 3
  6
Continuous
 62
     7
370
    20
100
AcDbCircle
 10
202.6150302392038
 20
143.6565799913738
 30
0.0
 40
0.3333333134651184
100
AcDbArc
 50
270.0
 51
329.9999974427038
  0
LINE
  5
2E9
330
B9
100
AcDbEntity
  8
Folie _ 3
  6
Continuous
 62
     7
370
    20
100
AcDbLine
 10
202.9037052494081
 20
143.4899133793448
 30
0.0
 11
203.3263552289995
 21
144.1565799913738
 31
0.0
  0
ARC
  5
2EA
330
B9
100
AcDbEntity
  8
Folie _ 3
  6
Continuous
 62
     7
370
    20
100
AcDbCircle
 10
203.6150302392038
 20
143.9899133644436
 30
0.0
 40
0.3333288181230383
100
AcDbArc
 50
30.00044020598454
 51
149.9999952245361
  0
LINE
  5
2EB
330
B9
100
AcDbEntity
  8
Folie _ 3
  6
Continuous
 62
     7
370
    20
100
AcDbLine
 10
203.9037051898036
 20
144.1565799913738
 30
0.0
 11
204.3263552886042
 21
143.4899133793448
 31
0.0
  0
ARC
  5
2EC
330
B9
100
AcDbEntity
  8
Folie _ 3
  6
Continuous
 62
     7
370
    20
100
AcDbCircle
 10
204.6150302392039
 20
143.6565799913738
 30
0.0
 40
0.3333331466701038
100
AcDbArc
 50
210.0000076799411
 51
270.0
  0
ARC
  5
2ED
330
B9
100
AcDbEntity
  8
Folie _ 3
  6
Continuous
 62
     7
370
    20
100
AcDbCircle
 10
204.6150302392039
 20
143.6565799913738
 30
0.0
 40
0.3333333134651184
100
AcDbArc
 50
270.0
 51
329.9999974427038
  0
LINE
  5
2EE
330
B9
100
AcDbEntity
  8
12_Linie
 62
     7
370
    20
100
AcDbLine
 10
143.2285702392035
 20
144.3232466779087
 30
0.0
 11
143.2285702392035
 21
143.3232466779087
 31
0.0
  0
LINE
  5
2EF
330
B9
100
AcDbEntity
  8
12_Linie
 62
     7
370
    20
100
AcDbLine
 10
171.6150302392034
 20
144.3232466779087
 30
0.0
 11
171.6150302392034
 21
143.3232466779087
 31
0.0
  0
ARC
  5
2F0
330
B9
100
AcDbEntity
  8
Folie _ 3
  6
Continuous
 62
     7
370
    20
100
AcDbCircle
 10
143.2285702392034
 20
143.9899133644436
 30
0.0
 40
0.3333288181230383
100
AcDbArc
 50
89.9999999999883
 51
149.9995597940155
  0
LINE
  5
2F1
330
B9
100
AcDbEntity
  8
Folie _ 3
  6
Continuous
 62
     7
370
    20
100
AcDbLine
 10
142.9398952886037
 20
144.1565799913738
 30
0.0
 11
142.517245189803
 21
143.4899133793448
 31
0.0
  0
ARC
  5
2F2
330
B9
100
AcDbEntity
  8
Folie _ 3
  6
Continuous
 62
     7
370
    20
100
AcDbCircle
 10
142.2285702392034
 20
143.6565799913738
 30
0.0
 40
0.3333331466701038
100
AcDbArc
 50
270.0
 51
329.999992320059
  0
ARC
  5
2F3
330
B9
100
AcDbEntity
  8
Folie _ 3
  6
Continuous
 62
     7
370
    20
100
AcDbCircle
 10
142.2285702392034
 20
143.6565799913738
 30
0.0
 40
0.3333333134651184
100
AcDbArc
 50
210.0000025572962
 51
270.0
  0
LINE
  5
2F4
330
B9
100
AcDbEntity
  8
Folie _ 3
  6
Continuous
 62
     7
370
    20
100
AcDbLine
 10
141.9398952289991
 20
143.4899133793448
 30
0.0
 11
141.5172452494077
 21
144.1565799913738
 31
0.0
  0
ARC
  5
2F5
330
B9
100
AcDbEntity
  8
Folie _ 3
  6
Continuous
 62
     7
370
    20
100
AcDbCircle
 10
141.2285702392034
 20
143.9899133644436
 30
0.0
 40
0.3333288181230383
100
AcDbArc
 50
30.00000477546394
 51
149.9995597940155
  0
LINE
  5
2F6
330
B9
100
AcDbEntity
  8
Folie _ 3
  6
Continuous
 62
     7
370
    20
100
AcDbLine
 10
140.9398952886037
 20
144.1565799913738
 30
0.0
 11
140.517245189803
 21
143.4899133793448
 31
0.0
  0
ARC
  5
2F7
330
B9
100
AcDbEntity
  8
Folie _ 3
  6
Continuous
 62
     7
370
    20
100
AcDbCircle
 10
140.2285702392034
 20
143.6565799913738
 30
0.0
 40
0.3333331466701038
100
AcDbArc
 50
270.0
 51
329.999992320059
  0
ARC
  5
2F8
330
B9
100
AcDbEntity
  8
Folie _ 3
  6
Continuous
 62
     7
370
    20
100
AcDbCircle
 10
140.2285702392034
 20
143.6565799913738
 30
0.0
 40
0.3333333134651184
100
AcDbArc
 50
210.0000025572962
 51
270.0
  0
LINE
  5
2F9
330
B9
100
AcDbEntity
  8
Folie _ 3
  6
Continuous
 62
     7
370
    20
100
AcDbLine
 10
139.9398952289991
 20
143.4899133793448
 30
0.0
 11
139.5172452494077
 21
144.1565799913738
 31
0.0
  0
ARC
  5
2FA
330
B9
100
AcDbEntity
  8
Folie _ 3
  6
Continuous
 62
     7
370
    20
100
AcDbCircle
 10
139.2285702392034
 20
143.9899133644436
 30
0.0
 40
0.3333288181230383
100
AcDbArc
 50
30.00000477546394
 51
149.9995597940155
  0
LINE
  5
2FB
330
B9
100
AcDbEntity
  8
Folie _ 3
  6
Continuous
 62
     7
370
    20
100
AcDbLine
 10
138.9398952886037
 20
144.1565799913738
 30
0.0
 11
138.517245189803
 21
143.4899133793448
 31
0.0
  0
ARC
  5
2FC
330
B9
100
AcDbEntity
  8
Folie _ 3
  6
Continuous
 62
     7
370
    20
100
AcDbCircle
 10
138.2285702392034
 20
143.6565799913738
 30
0.0
 40
0.3333331466701038
100
AcDbArc
 50
270.0
 51
329.999992320059
  0
ARC
  5
2FD
330
B9
100
AcDbEntity
  8
Folie _ 3
  6
Continuous
 62
     7
370
    20
100
AcDbCircle
 10
138.2285702392034
 20
143.6565799913738
 30
0.0
 40
0.3333333134651184
100
AcDbArc
 50
210.0000025572962
 51
270.0
  0
LINE
  5
2FE
330
B9
100
AcDbEntity
  8
Folie _ 3
  6
Continuous
 62
     7
370
    20
100
AcDbLine
 10
137.9398952289991
 20
143.4899133793448
 30
0.0
 11
137.5172452494077
 21
144.1565799913738
 31
0.0
  0
ARC
  5
2FF
330
B9
100
AcDbEntity
  8
Folie _ 3
  6
Continuous
 62
     7
370
    20
100
AcDbCircle
 10
137.2285702392034
 20
143.9899133644436
 30
0.0
 40
0.3333288181230383
100
AcDbArc
 50
30.00000477546394
 51
149.9995597940155
  0
LINE
  5
300
330
B9
100
AcDbEntity
  8
Folie _ 3
  6
Continuous
 62
     7
370
    20
100
AcDbLine
 10
136.9398952886037
 20
144.1565799913738
 30
0.0
 11
136.517245189803
 21
143.4899133793448
 31
0.0
  0
ARC
  5
301
330
B9
100
AcDbEntity
  8
Folie _ 3
  6
Continuous
 62
     7
370
    20
100
AcDbCircle
 10
136.2285702392034
 20
143.6565799913738
 30
0.0
 40
0.3333331466701038
100
AcDbArc
 50
270.0
 51
329.999992320059
  0
ARC
  5
302
330
B9
100
AcDbEntity
  8
Folie _ 3
  6
Continuous
 62
     7
370
    20
100
AcDbCircle
 10
136.2285702392034
 20
143.6565799913738
 30
0.0
 40
0.3333333134651184
100
AcDbArc
 50
210.0000025572962
 51
270.0
  0
LINE
  5
303
330
B9
100
AcDbEntity
  8
Folie _ 3
  6
Continuous
 62
     7
370
    20
100
AcDbLine
 10
135.939895228999
 20
143.4899133793448
 30
0.0
 11
135.5172452494076
 21
144.1565799913738
 31
0.0
  0
ARC
  5
304
330
B9
100
AcDbEntity
  8
Folie _ 3
  6
Continuous
 62
     7
370
    20
100
AcDbCircle
 10
135.2285702392033
 20
143.9899133644436
 30
0.0
 40
0.3333288181230383
100
AcDbArc
 50
30.00000477546394
 51
149.9995597940155
  0
LINE
  5
305
330
B9
100
AcDbEntity
  8
Folie _ 3
  6
Continuous
 62
     7
370
    20
100
AcDbLine
 10
134.9398952886035
 20
144.1565799913738
 30
0.0
 11
134.517245189803
 21
143.4899133793448
 31
0.0
  0
ARC
  5
306
330
B9
100
AcDbEntity
  8
Folie _ 3
  6
Continuous
 62
     7
370
    20
100
AcDbCircle
 10
134.2285702392032
 20
143.6565799913738
 30
0.0
 40
0.3333331466701038
100
AcDbArc
 50
270.0
 51
329.999992320059
  0
ARC
  5
307
330
B9
100
AcDbEntity
  8
Folie _ 3
  6
Continuous
 62
     7
370
    20
100
AcDbCircle
 10
134.2285702392032
 20
143.6565799913738
 30
0.0
 40
0.3333333134651184
100
AcDbArc
 50
210.0000025572962
 51
270.0
  0
LINE
  5
308
330
B9
100
AcDbEntity
  8
Folie _ 3
  6
Continuous
 62
     7
370
    20
100
AcDbLine
 10
133.9398952289989
 20
143.4899133793448
 30
0.0
 11
133.5172452494075
 21
144.1565799913738
 31
0.0
  0
ARC
  5
309
330
B9
100
AcDbEntity
  8
Folie _ 3
  6
Continuous
 62
     7
370
    20
100
AcDbCircle
 10
133.2285702392032
 20
143.9899133644436
 30
0.0
 40
0.3333288181230383
100
AcDbArc
 50
30.00000477546394
 51
149.9995597940155
  0
LINE
  5
30A
330
B9
100
AcDbEntity
  8
Folie _ 3
  6
Continuous
 62
     7
370
    20
100
AcDbLine
 10
132.9398952886035
 20
144.1565799913738
 30
0.0
 11
132.5172451898029
 21
143.4899133793448
 31
0.0
  0
ARC
  5
30B
330
B9
100
AcDbEntity
  8
Folie _ 3
  6
Continuous
 62
     7
370
    20
100
AcDbCircle
 10
132.2285702392032
 20
143.6565799913738
 30
0.0
 40
0.3333331466701038
100
AcDbArc
 50
270.0
 51
329.999992320059
  0
ARC
  5
30C
330
B9
100
AcDbEntity
  8
Folie _ 3
  6
Continuous
 62
     7
370
    20
100
AcDbCircle
 10
132.2285702392032
 20
143.6565799913738
 30
0.0
 40
0.3333333134651184
100
AcDbArc
 50
210.0000025572962
 51
270.0
  0
LINE
  5
30D
330
B9
100
AcDbEntity
  8
Folie _ 3
  6
Continuous
 62
     7
370
    20
100
AcDbLine
 10
131.9398952289989
 20
143.4899133793448
 30
0.0
 11
131.5172452494075
 21
144.1565799913738
 31
0.0
  0
ARC
  5
30E
330
B9
100
AcDbEntity
  8
Folie _ 3
  6
Continuous
 62
     7
370
    20
100
AcDbCircle
 10
131.2285702392032
 20
143.9899133644436
 30
0.0
 40
0.3333288181230383
100
AcDbArc
 50
30.00000477546394
 51
149.9995597940155
  0
LINE
  5
30F
330
B9
100
AcDbEntity
  8
Folie _ 3
  6
Continuous
 62
     7
370
    20
100
AcDbLine
 10
130.9398952886035
 20
144.1565799913738
 30
0.0
 11
130.5172451898029
 21
143.4899133793448
 31
0.0
  0
ARC
  5
310
330
B9
100
AcDbEntity
  8
Folie _ 3
  6
Continuous
 62
     7
370
    20
100
AcDbCircle
 10
130.2285702392032
 20
143.6565799913738
 30
0.0
 40
0.3333331466701038
100
AcDbArc
 50
270.0
 51
329.999992320059
  0
ARC
  5
311
330
B9
100
AcDbEntity
  8
Folie _ 3
  6
Continuous
 62
     7
370
    20
100
AcDbCircle
 10
130.2285702392032
 20
143.6565799913738
 30
0.0
 40
0.3333333134651184
100
AcDbArc
 50
210.0000025572962
 51
270.0
  0
LINE
  5
312
330
B9
100
AcDbEntity
  8
Folie _ 3
  6
Continuous
 62
     7
370
    20
100
AcDbLine
 10
129.9398952289989
 20
143.4899133793448
 30
0.0
 11
129.5172452494075
 21
144.1565799913738
 31
0.0
  0
ARC
  5
313
330
B9
100
AcDbEntity
  8
Folie _ 3
  6
Continuous
 62
     7
370
    20
100
AcDbCircle
 10
129.2285702392032
 20
143.9899133644436
 30
0.0
 40
0.3333288181230383
100
AcDbArc
 50
30.00000477546394
 51
149.9995597940155
  0
LINE
  5
314
330
B9
100
AcDbEntity
  8
Folie _ 3
  6
Continuous
 62
     7
370
    20
100
AcDbLine
 10
128.9398952886035
 20
144.1565799913738
 30
0.0
 11
128.5172451898029
 21
143.4899133793448
 31
0.0
  0
ARC
  5
315
330
B9
100
AcDbEntity
  8
Folie _ 3
  6
Continuous
 62
     7
370
    20
100
AcDbCircle
 10
128.2285702392032
 20
143.6565799913738
 30
0.0
 40
0.3333331466701038
100
AcDbArc
 50
270.0
 51
329.999992320059
  0
ARC
  5
316
330
B9
100
AcDbEntity
  8
Folie _ 3
  6
Continuous
 62
     7
370
    20
100
AcDbCircle
 10
128.2285702392032
 20
143.6565799913738
 30
0.0
 40
0.3333333134651184
100
AcDbArc
 50
210.0000025572962
 51
270.0
  0
LINE
  5
317
330
B9
100
AcDbEntity
  8
Folie _ 3
  6
Continuous
 62
     7
370
    20
100
AcDbLine
 10
127.9398952289989
 20
143.4899133793448
 30
0.0
 11
127.5172452494075
 21
144.1565799913738
 31
0.0
  0
ARC
  5
318
330
B9
100
AcDbEntity
  8
Folie _ 3
  6
Continuous
 62
     7
370
    20
100
AcDbCircle
 10
127.2285702392032
 20
143.9899133644436
 30
0.0
 40
0.3333288181230383
100
AcDbArc
 50
30.00000477546394
 51
149.9995597940155
  0
LINE
  5
319
330
B9
100
AcDbEntity
  8
Folie _ 3
  6
Continuous
 62
     7
370
    20
100
AcDbLine
 10
126.9398952886035
 20
144.1565799913738
 30
0.0
 11
126.5172451898029
 21
143.4899133793448
 31
0.0
  0
ARC
  5
31A
330
B9
100
AcDbEntity
  8
Folie _ 3
  6
Continuous
 62
     7
370
    20
100
AcDbCircle
 10
126.2285702392032
 20
143.6565799913738
 30
0.0
 40
0.3333331466701038
100
AcDbArc
 50
270.0
 51
329.999992320059
  0
ARC
  5
31B
330
B9
100
AcDbEntity
  8
Folie _ 3
  6
Continuous
 62
     7
370
    20
100
AcDbCircle
 10
126.2285702392032
 20
143.6565799913738
 30
0.0
 40
0.3333333134651184
100
AcDbArc
 50
210.0000025572962
 51
270.0
  0
LINE
  5
31C
330
B9
100
AcDbEntity
  8
Folie _ 3
  6
Continuous
 62
     7
370
    20
100
AcDbLine
 10
125.9398952289989
 20
143.4899133793448
 30
0.0
 11
125.5172452494075
 21
144.1565799913738
 31
0.0
  0
ARC
  5
31D
330
B9
100
AcDbEntity
  8
Folie _ 3
  6
Continuous
 62
     7
370
    20
100
AcDbCircle
 10
125.2285702392032
 20
143.9899133644436
 30
0.0
 40
0.3333288181230383
100
AcDbArc
 50
30.00000477546394
 51
149.9995597940155
  0
LINE
  5
31E
330
B9
100
AcDbEntity
  8
Folie _ 3
  6
Continuous
 62
     7
370
    20
100
AcDbLine
 10
124.9398952886035
 20
144.1565799913738
 30
0.0
 11
124.5172451898029
 21
143.4899133793448
 31
0.0
  0
ARC
  5
31F
330
B9
100
AcDbEntity
  8
Folie _ 3
  6
Continuous
 62
     7
370
    20
100
AcDbCircle
 10
124.2285702392032
 20
143.6565799913738
 30
0.0
 40
0.3333331466701038
100
AcDbArc
 50
270.0
 51
329.999992320059
  0
ARC
  5
320
330
B9
100
AcDbEntity
  8
Folie _ 3
  6
Continuous
 62
     7
370
    20
100
AcDbCircle
 10
124.2285702392032
 20
143.6565799913738
 30
0.0
 40
0.3333333134651184
100
AcDbArc
 50
210.0000025572962
 51
270.0
  0
LINE
  5
321
330
B9
100
AcDbEntity
  8
Folie _ 3
  6
Continuous
 62
     7
370
    20
100
AcDbLine
 10
123.9398952289989
 20
143.4899133793448
 30
0.0
 11
123.5172452494075
 21
144.1565799913738
 31
0.0
  0
ARC
  5
322
330
B9
100
AcDbEntity
  8
Folie _ 3
  6
Continuous
 62
     7
370
    20
100
AcDbCircle
 10
123.2285702392031
 20
143.9899133644436
 30
0.0
 40
0.3333288181230383
100
AcDbArc
 50
30.00000477546394
 51
149.9995597940155
  0
LINE
  5
323
330
B9
100
AcDbEntity
  8
Folie _ 3
  6
Continuous
 62
     7
370
    20
100
AcDbLine
 10
122.9398952886034
 20
144.1565799913738
 30
0.0
 11
122.5172451898028
 21
143.4899133793448
 31
0.0
  0
ARC
  5
324
330
B9
100
AcDbEntity
  8
Folie _ 3
  6
Continuous
 62
     7
370
    20
100
AcDbCircle
 10
122.2285702392031
 20
143.6565799913738
 30
0.0
 40
0.3333331466701038
100
AcDbArc
 50
270.0
 51
329.999992320059
  0
ARC
  5
325
330
B9
100
AcDbEntity
  8
Folie _ 3
  6
Continuous
 62
     7
370
    20
100
AcDbCircle
 10
122.2285702392031
 20
143.6565799913738
 30
0.0
 40
0.3333333134651184
100
AcDbArc
 50
210.0000025572962
 51
270.0
  0
LINE
  5
326
330
B9
100
AcDbEntity
  8
Folie _ 3
  6
Continuous
 62
     7
370
    20
100
AcDbLine
 10
121.9398952289987
 20
143.4899133793448
 30
0.0
 11
121.5172452494073
 21
144.1565799913738
 31
0.0
  0
ARC
  5
327
330
B9
100
AcDbEntity
  8
Folie _ 3
  6
Continuous
 62
     7
370
    20
100
AcDbCircle
 10
121.228570239203
 20
143.9899133644436
 30
0.0
 40
0.3333288181230383
100
AcDbArc
 50
30.00000477546394
 51
149.9995597940155
  0
LINE
  5
328
330
B9
100
AcDbEntity
  8
Folie _ 3
  6
Continuous
 62
     7
370
    20
100
AcDbLine
 10
120.9398952886033
 20
144.1565799913738
 30
0.0
 11
120.5172451898027
 21
143.4899133793448
 31
0.0
  0
ARC
  5
329
330
B9
100
AcDbEntity
  8
Folie _ 3
  6
Continuous
 62
     7
370
    20
100
AcDbCircle
 10
120.228570239203
 20
143.6565799913738
 30
0.0
 40
0.3333331466701038
100
AcDbArc
 50
270.0
 51
329.999992320059
  0
ARC
  5
32A
330
B9
100
AcDbEntity
  8
Folie _ 3
  6
Continuous
 62
     7
370
    20
100
AcDbCircle
 10
120.228570239203
 20
143.6565799913738
 30
0.0
 40
0.3333333134651184
100
AcDbArc
 50
210.0000025572962
 51
270.0
  0
LINE
  5
32B
330
B9
100
AcDbEntity
  8
Folie _ 3
  6
Continuous
 62
     7
370
    20
100
AcDbLine
 10
119.9398952289987
 20
143.4899133793448
 30
0.0
 11
119.5172452494073
 21
144.1565799913738
 31
0.0
  0
ARC
  5
32C
330
B9
100
AcDbEntity
  8
Folie _ 3
  6
Continuous
 62
     7
370
    20
100
AcDbCircle
 10
119.228570239203
 20
143.9899133644436
 30
0.0
 40
0.3333288181230383
100
AcDbArc
 50
30.00000477546394
 51
149.9995597940155
  0
LINE
  5
32D
330
B9
100
AcDbEntity
  8
Folie _ 3
  6
Continuous
 62
     7
370
    20
100
AcDbLine
 10
118.9398952886033
 20
144.1565799913738
 30
0.0
 11
118.5172451898027
 21
143.4899133793448
 31
0.0
  0
ARC
  5
32E
330
B9
100
AcDbEntity
  8
Folie _ 3
  6
Continuous
 62
     7
370
    20
100
AcDbCircle
 10
118.228570239203
 20
143.6565799913738
 30
0.0
 40
0.3333331466701038
100
AcDbArc
 50
270.0
 51
329.999992320059
  0
ARC
  5
32F
330
B9
100
AcDbEntity
  8
Folie _ 3
  6
Continuous
 62
     7
370
    20
100
AcDbCircle
 10
118.228570239203
 20
143.6565799913738
 30
0.0
 40
0.3333333134651184
100
AcDbArc
 50
210.0000025572962
 51
270.0
  0
LINE
  5
330
330
B9
100
AcDbEntity
  8
Folie _ 3
  6
Continuous
 62
     7
370
    20
100
AcDbLine
 10
117.9398952289987
 20
143.4899133793448
 30
0.0
 11
117.5172452494073
 21
144.1565799913738
 31
0.0
  0
ARC
  5
331
330
B9
100
AcDbEntity
  8
Folie _ 3
  6
Continuous
 62
     7
370
    20
100
AcDbCircle
 10
117.228570239203
 20
143.9899133644436
 30
0.0
 40
0.3333288181230383
100
AcDbArc
 50
30.00000477546394
 51
149.9995597940155
  0
LINE
  5
332
330
B9
100
AcDbEntity
  8
Folie _ 3
  6
Continuous
 62
     7
370
    20
100
AcDbLine
 10
116.9398952886033
 20
144.1565799913738
 30
0.0
 11
116.5172451898027
 21
143.4899133793448
 31
0.0
  0
ARC
  5
333
330
B9
100
AcDbEntity
  8
Folie _ 3
  6
Continuous
 62
     7
370
    20
100
AcDbCircle
 10
116.228570239203
 20
143.6565799913738
 30
0.0
 40
0.3333331466701038
100
AcDbArc
 50
270.0
 51
329.999992320059
  0
ARC
  5
334
330
B9
100
AcDbEntity
  8
Folie _ 3
  6
Continuous
 62
     7
370
    20
100
AcDbCircle
 10
116.228570239203
 20
143.6565799913738
 30
0.0
 40
0.3333333134651184
100
AcDbArc
 50
210.0000025572962
 51
270.0
  0
LINE
  5
335
330
B9
100
AcDbEntity
  8
Folie _ 3
  6
Continuous
 62
     7
370
    20
100
AcDbLine
 10
115.9398952289987
 20
143.4899133793448
 30
0.0
 11
115.5172452494073
 21
144.1565799913738
 31
0.0
  0
ARC
  5
336
330
B9
100
AcDbEntity
  8
Folie _ 3
  6
Continuous
 62
     7
370
    20
100
AcDbCircle
 10
115.228570239203
 20
143.9899133644436
 30
0.0
 40
0.3333288181230383
100
AcDbArc
 50
30.00000477546394
 51
149.9995597940155
  0
LINE
  5
337
330
B9
100
AcDbEntity
  8
Folie _ 3
  6
Continuous
 62
     7
370
    20
100
AcDbLine
 10
114.9398952886033
 20
144.1565799913738
 30
0.0
 11
114.5172451898027
 21
143.4899133793448
 31
0.0
  0
ARC
  5
338
330
B9
100
AcDbEntity
  8
Folie _ 3
  6
Continuous
 62
     7
370
    20
100
AcDbCircle
 10
114.228570239203
 20
143.6565799913738
 30
0.0
 40
0.3333331466701038
100
AcDbArc
 50
270.0
 51
329.999992320059
  0
ARC
  5
339
330
B9
100
AcDbEntity
  8
Folie _ 3
  6
Continuous
 62
     7
370
    20
100
AcDbCircle
 10
114.228570239203
 20
143.6565799913738
 30
0.0
 40
0.3333333134651184
100
AcDbArc
 50
210.0000025572962
 51
270.0
  0
LINE
  5
33A
330
B9
100
AcDbEntity
  8
Folie _ 3
  6
Continuous
 62
     7
370
    20
100
AcDbLine
 10
113.9398952289987
 20
143.4899133793448
 30
0.0
 11
113.5172452494073
 21
144.1565799913738
 31
0.0
  0
ARC
  5
33B
330
B9
100
AcDbEntity
  8
Folie _ 3
  6
Continuous
 62
     7
370
    20
100
AcDbCircle
 10
113.228570239203
 20
143.9899133644436
 30
0.0
 40
0.3333288181230383
100
AcDbArc
 50
30.00000477546394
 51
149.9995597940155
  0
LINE
  5
33C
330
B9
100
AcDbEntity
  8
Folie _ 3
  6
Continuous
 62
     7
370
    20
100
AcDbLine
 10
112.9398952886033
 20
144.1565799913738
 30
0.0
 11
112.5172451898027
 21
143.4899133793448
 31
0.0
  0
ARC
  5
33D
330
B9
100
AcDbEntity
  8
Folie _ 3
  6
Continuous
 62
     7
370
    20
100
AcDbCircle
 10
112.228570239203
 20
143.6565799913738
 30
0.0
 40
0.3333331466701038
100
AcDbArc
 50
270.0
 51
329.999992320059
  0
ARC
  5
33E
330
B9
100
AcDbEntity
  8
Folie _ 3
  6
Continuous
 62
     7
370
    20
100
AcDbCircle
 10
112.228570239203
 20
143.6565799913738
 30
0.0
 40
0.3333333134651184
100
AcDbArc
 50
210.0000025572962
 51
270.0
  0
LINE
  5
33F
330
B9
100
AcDbEntity
  8
Folie _ 3
  6
Continuous
 62
     7
370
    20
100
AcDbLine
 10
111.9398952289987
 20
143.4899133793448
 30
0.0
 11
111.5172452494073
 21
144.1565799913738
 31
0.0
  0
ARC
  5
340
330
B9
100
AcDbEntity
  8
Folie _ 3
  6
Continuous
 62
     7
370
    20
100
AcDbCircle
 10
111.228570239203
 20
143.9899133644436
 30
0.0
 40
0.3333288181230383
100
AcDbArc
 50
30.00000477546394
 51
149.9995597940155
  0
LINE
  5
341
330
B9
100
AcDbEntity
  8
Folie _ 3
  6
Continuous
 62
     7
370
    20
100
AcDbLine
 10
110.9398952886033
 20
144.1565799913738
 30
0.0
 11
110.5172451898027
 21
143.4899133793448
 31
0.0
  0
ARC
  5
342
330
B9
100
AcDbEntity
  8
Folie _ 3
  6
Continuous
 62
     7
370
    20
100
AcDbCircle
 10
110.2285702392029
 20
143.6565799913738
 30
0.0
 40
0.3333331466701038
100
AcDbArc
 50
270.0
 51
329.999992320059
  0
ARC
  5
343
330
B9
100
AcDbEntity
  8
Folie _ 3
  6
Continuous
 62
     7
370
    20
100
AcDbCircle
 10
110.2285702392029
 20
143.6565799913738
 30
0.0
 40
0.3333333134651184
100
AcDbArc
 50
210.0000025572962
 51
270.0
  0
LINE
  5
344
330
B9
100
AcDbEntity
  8
STANDARD
  6
Continuous
 62
     7
100
AcDbLine
 10
144.8664859897152
 20
142.7352735136304
 30
0.0
 11
145.1184744886916
 21
142.7352735136304
 31
0.0
  0
LINE
  5
345
330
B9
100
AcDbEntity
  8
STANDARD
  6
Continuous
 62
     7
100
AcDbLine
 10
144.8664859897152
 20
142.7352735136304
 30
0.0
 11
144.6984936570642
 21
143.3232466779089
 31
0.0
  0
LINE
  5
346
330
B9
100
AcDbEntity
  8
STANDARD
  6
Continuous
 62
     7
100
AcDbLine
 10
145.1184744886916
 20
142.7352735136304
 30
0.0
 11
145.2864668213426
 21
143.3232466779089
 31
0.0
  0
LINE
  5
347
330
B9
100
AcDbEntity
  8
STANDARD
  6
Continuous
 62
     7
100
AcDbLine
 10
144.6984936570642
 20
143.3232466779089
 30
0.0
 11
144.6984936570642
 21
143.4072428442341
 31
0.0
  0
LINE
  5
348
330
B9
100
AcDbEntity
  8
STANDARD
  6
Continuous
 62
     7
100
AcDbLine
 10
145.2864668213426
 20
143.3232466779089
 30
0.0
 11
145.2864668213426
 21
143.4072428442341
 31
0.0
  0
LINE
  5
349
330
B9
100
AcDbEntity
  8
STANDARD
  6
Continuous
 62
     7
100
AcDbLine
 10
144.8664859897152
 20
139.1477804506354
 30
0.0
 11
144.8664859897152
 21
142.7352735136304
 31
0.0
  0
LINE
  5
34A
330
B9
100
AcDbEntity
  8
STANDARD
  6
Continuous
 62
     7
100
AcDbLine
 10
145.1184744886916
 20
139.1477804506354
 30
0.0
 11
145.1184744886916
 21
142.7352735136304
 31
0.0
  0
LINE
  5
34B
330
B9
100
AcDbEntity
  8
STANDARD
  6
Continuous
 62
     7
100
AcDbLine
 10
144.8664859897152
 20
139.1477804506354
 30
0.0
 11
145.1184744886916
 21
139.1477804506354
 31
0.0
  0
LINE
  5
34C
330
B9
100
AcDbEntity
  8
STANDARD
  6
Continuous
 62
     7
100
AcDbLine
 10
144.0265243264603
 20
143.3232466779089
 30
0.0
 11
144.0265243264603
 21
143.4072428442341
 31
0.0
  0
LINE
  5
34D
330
B9
100
AcDbEntity
  8
STANDARD
  6
Continuous
 62
     7
100
AcDbLine
 10
145.9584361519465
 20
143.3232466779089
 30
0.0
 11
145.9584361519465
 21
143.4072428442341
 31
0.0
  0
LINE
  5
34E
330
B9
100
AcDbEntity
  8
STANDARD
  6
Continuous
 62
     7
100
AcDbLine
 10
144.0265243264603
 20
143.3232466779089
 30
0.0
 11
145.9584361519465
 21
143.3232466779089
 31
0.0
  0
LINE
  5
34F
330
B9
100
AcDbEntity
  8
STANDARD
  6
Continuous
 62
     7
100
AcDbLine
 10
144.0265243264603
 20
143.4072428442341
 30
0.0
 11
145.9584361519465
 21
143.4072428442341
 31
0.0
  0
LINE
  5
350
330
B9
100
AcDbEntity
  8
STANDARD
  6
Continuous
 62
     7
100
AcDbLine
 10
169.7251259897152
 20
142.7352735136304
 30
0.0
 11
169.9771144886917
 21
142.7352735136304
 31
0.0
  0
LINE
  5
351
330
B9
100
AcDbEntity
  8
STANDARD
  6
Continuous
 62
     7
100
AcDbLine
 10
169.7251259897152
 20
142.7352735136304
 30
0.0
 11
169.5571336570642
 21
143.3232466779089
 31
0.0
  0
LINE
  5
352
330
B9
100
AcDbEntity
  8
STANDARD
  6
Continuous
 62
     7
100
AcDbLine
 10
169.9771144886917
 20
142.7352735136304
 30
0.0
 11
170.1451068213427
 21
143.3232466779089
 31
0.0
  0
LINE
  5
353
330
B9
100
AcDbEntity
  8
STANDARD
  6
Continuous
 62
     7
100
AcDbLine
 10
169.5571336570642
 20
143.3232466779089
 30
0.0
 11
169.5571336570642
 21
143.4072428442341
 31
0.0
  0
LINE
  5
354
330
B9
100
AcDbEntity
  8
STANDARD
  6
Continuous
 62
     7
100
AcDbLine
 10
170.1451068213427
 20
143.3232466779089
 30
0.0
 11
170.1451068213427
 21
143.4072428442341
 31
0.0
  0
LINE
  5
355
330
B9
100
AcDbEntity
  8
STANDARD
  6
Continuous
 62
     7
100
AcDbLine
 10
169.7251259897152
 20
139.1477804506354
 30
0.0
 11
169.7251259897152
 21
142.7352735136304
 31
0.0
  0
LINE
  5
356
330
B9
100
AcDbEntity
  8
STANDARD
  6
Continuous
 62
     7
100
AcDbLine
 10
169.9771144886917
 20
139.1477804506354
 30
0.0
 11
169.9771144886917
 21
142.7352735136304
 31
0.0
  0
LINE
  5
357
330
B9
100
AcDbEntity
  8
STANDARD
  6
Continuous
 62
     7
100
AcDbLine
 10
169.7251259897152
 20
139.1477804506354
 30
0.0
 11
169.9771144886917
 21
139.1477804506354
 31
0.0
  0
LINE
  5
358
330
B9
100
AcDbEntity
  8
STANDARD
  6
Continuous
 62
     7
100
AcDbLine
 10
168.8851643264603
 20
143.3232466779089
 30
0.0
 11
168.8851643264603
 21
143.4072428442341
 31
0.0
  0
LINE
  5
359
330
B9
100
AcDbEntity
  8
STANDARD
  6
Continuous
 62
     7
100
AcDbLine
 10
170.8170761519465
 20
143.3232466779089
 30
0.0
 11
170.8170761519465
 21
143.4072428442341
 31
0.0
  0
LINE
  5
35A
330
B9
100
AcDbEntity
  8
STANDARD
  6
Continuous
 62
     7
100
AcDbLine
 10
168.8851643264603
 20
143.3232466779089
 30
0.0
 11
170.8170761519465
 21
143.3232466779089
 31
0.0
  0
LINE
  5
35B
330
B9
100
AcDbEntity
  8
STANDARD
  6
Continuous
 62
     7
100
AcDbLine
 10
168.8851643264603
 20
143.4072428442341
 30
0.0
 11
170.8170761519465
 21
143.4072428442341
 31
0.0
  0
LINE
  5
35C
330
B9
100
AcDbEntity
  8
STANDARD
  6
Continuous
 62
     7
100
AcDbLine
 10
142.8664859897152
 20
122.8352735136303
 30
0.0
 11
143.1184744886916
 21
122.8352735136303
 31
0.0
  0
LINE
  5
35D
330
B9
100
AcDbEntity
  8
STANDARD
  6
Continuous
 62
     7
100
AcDbLine
 10
142.8664859897152
 20
122.8352735136303
 30
0.0
 11
142.6984936570642
 21
123.4232466779087
 31
0.0
  0
LINE
  5
35E
330
B9
100
AcDbEntity
  8
STANDARD
  6
Continuous
 62
     7
100
AcDbLine
 10
143.1184744886916
 20
122.8352735136303
 30
0.0
 11
143.2864668213426
 21
123.4232466779087
 31
0.0
  0
LINE
  5
35F
330
B9
100
AcDbEntity
  8
STANDARD
  6
Continuous
 62
     7
100
AcDbLine
 10
142.6984936570642
 20
123.4232466779087
 30
0.0
 11
142.6984936570642
 21
123.5072428442341
 31
0.0
  0
LINE
  5
360
330
B9
100
AcDbEntity
  8
STANDARD
  6
Continuous
 62
     7
100
AcDbLine
 10
143.2864668213426
 20
123.4232466779087
 30
0.0
 11
143.2864668213426
 21
123.5072428442341
 31
0.0
  0
LINE
  5
361
330
B9
100
AcDbEntity
  8
STANDARD
  6
Continuous
 62
     7
100
AcDbLine
 10
142.866485989715
 20
121.397730207683
 30
0.0
 11
142.866485989715
 21
122.8352735136305
 31
0.0
  0
LINE
  5
362
330
B9
100
AcDbEntity
  8
STANDARD
  6
Continuous
 62
     7
100
AcDbLine
 10
143.1184744886914
 20
121.397730207683
 30
0.0
 11
143.1184744886914
 21
122.8352735136305
 31
0.0
  0
LINE
  5
363
330
B9
100
AcDbEntity
  8
STANDARD
  6
Continuous
 62
     7
100
AcDbLine
 10
142.8664859897152
 20
121.3977302076828
 30
0.0
 11
143.1184744886916
 21
121.3977302076828
 31
0.0
  0
LINE
  5
364
330
B9
100
AcDbEntity
  8
STANDARD
  6
Continuous
 62
     7
100
AcDbLine
 10
142.0265243264603
 20
123.4232466779087
 30
0.0
 11
142.0265243264603
 21
123.5072428442341
 31
0.0
  0
LINE
  5
365
330
B9
100
AcDbEntity
  8
STANDARD
  6
Continuous
 62
     7
100
AcDbLine
 10
143.9584361519465
 20
123.4232466779087
 30
0.0
 11
143.9584361519465
 21
123.5072428442341
 31
0.0
  0
LINE
  5
366
330
B9
100
AcDbEntity
  8
STANDARD
  6
Continuous
 62
     7
100
AcDbLine
 10
142.0265243264603
 20
123.4232466779087
 30
0.0
 11
143.9584361519465
 21
123.4232466779087
 31
0.0
  0
LINE
  5
367
330
B9
100
AcDbEntity
  8
STANDARD
  6
Continuous
 62
     7
100
AcDbLine
 10
142.0265243264603
 20
123.5072428442341
 30
0.0
 11
143.9584361519465
 21
123.5072428442341
 31
0.0
  0
LINE
  5
368
330
B9
100
AcDbEntity
  8
34_Gruppe
  6
Continuous
 62
     7
370
    20
100
AcDbLine
 10
143.2285702392035
 20
145.3232466779087
 30
0.0
 11
143.2285702392035
 21
149.3232466779087
 31
0.0
  0
LINE
  5
369
330
B9
100
AcDbEntity
  8
34_Gruppe
  6
Continuous
 62
     7
370
    20
100
AcDbLine
 10
143.2285702392035
 20
149.3232466779087
 30
0.0
 11
110.3278295356664
 21
149.3232466779087
 31
0.0
  0
LINE
  5
36A
330
B9
100
AcDbEntity
  8
34_Gruppe
  6
Continuous
 62
     7
370
    20
100
AcDbLine
 10
143.2285702392035
 20
145.3232466779087
 30
0.0
 11
110.1289270805447
 21
145.3232466779087
 31
0.0
  0
LINE
  5
36B
330
B9
100
AcDbEntity
  8
34_Gruppe
  6
Continuous
 62
     7
370
    20
100
AcDbLine
 10
143.2285702392035
 20
145.3232466779087
 30
0.0
 11
143.2285702392035
 21
144.3232466779087
 31
0.0
  0
LINE
  5
36C
330
B9
100
AcDbEntity
  8
34_Gruppe
  6
Continuous
 62
     7
370
    20
100
AcDbLine
 10
133.2285702392035
 20
145.3232466779087
 30
0.0
 11
133.2285702392035
 21
144.3232466779087
 31
0.0
  0
ENDBLK
  5
36F
330
B9
100
AcDbEntity
  8
0
100
AcDbBlockEnd
  0
ENDSEC
  0
SECTION
  2
ENTITIES
  0
INSERT
  5
AF
330
1F
100
AcDbEntity
  8
00_Allgemein
  6
Continuous
 62
     7
370
     0
100
AcDbBlockReference
  2
printlayout(id_1)
 10
0.0
 20
0.0
 30
0.0
  0
INSERT
  5
36D
330
1F
100
AcDbEntity
  8
34_Gruppe
  6
Continuous
 62
     7
370
     0
100
AcDbBlockReference
  2
dokument alle 2d details_asc(id_4)
 10
0.0
 20
0.0
 30
0.0
  0
IMAGE
  5
371
330
1F
100
AcDbEntity
  8
37_Bilder
  6
Continuous
 62
     7
370
     0
160
               140
310
8C00000001000000840000000600000005000000623F38DD7DC76E40607D7E0819A431400000000000000000B11F9CDEEF237240607D7E0819A431400000000000000000B11F9CDEEF237240B03E3F74D92D40400000000000000000623F38DD7DC76E40B03E3F74D92D40400000000000000000623F38DD7DC76E40607D7E
310
0819A431400000000000000000
100
AcDbRasterImage
 90
        0
 10
246.2341142748438
 20
17.64100697601441
 30
0.0
 11
0.0279263627105558
 21
0.0
 31
0.0
 12
0.0
 22
0.02792635995477608
 32
0.0
 13
1576.0
 23
527.0
340
370
 70
     3
280
     0
281
    50
282
    50
283
     0
360
372
 71
     1
 91
        2
 14
-0.5
 24
-0.5
 14
1575.5
 24
526.5
290
     0
  0
ENDSEC
  0
SECTION
  2
OBJECTS
  0
DICTIONARY
  5
C
330
0
100
AcDbDictionary
281
     1
  3
ACAD_GROUP
350
D
  3
ACAD_IMAGE_DICT
350
B2
  3
ACAD_LAYOUT
350
1A
  3
ACAD_MATERIAL
350
3B
  3
ACAD_MLEADERSTYLE
350
374
  3
ACAD_MLINESTYLE
350
17
  3
ACAD_PLOTSETTINGS
350
19
  3
ACAD_PLOTSTYLENAME
350
E
  3
ACAD_TABLESTYLE
350
373
  3
ACAD_VISUALSTYLE
350
2A
  0
IMAGEDEF_REACTOR
  5
372
330
371
100
AcDbRasterImageDefReactor
 90
        2
330
371
  0
DICTIONARY
  5
D
102
{ACAD_REACTORS
330
C
102
}
330
C
100
AcDbDictionary
281
     1
  0
DICTIONARY
  5
B2
102
{ACAD_REACTORS
330
C
102
}
330
C
100
AcDbDictionary
281
     1
  3
Image0
350
B3
  3
Image1
350
370
  0
DICTIONARY
  5
1A
102
{ACAD_REACTORS
330
C
102
}
330
C
100
AcDbDictionary
281
     1
  3
Layout1
350
1E
  3
Layout2
350
26
  3
Model
350
22
  0
DICTIONARY
  5
3B
102
{ACAD_REACTORS
330
C
102
}
330
C
100
AcDbDictionary
281
     1
  3
ByBlock
350
3D
  3
ByLayer
350
3C
  3
Global
350
3E
  0
DICTIONARY
  5
374
102
{ACAD_REACTORS
330
C
102
}
330
C
100
AcDbDictionary
281
     1
  0
DICTIONARY
  5
17
102
{ACAD_REACTORS
330
C
102
}
330
C
100
AcDbDictionary
281
     1
  3
Standard
350
18
  0
DICTIONARY
  5
19
102
{ACAD_REACTORS
330
C
102
}
330
C
100
AcDbDictionary
281
     1
  0
ACDBDICTIONARYWDFLT
  5
E
102
{ACAD_REACTORS
330
C
102
}
330
C
100
AcDbDictionary
281
     1
  3
Normal
350
F
100
AcDbDictionaryWithDefault
340
F
  0
DICTIONARY
  5
373
102
{ACAD_REACTORS
330
C
102
}
330
C
100
AcDbDictionary
281
     1
  0
DICTIONARY
  5
2A
102
{ACAD_REACTORS
330
C
102
}
330
C
100
AcDbDictionary
281
     1
  3
2dWireframe
350
2F
  3
3D Hidden
350
31
  3
3dWireframe
350
30
  3
Basic
350
32
  3
Brighten
350
36
  3
ColorChange
350
3A
  3
Conceptual
350
34
  3
Dim
350
35
  3
Facepattern
350
39
  3
Flat
350
2B
  3
FlatWithEdges
350
2C
  3
Gouraud
350
2D
  3
GouraudWithEdges
350
2E
  3
Linepattern
350
38
  3
Realistic
350
33
  3
Thicken
350
37
  0
IMAGEDEF
  5
B3
102
{ACAD_REACTORS
330
B2
102
}
330
B2
100
AcDbRasterImageDef
 90
        0
  1
__ID19_Coverit+www.bmp
 10
1576.0
 20
527.0
 11
0.0006345177664974619
 21
0.0006345177664974619
280
     1
281
     1
  0
IMAGEDEF
  5
370
102
{ACAD_REACTORS
330
B2
330
372
102
}
330
B2
100
AcDbRasterImageDef
 90
        0
  1
__ID19_Coverit+www.bmp
 10
1576.0
 20
527.0
 11
0.0006345177664974619
 21
0.0006345177664974619
280
     1
281
     1
  0
LAYOUT
  5
1E
102
{ACAD_REACTORS
330
1A
102
}
330
1A
100
AcDbPlotSettings
  1

  2
none_device
  4

  6

 40
0.0
 41
0.0
 42
0.0
 43
0.0
 44
0.0
 45
0.0
 46
0.0
 47
0.0
 48
0.0
 49
0.0
140
0.0
141
0.0
142
1.0
143
1.0
 70
   688
 72
     0
 73
     0
 74
     5
  7

 75
    16
 76
     0
 77
     2
 78
   300
147
1.0
148
0.0
149
0.0
100
AcDbLayout
  1
Layout1
 70
     1
 71
     1
 10
0.0
 20
0.0
 11
12.0
 21
9.0
 12
0.0
 22
0.0
 32
0.0
 14
1.000000000000000E+20
 24
1.000000000000000E+20
 34
1.000000000000000E+20
 15
-1.000000000000000E+20
 25
-1.000000000000000E+20
 35
-1.000000000000000E+20
146
0.0
 13
0.0
 23
0.0
 33
0.0
 16
1.0
 26
0.0
 36
0.0
 17
0.0
 27
1.0
 37
0.0
 76
     0
330
1B
  0
LAYOUT
  5
26
102
{ACAD_REACTORS
330
1A
102
}
330
1A
100
AcDbPlotSettings
  1

  2
none_device
  4

  6

 40
0.0
 41
0.0
 42
0.0
 43
0.0
 44
0.0
 45
0.0
 46
0.0
 47
0.0
 48
0.0
 49
0.0
140
0.0
141
0.0
142
1.0
143
1.0
 70
   688
 72
     0
 73
     0
 74
     5
  7

 75
    16
 76
     0
 77
     2
 78
   300
147
1.0
148
0.0
149
0.0
100
AcDbLayout
  1
Layout2
 70
     1
 71
     2
 10
0.0
 20
0.0
 11
0.0
 21
0.0
 12
0.0
 22
0.0
 32
0.0
 14
0.0
 24
0.0
 34
0.0
 15
0.0
 25
0.0
 35
0.0
146
0.0
 13
0.0
 23
0.0
 33
0.0
 16
1.0
 26
0.0
 36
0.0
 17
0.0
 27
1.0
 37
0.0
 76
     0
330
23
  0
LAYOUT
  5
22
102
{ACAD_REACTORS
330
1A
102
}
330
1A
100
AcDbPlotSettings
  1

  2
none_device
  4

  6

 40
0.0
 41
0.0
 42
0.0
 43
0.0
 44
0.0
 45
0.0
 46
0.0
 47
0.0
 48
0.0
 49
0.0
140
0.0
141
0.0
142
1.0
143
1.0
 70
  1712
 72
     0
 73
     0
 74
     0
  7

 75
     0
 76
     0
 77
     2
 78
   300
147
1.0
148
0.0
149
0.0
100
AcDbLayout
  1
Model
 70
     1
 71
     0
 10
0.0
 20
0.0
 11
12.0
 21
9.0
 12
0.0
 22
0.0
 32
0.0
 14
-0.0000000000001137
 24
0.0
 34
0.0
 15
297.0
 25
210.0
 35
0.0
146
0.0
 13
0.0
 23
0.0
 33
0.0
 16
1.0
 26
0.0
 36
0.0
 17
0.0
 27
1.0
 37
0.0
 76
     0
330
1F
331
29
  0
MATERIAL
  5
3D
102
{ACAD_REACTORS
330
3B
102
}
330
3B
100
AcDbMaterial
  1
ByBlock
 72
     1
 94
      127
  0
MATERIAL
  5
3C
102
{ACAD_REACTORS
330
3B
102
}
330
3B
100
AcDbMaterial
  1
ByLayer
 72
     1
 94
      127
  0
MATERIAL
  5
3E
102
{ACAD_REACTORS
330
3B
102
}
330
3B
100
AcDbMaterial
  1
Global
 72
     1
 94
      127
  0
MLINESTYLE
  5
18
102
{ACAD_REACTORS
330
17
102
}
330
17
100
AcDbMlineStyle
  2
Standard
 70
     0
  3

 62
   256
 51
90.0
 52
90.0
 71
     2
 49
0.5
 62
   256
  6
BYLAYER
 49
-0.5
 62
   256
  6
BYLAYER
  0
ACDBPLACEHOLDER
  5
F
102
{ACAD_REACTORS
330
E
102
}
330
E
  0
VISUALSTYLE
  5
2F
102
{ACAD_REACTORS
330
2A
102
}
330
2A
100
AcDbVisualStyle
  2
2dWireframe
 70
     4
177
     2
291
     0
 71
     0
176
     1
 72
     2
176
     1
 73
     0
176
     1
 90
        0
176
     1
 40
-0.6
176
     1
 41
-30.0
176
     1
 62
     5
 63
     7
421
 16777215
176
     1
 74
     1
176
     1
 91
        4
176
     1
 64
     7
176
     1
 65
   257
176
     1
 75
     1
176
     1
175
     1
176
     1
 42
1.0
176
     1
 92
        0
176
     1
 66
   257
176
     1
 43
1.0
176
     1
 76
     1
176
     1
 77
     6
176
     1
 78
     2
176
     1
 67
     7
176
     1
 79
     5
176
     1
170
     0
176
     1
171
     0
176
     1
290
     0
176
     1
 93
        1
176
     1
 44
0.0
176
     1
173
     0
176
     1
  0
VISUALSTYLE
  5
31
102
{ACAD_REACTORS
330
2A
102
}
330
2A
100
AcDbVisualStyle
  2
3D Hidden
 70
     6
177
     2
291
     0
 71
     1
176
     1
 72
     2
176
     1
 73
     2
176
     1
 90
        0
176
     1
 40
-0.6
176
     1
 41
-30.0
176
     1
 62
     5
 63
     7
421
 16777215
176
     1
 74
     2
176
     1
 91
        2
176
     1
 64
     7
176
     1
 65
   257
176
     1
 75
     2
176
     1
175
     1
176
     1
 42
40.0
176
     1
 92
        0
176
     1
 66
   257
176
     1
 43
1.0
176
     1
 76
     1
176
     1
 77
     6
176
     1
 78
     2
176
     1
 67
     7
176
     1
 79
     3
176
     1
170
     0
176
     1
171
     0
176
     1
290
     0
176
     1
 93
        1
176
     1
 44
0.0
176
     1
173
     0
176
     1
  0
VISUALSTYLE
  5
30
102
{ACAD_REACTORS
330
2A
102
}
330
2A
100
AcDbVisualStyle
  2
3dWireframe
 70
     5
177
     2
291
     0
 71
     0
176
     1
 72
     2
176
     1
 73
     0
176
     1
 90
        0
176
     1
 40
-0.6
176
     1
 41
-30.0
176
     1
 62
     5
 63
     7
421
 16777215
176
     1
 74
     1
176
     1
 91
        4
176
     1
 64
     7
176
     1
 65
   257
176
     1
 75
     1
176
     1
175
     1
176
     1
 42
1.0
176
     1
 92
        0
176
     1
 66
   257
176
     1
 43
1.0
176
     1
 76
     1
176
     1
 77
     6
176
     1
 78
     2
176
     1
 67
     7
176
     1
 79
     5
176
     1
170
     0
176
     1
171
     0
176
     1
290
     0
176
     1
 93
        1
176
     1
 44
0.0
176
     1
173
     0
176
     1
  0
VISUALSTYLE
  5
32
102
{ACAD_REACTORS
330
2A
102
}
330
2A
100
AcDbVisualStyle
  2
Basic
 70
     7
177
     2
291
     1
 71
     1
176
     1
 72
     0
176
     1
 73
     1
176
     1
 90
        0
176
     1
 40
-0.6
176
     1
 41
-30.0
176
     1
 62
     5
 63
     7
421
 16777215
176
     1
 74
     0
176
     1
 91
        4
176
     1
 64
     7
176
     1
 65
   257
176
     1
 75
     1
176
     1
175
     1
176
     1
 42
1.0
176
     1
 92
        8
176
     1
 66
     7
176
     1
 43
1.0
176
     1
 76
     1
176
     1
 77
     6
176
     1
 78
     2
176
     1
 67
     7
176
     1
 79
     5
176
     1
170
     0
176
     1
171
     0
176
     1
290
     0
176
     1
 93
        1
176
     1
 44
0.0
176
     1
173
     0
176
     1
  0
VISUALSTYLE
  5
36
102
{ACAD_REACTORS
330
2A
102
}
330
2A
100
AcDbVisualStyle
  2
Brighten
 70
    12
177
     2
291
     1
 71
     2
176
     1
 72
     2
176
     1
 73
     0
176
     1
 90
        0
176
     1
 40
-0.6
176
     1
 41
-30.0
176
     1
 62
     5
 63
     7
421
 16777215
176
     1
 74
     1
176
     1
 91
        4
176
     1
 64
     7
176
     1
 65
   257
176
     1
 75
     1
176
     1
175
     1
176
     1
 42
1.0
176
     1
 92
        8
176
     1
 66
     7
176
     1
 43
1.0
176
     1
 76
     1
176
     1
 77
     6
176
     1
 78
     2
176
     1
 67
     7
176
     1
 79
     5
176
     1
170
     0
176
     1
171
     0
176
     1
290
     0
176
     1
 93
        1
176
     1
 44
50.0
176
     1
173
     0
176
     1
  0
VISUALSTYLE
  5
3A
102
{ACAD_REACTORS
330
2A
102
}
330
2A
100
AcDbVisualStyle
  2
ColorChange
 70
    16
177
     2
291
     1
 71
     2
176
     1
 72
     2
176
     1
 73
     3
176
     1
 90
        0
176
     1
 40
-0.6
176
     1
 41
-30.0
176
     1
 62
     5
 63
     8
421
  8421504
176
     1
 74
     1
176
     1
 91
        4
176
     1
 64
     7
176
     1
 65
   257
176
     1
 75
     1
176
     1
175
     1
176
     1
 42
1.0
176
     1
 92
        8
176
     1
 66
     8
424
  8421504
176
     1
 43
1.0
176
     1
 76
     1
176
     1
 77
     6
176
     1
 78
     2
176
     1
 67
     7
176
     1
 79
     5
176
     1
170
     0
176
     1
171
     0
176
     1
290
     0
176
     1
 93
        1
176
     1
 44
0.0
176
     1
173
     0
176
     1
  0
VISUALSTYLE
  5
34
102
{ACAD_REACTORS
330
2A
102
}
330
2A
100
AcDbVisualStyle
  2
Conceptual
 70
     9
177
     2
291
     0
 71
     3
176
     1
 72
     2
176
     1
 73
     0
176
     1
 90
        0
176
     1
 40
-0.6
176
     1
 41
-30.0
176
     1
 62
     5
 63
     7
421
 16777215
176
     1
 74
     2
176
     1
 91
        2
176
     1
 64
     7
176
     1
 65
   257
176
     1
 75
     1
176
     1
175
     1
176
     1
 42
40.0
176
     1
 92
        8
176
     1
 66
     7
176
     1
 43
1.0
176
     1
 76
     1
176
     1
 77
     6
176
     1
 78
     2
176
     1
 67
     7
176
     1
 79
     3
176
     1
170
     0
176
     1
171
     0
176
     1
290
     0
176
     1
 93
        1
176
     1
 44
0.0
176
     1
173
     0
176
     1
  0
VISUALSTYLE
  5
35
102
{ACAD_REACTORS
330
2A
102
}
330
2A
100
AcDbVisualStyle
  2
Dim
 70
    11
177
     2
291
     1
 71
     2
176
     1
 72
     2
176
     1
 73
     0
176
     1
 90
        0
176
     1
 40
-0.6
176
     1
 41
-30.0
176
     1
 62
     5
 63
     7
421
 16777215
176
     1
 74
     1
176
     1
 91
        4
176
     1
 64
     7
176
     1
 65
   257
176
     1
 75
     1
176
     1
175
     1
176
     1
 42
1.0
176
     1
 92
        8
176
     1
 66
     7
176
     1
 43
1.0
176
     1
 76
     1
176
     1
 77
     6
176
     1
 78
     2
176
     1
 67
     7
176
     1
 79
     5
176
     1
170
     0
176
     1
171
     0
176
     1
290
     0
176
     1
 93
        1
176
     1
 44
-50.0
176
     1
173
     0
176
     1
  0
VISUALSTYLE
  5
39
102
{ACAD_REACTORS
330
2A
102
}
330
2A
100
AcDbVisualStyle
  2
Facepattern
 70
    15
177
     2
291
     1
 71
     2
176
     1
 72
     2
176
     1
 73
     0
176
     1
 90
        0
176
     1
 40
-0.6
176
     1
 41
-30.0
176
     1
 62
     5
 63
     7
421
 16777215
176
     1
 74
     1
176
     1
 91
        4
176
     1
 64
     7
176
     1
 65
   257
176
     1
 75
     1
176
     1
175
     1
176
     1
 42
1.0
176
     1
 92
        8
176
     1
 66
     7
176
     1
 43
1.0
176
     1
 76
     1
176
     1
 77
     6
176
     1
 78
     2
176
     1
 67
     7
176
     1
 79
     5
176
     1
170
     0
176
     1
171
     0
176
     1
290
     0
176
     1
 93
        1
176
     1
 44
0.0
176
     1
173
     0
176
     1
  0
VISUALSTYLE
  5
2B
102
{ACAD_REACTORS
330
2A
102
}
330
2A
100
AcDbVisualStyle
  2
Flat
 70
     0
177
     2
291
     1
 71
     2
176
     1
 72
     1
176
     1
 73
     1
176
     1
 90
        2
176
     1
 40
-0.6
176
     1
 41
30.0
176
     1
 62
     5
 63
     7
421
 16777215
176
     1
 74
     0
176
     1
 91
        4
176
     1
 64
     7
176
     1
 65
   257
176
     1
 75
     1
176
     1
175
     1
176
     1
 42
1.0
176
     1
 92
        8
176
     1
 66
     7
176
     1
 43
1.0
176
     1
 76
     1
176
     1
 77
     6
176
     1
 78
     2
176
     1
 67
     7
176
     1
 79
     5
176
     1
170
     0
176
     1
171
     0
176
     1
290
     0
176
     1
 93
       13
176
     1
 44
0.0
176
     1
173
     0
176
     1
  0
VISUALSTYLE
  5
2C
102
{ACAD_REACTORS
330
2A
102
}
330
2A
100
AcDbVisualStyle
  2
FlatWithEdges
 70
     1
177
     2
291
     1
 71
     2
176
     1
 72
     1
176
     1
 73
     1
176
     1
 90
        2
176
     1
 40
-0.6
176
     1
 41
30.0
176
     1
 62
     5
 63
     7
421
 16777215
176
     1
 74
     1
176
     1
 91
        4
176
     1
 64
     7
176
     1
 65
   257
176
     1
 75
     1
176
     1
175
     1
176
     1
 42
1.0
176
     1
 92
        0
176
     1
 66
   257
176
     1
 43
1.0
176
     1
 76
     1
176
     1
 77
     6
176
     1
 78
     2
176
     1
 67
     7
176
     1
 79
     5
176
     1
170
     0
176
     1
171
     0
176
     1
290
     0
176
     1
 93
       13
176
     1
 44
0.0
176
     1
173
     0
176
     1
  0
VISUALSTYLE
  5
2D
102
{ACAD_REACTORS
330
2A
102
}
330
2A
100
AcDbVisualStyle
  2
Gouraud
 70
     2
177
     2
291
     1
 71
     2
176
     1
 72
     2
176
     1
 73
     1
176
     1
 90
        2
176
     1
 40
-0.6
176
     1
 41
30.0
176
     1
 62
     5
 63
     7
421
 16777215
176
     1
 74
     0
176
     1
 91
        4
176
     1
 64
     7
176
     1
 65
   257
176
     1
 75
     1
176
     1
175
     1
176
     1
 42
1.0
176
     1
 92
        0
176
     1
 66
     7
176
     1
 43
1.0
176
     1
 76
     1
176
     1
 77
     6
176
     1
 78
     2
176
     1
 67
     7
176
     1
 79
     5
176
     1
170
     0
176
     1
171
     0
176
     1
290
     0
176
     1
 93
       13
176
     1
 44
0.0
176
     1
173
     0
176
     1
  0
VISUALSTYLE
  5
2E
102
{ACAD_REACTORS
330
2A
102
}
330
2A
100
AcDbVisualStyle
  2
GouraudWithEdges
 70
     3
177
     2
291
     1
 71
     2
176
     1
 72
     2
176
     1
 73
     1
176
     1
 90
        2
176
     1
 40
-0.6
176
     1
 41
30.0
176
     1
 62
     5
 63
     7
421
 16777215
176
     1
 74
     1
176
     1
 91
        4
176
     1
 64
     7
176
     1
 65
   257
176
     1
 75
     1
176
     1
175
     1
176
     1
 42
1.0
176
     1
 92
        0
176
     1
 66
   257
176
     1
 43
1.0
176
     1
 76
     1
176
     1
 77
     6
176
     1
 78
     2
176
     1
 67
     7
176
     1
 79
     5
176
     1
170
     0
176
     1
171
     0
176
     1
290
     0
176
     1
 93
       13
176
     1
 44
0.0
176
     1
173
     0
176
     1
  0
VISUALSTYLE
  5
38
102
{ACAD_REACTORS
330
2A
102
}
330
2A
100
AcDbVisualStyle
  2
Linepattern
 70
    14
177
     2
291
     1
 71
     2
176
     1
 72
     2
176
     1
 73
     0
176
     1
 90
        0
176
     1
 40
-0.6
176
     1
 41
-30.0
176
     1
 62
     5
 63
     7
421
 16777215
176
     1
 74
     1
176
     1
 91
        4
176
     1
 64
     7
176
     1
 65
   257
176
     1
 75
     7
176
     1
175
     7
176
     1
 42
1.0
176
     1
 92
        8
176
     1
 66
     7
176
     1
 43
1.0
176
     1
 76
     1
176
     1
 77
     6
176
     1
 78
     2
176
     1
 67
     7
176
     1
 79
     5
176
     1
170
     0
176
     1
171
     0
176
     1
290
     0
176
     1
 93
        1
176
     1
 44
0.0
176
     1
173
     0
176
     1
  0
VISUALSTYLE
  5
33
102
{ACAD_REACTORS
330
2A
102
}
330
2A
100
AcDbVisualStyle
  2
Realistic
 70
     8
177
     2
291
     0
 71
     2
176
     1
 72
     2
176
     1
 73
     0
176
     1
 90
        0
176
     1
 40
-0.6
176
     1
 41
-30.0
176
     1
 62
     5
 63
     7
421
 16777215
176
     1
 74
     1
176
     1
 91
        0
176
     1
 64
     7
176
     1
 65
   257
176
     1
 75
     1
176
     1
175
     1
176
     1
 42
1.0
176
     1
 92
        8
176
     1
 66
     8
424
  7895160
176
     1
 43
1.0
176
     1
 76
     1
176
     1
 77
     6
176
     1
 78
     2
176
     1
 67
     7
176
     1
 79
     5
176
     1
170
     0
176
     1
171
     0
176
     1
290
     0
176
     1
 93
       13
176
     1
 44
0.0
176
     1
173
     0
176
     1
  0
VISUALSTYLE
  5
37
102
{ACAD_REACTORS
330
2A
102
}
330
2A
100
AcDbVisualStyle
  2
Thicken
 70
    13
177
     2
291
     1
 71
     2
176
     1
 72
     2
176
     1
 73
     0
176
     1
 90
        0
176
     1
 40
-0.6
176
     1
 41
-30.0
176
     1
 62
     5
 63
     7
421
 16777215
176
     1
 74
     1
176
     1
 91
        4
176
     1
 64
     7
176
     1
 65
   257
176
     1
 75
     1
176
     1
175
     1
176
     1
 42
1.0
176
     1
 92
       12
176
     1
 66
     7
176
     1
 43
1.0
176
     1
 76
     1
176
     1
 77
     6
176
     1
 78
     2
176
     1
 67
     7
176
     1
 79
     5
176
     1
170
     0
176
     1
171
     0
176
     1
290
     0
176
     1
 93
        1
176
     1
 44
0.0
176
     1
173
     0
176
     1
  0
ENDSEC
  0
EOF
