  0
SECTION
  2
HEADER
  9
$ACADVER
  1
AC1024
  9
$ACADMAINTVER
 70
     6
  9
$DWGCODEPAGE
  3
ANSI_1252
  9
$COMMENTS
  1
File was created by ARCHline.XP2011
  9
$INSBASE
 10
0.0
 20
0.0
 30
0.0
  9
$EXTMIN
 10
0.0
 20
-0.0000000000001137
 30
0.0
  9
$EXTMAX
 10
297.0
 20
210.0
 30
0.0
  9
$LIMMIN
 10
0.0
 20
0.0
  9
$LIMMAX
 10
12.0
 20
9.0
  9
$ORTHOMODE
 70
     0
  9
$REGENMODE
 70
     1
  9
$FILLMODE
 70
     1
  9
$QTEXTMODE
 70
     0
  9
$MIRRTEXT
 70
     1
  9
$LTSCALE
 40
1.0
  9
$ATTMODE
 70
     1
  9
$TEXTSIZE
 40
0.2
  9
$TRACEWID
 40
0.05
  9
$TEXTSTYLE
  7
Standard
  9
$CLAYER
  8
0
  9
$CELTYPE
  6
ByLayer
  9
$CECOLOR
 62
   256
  9
$CELTSCALE
 40
1.0
  9
$DISPSILH
 70
     0
  9
$DIMSCALE
 40
1.0
  9
$DIMASZ
 40
0.18
  9
$DIMEXO
 40
0.0625
  9
$DIMDLI
 40
0.38
  9
$DIMRND
 40
0.0
  9
$DIMDLE
 40
0.0
  9
$DIMEXE
 40
0.18
  9
$DIMTP
 40
0.0
  9
$DIMTM
 40
0.0
  9
$DIMTXT
 40
0.18
  9
$DIMCEN
 40
0.09
  9
$DIMTSZ
 40
0.0
  9
$DIMTOL
 70
     0
  9
$DIMLIM
 70
     0
  9
$DIMTIH
 70
     1
  9
$DIMTOH
 70
     1
  9
$DIMSE1
 70
     0
  9
$DIMSE2
 70
     0
  9
$DIMTAD
 70
     0
  9
$DIMZIN
 70
     0
  9
$DIMBLK
  1

  9
$DIMASO
 70
     1
  9
$DIMSHO
 70
     1
  9
$DIMPOST
  1

  9
$DIMAPOST
  1

  9
$DIMALT
 70
     0
  9
$DIMALTD
 70
     2
  9
$DIMALTF
 40
25.4
  9
$DIMLFAC
 40
1.0
  9
$DIMTOFL
 70
     0
  9
$DIMTVP
 40
0.0
  9
$DIMTIX
 70
     0
  9
$DIMSOXD
 70
     0
  9
$DIMSAH
 70
     0
  9
$DIMBLK1
  1

  9
$DIMBLK2
  1

  9
$DIMSTYLE
  2
Standard
  9
$DIMCLRD
 70
     0
  9
$DIMCLRE
 70
     0
  9
$DIMCLRT
 70
     0
  9
$DIMTFAC
 40
1.0
  9
$DIMGAP
 40
0.09
  9
$DIMJUST
 70
     0
  9
$DIMSD1
 70
     0
  9
$DIMSD2
 70
     0
  9
$DIMTOLJ
 70
     1
  9
$DIMTZIN
 70
     0
  9
$DIMALTZ
 70
     0
  9
$DIMALTTZ
 70
     0
  9
$DIMUPT
 70
     0
  9
$DIMDEC
 70
     4
  9
$DIMTDEC
 70
     4
  9
$DIMALTU
 70
     2
  9
$DIMALTTD
 70
     2
  9
$DIMTXSTY
  7
Standard
  9
$DIMAUNIT
 70
     0
  9
$DIMADEC
 70
     0
  9
$DIMALTRND
 40
0.0
  9
$DIMAZIN
 70
     0
  9
$DIMDSEP
 70
    46
  9
$DIMATFIT
 70
     3
  9
$DIMFRAC
 70
     0
  9
$DIMLDRBLK
  1

  9
$DIMLUNIT
 70
     2
  9
$DIMLWD
 70
    -2
  9
$DIMLWE
 70
    -2
  9
$DIMTMOVE
 70
     0
  9
$DIMFXL
 40
1.0
  9
$DIMFXLON
 70
     0
  9
$DIMJOGANG
 40
0.7853981633974483
  9
$DIMTFILL
 70
     0
  9
$DIMTFILLCLR
 70
     0
  9
$DIMARCSYM
 70
     0
  9
$DIMLTYPE
  6

  9
$DIMLTEX1
  6

  9
$DIMLTEX2
  6

  9
$DIMTXTDIRECTION
 70
     0
  9
$LUNITS
 70
     2
  9
$LUPREC
 70
     4
  9
$SKETCHINC
 40
0.1
  9
$FILLETRAD
 40
0.5
  9
$AUNITS
 70
     0
  9
$AUPREC
 70
     0
  9
$MENU
  1
.
  9
$ELEVATION
 40
0.0
  9
$PELEVATION
 40
0.0
  9
$THICKNESS
 40
0.0
  9
$LIMCHECK
 70
     0
  9
$CHAMFERA
 40
0.5
  9
$CHAMFERB
 40
0.5
  9
$CHAMFERC
 40
1.0
  9
$CHAMFERD
 40
0.0
  9
$SKPOLY
 70
     0
  9
$TDCREATE
 40
2457528.478036632
  9
$TDUCREATE
 40
2457528.394703299
  9
$TDUPDATE
 40
2457528.478040312
  9
$TDUUPDATE
 40
2457528.394706979
  9
$TDINDWG
 40
0.0000000116
  9
$TDUSRTIMER
 40
0.0000000116
  9
$USRTIMER
 70
     1
  9
$ANGBASE
 50
0.0
  9
$ANGDIR
 70
     0
  9
$PDMODE
 70
     0
  9
$PDSIZE
 40
0.0
  9
$PLINEWID
 40
0.0
  9
$SPLFRAME
 70
     0
  9
$SPLINETYPE
 70
     6
  9
$SPLINESEGS
 70
     8
  9
$HANDSEED
  5
373
  9
$SURFTAB1
 70
     6
  9
$SURFTAB2
 70
     6
  9
$SURFTYPE
 70
     6
  9
$SURFU
 70
     6
  9
$SURFV
 70
     6
  9
$UCSBASE
  2

  9
$UCSNAME
  2

  9
$UCSORG
 10
0.0
 20
0.0
 30
0.0
  9
$UCSXDIR
 10
1.0
 20
0.0
 30
0.0
  9
$UCSYDIR
 10
0.0
 20
1.0
 30
0.0
  9
$UCSORTHOREF
  2

  9
$UCSORTHOVIEW
 70
     0
  9
$UCSORGTOP
 10
0.0
 20
0.0
 30
0.0
  9
$UCSORGBOTTOM
 10
0.0
 20
0.0
 30
0.0
  9
$UCSORGLEFT
 10
0.0
 20
0.0
 30
0.0
  9
$UCSORGRIGHT
 10
0.0
 20
0.0
 30
0.0
  9
$UCSORGFRONT
 10
0.0
 20
0.0
 30
0.0
  9
$UCSORGBACK
 10
0.0
 20
0.0
 30
0.0
  9
$PUCSBASE
  2

  9
$PUCSNAME
  2

  9
$PUCSORG
 10
0.0
 20
0.0
 30
0.0
  9
$PUCSXDIR
 10
1.0
 20
0.0
 30
0.0
  9
$PUCSYDIR
 10
0.0
 20
1.0
 30
0.0
  9
$PUCSORTHOREF
  2

  9
$PUCSORTHOVIEW
 70
     0
  9
$PUCSORGTOP
 10
0.0
 20
0.0
 30
0.0
  9
$PUCSORGBOTTOM
 10
0.0
 20
0.0
 30
0.0
  9
$PUCSORGLEFT
 10
0.0
 20
0.0
 30
0.0
  9
$PUCSORGRIGHT
 10
0.0
 20
0.0
 30
0.0
  9
$PUCSORGFRONT
 10
0.0
 20
0.0
 30
0.0
  9
$PUCSORGBACK
 10
0.0
 20
0.0
 30
0.0
  9
$USERI1
 70
     0
  9
$USERI2
 70
     0
  9
$USERI3
 70
     0
  9
$USERI4
 70
     0
  9
$USERI5
 70
     0
  9
$USERR1
 40
0.0
  9
$USERR2
 40
0.0
  9
$USERR3
 40
0.0
  9
$USERR4
 40
0.0
  9
$USERR5
 40
0.0
  9
$WORLDVIEW
 70
     1
  9
$SHADEDGE
 70
     3
  9
$SHADEDIF
 70
    70
  9
$TILEMODE
 70
     1
  9
$MAXACTVP
 70
    64
  9
$PINSBASE
 10
0.0
 20
0.0
 30
0.0
  9
$PLIMCHECK
 70
     0
  9
$PEXTMIN
 10
1.000000000000000E+20
 20
1.000000000000000E+20
 30
1.000000000000000E+20
  9
$PEXTMAX
 10
-1.000000000000000E+20
 20
-1.000000000000000E+20
 30
-1.000000000000000E+20
  9
$PLIMMIN
 10
0.0
 20
0.0
  9
$PLIMMAX
 10
12.0
 20
9.0
  9
$UNITMODE
 70
     0
  9
$VISRETAIN
 70
     1
  9
$PLINEGEN
 70
     0
  9
$PSLTSCALE
 70
     1
  9
$TREEDEPTH
 70
  3020
  9
$CMLSTYLE
  2
Standard
  9
$CMLJUST
 70
     0
  9
$CMLSCALE
 40
1.0
  9
$PROXYGRAPHICS
 70
     1
  9
$MEASUREMENT
 70
     0
  9
$CELWEIGHT
370
    -1
  9
$ENDCAPS
280
     0
  9
$JOINSTYLE
280
     0
  9
$LWDISPLAY
290
     0
  9
$INSUNITS
 70
     1
  9
$HYPERLINKBASE
  1

  9
$STYLESHEET
  1

  9
$XEDIT
290
     1
  9
$CEPSNTYPE
380
     0
  9
$PSTYLEMODE
290
     1
  9
$FINGERPRINTGUID
  2
{87A38669-7EAC-41D9-A2D0-77DC0DD9A9AC}
  9
$VERSIONGUID
  2
{FAEB1C32-E019-11D5-929B-00C0DF256EC4}
  9
$EXTNAMES
290
     1
  9
$PSVPSCALE
 40
0.0
  9
$OLESTARTUP
290
     0
  9
$SORTENTS
280
   127
  9
$INDEXCTL
280
     0
  9
$HIDETEXT
280
     1
  9
$XCLIPFRAME
280
     2
  9
$HALOGAP
280
     0
  9
$OBSCOLOR
 70
   257
  9
$OBSLTYPE
280
     0
  9
$INTERSECTIONDISPLAY
280
     0
  9
$INTERSECTIONCOLOR
 70
   257
  9
$DIMASSOC
280
     2
  9
$PROJECTNAME
  1

  9
$CAMERADISPLAY
290
     0
  9
$LENSLENGTH
 40
50.0
  9
$CAMERAHEIGHT
 40
0.0
  9
$STEPSPERSEC
 40
2.0
  9
$STEPSIZE
 40
6.0
  9
$3DDWFPREC
 40
2.0
  9
$PSOLWIDTH
 40
0.25
  9
$PSOLHEIGHT
 40
4.0
  9
$LOFTANG1
 40
1.570796326794897
  9
$LOFTANG2
 40
1.570796326794897
  9
$LOFTMAG1
 40
0.0
  9
$LOFTMAG2
 40
0.0
  9
$LOFTPARAM
 70
     7
  9
$LOFTNORMALS
280
     1
  9
$LATITUDE
 40
37.795
  9
$LONGITUDE
 40
-122.394
  9
$NORTHDIRECTION
 40
0.0
  9
$TIMEZONE
 70
 -8000
  9
$LIGHTGLYPHDISPLAY
280
     1
  9
$TILEMODELIGHTSYNCH
280
     1
  9
$SOLIDHIST
280
     1
  9
$SHOWHIST
280
     1
  9
$DWFFRAME
280
     2
  9
$DGNFRAME
280
     2
  9
$REALWORLDSCALE
290
     1
  9
$INTERFERECOLOR
 62
   256
  9
$CSHADOW
280
     0
  9
$SHADOWPLANELOCATION
 40
0.0
  0
ENDSEC
  0
SECTION
  2
CLASSES
  0
CLASS
  1
ACDBDICTIONARYWDFLT
  2
AcDbDictionaryWithDefault
  3
ObjectDBX Classes
 90
        0
 91
        4
280
     0
281
     0
  0
CLASS
  1
VISUALSTYLE
  2
AcDbVisualStyle
  3
ObjectDBX Classes
 90
     4095
 91
        4
280
     0
281
     0
  0
CLASS
  1
MATERIAL
  2
AcDbMaterial
  3
ObjectDBX Classes
 90
     1153
 91
        4
280
     0
281
     0
  0
CLASS
  1
IMAGEDEF
  2
AcDbRasterImageDef
  3
ISM
 90
        0
 91
        4
280
     0
281
     0
  0
CLASS
  1
IMAGE
  2
AcDbRasterImage
  3
ISM
 90
      127
 91
        5
280
     0
281
     1
  0
CLASS
  1
IMAGEDEF_REACTOR
  2
AcDbRasterImageDefReactor
  3
ISM
 90
        1
 91
        4
280
     0
281
     0
  0
ENDSEC
  0
SECTION
  2
TABLES
  0
TABLE
  2
VPORT
  5
8
330
0
100
AcDbSymbolTable
 70
     1
  0
VPORT
  5
29
330
8
100
AcDbSymbolTableRecord
100
AcDbViewportTableRecord
  2
*Active
 70
     0
 10
0.0
 20
0.0
 11
1.0
 21
1.0
 12
10.42990654205607
 22
4.5
 13
0.0
 23
0.0
 14
0.5
 24
0.5
 15
0.5
 25
0.5
 16
0.0
 26
0.0
 36
1.0
 17
0.0
 27
0.0
 37
0.0
 40
9.0
 41
1.972972972850329
 42
50.0
 43
0.0
 44
0.0
 50
0.0
 51
0.0
 71
     0
 72
   100
 73
     1
 74
     3
 75
     0
 76
     0
 77
     0
 78
     0
281
     0
 65
     1
110
0.0
120
0.0
130
0.0
111
1.0
121
0.0
131
0.0
112
0.0
122
1.0
132
0.0
 79
     0
146
0.0
 60
     3
 61
     5
292
     1
282
     1
141
0.0
142
0.0
 63
   250
  0
ENDTAB
  0
TABLE
  2
LTYPE
  5
5
330
0
100
AcDbSymbolTable
 70
    92
  0
LTYPE
  5
14
330
5
100
AcDbSymbolTableRecord
100
AcDbLinetypeTableRecord
  2
ByBlock
 70
     0
  3

 72
    65
 73
     0
 40
0.0
  0
LTYPE
  5
15
330
5
100
AcDbSymbolTableRecord
100
AcDbLinetypeTableRecord
  2
ByLayer
 70
     0
  3

 72
    65
 73
     0
 40
0.0
  0
LTYPE
  5
16
330
5
100
AcDbSymbolTableRecord
100
AcDbLinetypeTableRecord
  2
Continuous
 70
     0
  3
Solid line
 72
    65
 73
     0
 40
0.0
  0
LTYPE
  5
3F
330
5
100
AcDbSymbolTableRecord
100
AcDbLinetypeTableRecord
  2
HIDDEN
 70
     0
  3
_ _ _ _ _ _ _ _ _ _ _ _ _ _ _ _ _ _ _ _ _ _ _
 72
    65
 73
     2
 40
0.375
 49
0.25
 74
     0
 49
-0.125
 74
     0
  0
LTYPE
  5
40
330
5
100
AcDbSymbolTableRecord
100
AcDbLinetypeTableRecord
  2
CENTER
 70
     0
  3
____ _ ____ _ ____ _ ____ _ ____ _ ____ _ ____
 72
    65
 73
     4
 40
2.0
 49
1.25
 74
     0
 49
-0.25
 74
     0
 49
0.25
 74
     0
 49
-0.25
 74
     0
  0
LTYPE
  5
41
330
5
100
AcDbSymbolTableRecord
100
AcDbLinetypeTableRecord
  2
DASHED
 70
     0
  3
__ __ __ __ __ __ __ __ __ __ __ __ __ __ __
 72
    65
 73
     2
 40
1.5
 49
1.25
 74
     0
 49
-0.25
 74
     0
  0
LTYPE
  5
42
330
5
100
AcDbSymbolTableRecord
100
AcDbLinetypeTableRecord
  2
Gepunktete
 70
     0
  3

 72
    65
 73
     2
 40
1.560000061988831
 49
0.3600000143051147
 74
     0
 49
-1.200000047683716
 74
     0
  0
LTYPE
  5
43
330
5
100
AcDbSymbolTableRecord
100
AcDbLinetypeTableRecord
  2
Strichpunktierte
 70
     0
  3

 72
    65
 73
     4
 40
4.920000046491623
 49
3.0
 74
     0
 49
-0.7200000286102295
 74
     0
 49
0.4799999892711639
 74
     0
 49
-0.7200000286102295
 74
     0
  0
LTYPE
  5
44
330
5
100
AcDbSymbolTableRecord
100
AcDbLinetypeTableRecord
  2
Strichellinie
 70
     0
  3

 72
    65
 73
     2
 40
2.399999976158142
 49
1.799999952316284
 74
     0
 49
-0.6000000238418579
 74
     0
  0
LTYPE
  5
45
330
5
100
AcDbSymbolTableRecord
100
AcDbLinetypeTableRecord
  2
2Punkt
 70
     0
  3

 72
    65
 73
     6
 40
6.120000123977661
 49
3.0
 74
     0
 49
-0.7200000286102295
 74
     0
 49
0.4800000190734863
 74
     0
 49
-0.7200000286102295
 74
     0
 49
0.4800000190734863
 74
     0
 49
-0.7200000286102295
 74
     0
  0
LTYPE
  5
46
330
5
100
AcDbSymbolTableRecord
100
AcDbLinetypeTableRecord
  2
2Punkt-2Abstand
 70
     0
  3

 72
    65
 73
     6
 40
8.28000020980835
 49
3.0
 74
     0
 49
-1.440000057220459
 74
     0
 49
0.4800000190734863
 74
     0
 49
-1.440000057220459
 74
     0
 49
0.4800000190734863
 74
     0
 49
-1.440000057220459
 74
     0
  0
LTYPE
  5
47
330
5
100
AcDbSymbolTableRecord
100
AcDbLinetypeTableRecord
  2
2Punkt-3Abstand
 70
     0
  3

 72
    65
 73
     6
 40
11.26800036430359
 49
3.0
 74
     0
 49
-2.436000108718872
 74
     0
 49
0.4800000190734863
 74
     0
 49
-2.436000108718872
 74
     0
 49
0.4800000190734863
 74
     0
 49
-2.436000108718872
 74
     0
  0
LTYPE
  5
48
330
5
100
AcDbSymbolTableRecord
100
AcDbLinetypeTableRecord
  2
Gepunktete Var.2
 70
     0
  3

 72
    65
 73
     2
 40
3.120000004768372
 49
0.3600000143051147
 74
     0
 49
-2.759999990463257
 74
     0
  0
LTYPE
  5
49
330
5
100
AcDbSymbolTableRecord
100
AcDbLinetypeTableRecord
  2
Gepunktete Var.3
 70
     0
  3

 72
    65
 73
     2
 40
4.679999709129333
 49
0.3600000143051147
 74
     0
 49
-4.319999694824219
 74
     0
  0
LTYPE
  5
4A
330
5
100
AcDbSymbolTableRecord
100
AcDbLinetypeTableRecord
  2
Gepunktete Var.4
 70
     0
  3

 72
    65
 73
     4
 40
4.319999814033508
 49
0.3600000143051147
 74
     0
 49
-1.199999928474426
 74
     0
 49
0.3600000143051147
 74
     0
 49
-2.399999856948853
 74
     0
  0
LTYPE
  5
4B
330
5
100
AcDbSymbolTableRecord
100
AcDbLinetypeTableRecord
  2
Gepunktete Var.5
 70
     0
  3

 72
    65
 73
     4
 40
4.319999814033508
 49
0.3600000143051147
 74
     0
 49
-1.199999928474426
 74
     0
 49
0.3600000143051147
 74
     0
 49
-2.399999856948853
 74
     0
  0
LTYPE
  5
4C
330
5
100
AcDbSymbolTableRecord
100
AcDbLinetypeTableRecord
  2
Gepunktete Var.6
 70
     0
  3

 72
    65
 73
     6
 40
7.079999685287476
 49
0.3600000143051147
 74
     0
 49
-1.199999928474426
 74
     0
 49
0.3600000143051147
 74
     0
 49
-2.399999856948853
 74
     0
 49
0.3600000143051147
 74
     0
 49
-2.399999856948853
 74
     0
  0
LTYPE
  5
4D
330
5
100
AcDbSymbolTableRecord
100
AcDbLinetypeTableRecord
  2
Strichlierte Var.2
 70
     0
  3

 72
    65
 73
     2
 40
3.599999904632568
 49
1.799999952316284
 74
     0
 49
-1.799999952316284
 74
     0
  0
LTYPE
  5
4E
330
5
100
AcDbSymbolTableRecord
100
AcDbLinetypeTableRecord
  2
Strichlierte Var.3
 70
     0
  3

 72
    65
 73
     2
 40
5.399999856948853
 49
1.799999952316284
 74
     0
 49
-3.599999904632568
 74
     0
  0
LTYPE
  5
4F
330
5
100
AcDbSymbolTableRecord
100
AcDbLinetypeTableRecord
  2
Strichlierte Var.4
 70
     0
  3

 72
    65
 73
     2
 40
4.199999868869781
 49
3.599999904632568
 74
     0
 49
-0.5999999642372131
 74
     0
  0
LTYPE
  5
50
330
5
100
AcDbSymbolTableRecord
100
AcDbLinetypeTableRecord
  2
Strichlierte Var.5
 70
     0
  3

 72
    65
 73
     2
 40
5.399999856948853
 49
3.599999904632568
 74
     0
 49
-1.799999952316284
 74
     0
  0
LTYPE
  5
51
330
5
100
AcDbSymbolTableRecord
100
AcDbLinetypeTableRecord
  2
Strichlierte Var.6
 70
     0
  3

 72
    65
 73
     2
 40
7.199999809265137
 49
3.599999904632568
 74
     0
 49
-3.599999904632568
 74
     0
  0
LTYPE
  5
52
330
5
100
AcDbSymbolTableRecord
100
AcDbLinetypeTableRecord
  2
Strich-2Abstand
 70
     0
  3

 72
    65
 73
     4
 40
8.999999761581421
 49
1.799999952316284
 74
     0
 49
-1.799999952316284
 74
     0
 49
3.599999904632568
 74
     0
 49
-1.799999952316284
 74
     0
  0
LTYPE
  5
53
330
5
100
AcDbSymbolTableRecord
100
AcDbLinetypeTableRecord
  2
Strich-3Abstand
 70
     0
  3

 72
    65
 73
     6
 40
7.919999837875366
 49
0.3600000143051147
 74
     0
 49
-1.799999952316284
 74
     0
 49
0.3600000143051147
 74
     0
 49
-1.799999952316284
 74
     0
 49
1.799999952316284
 74
     0
 49
-1.799999952316284
 74
     0
  0
LTYPE
  5
54
330
5
100
AcDbSymbolTableRecord
100
AcDbLinetypeTableRecord
  2
Strich-4Abstand
 70
     0
  3

 72
    65
 73
     6
 40
9.359999775886536
 49
1.799999952316284
 74
     0
 49
-1.799999952316284
 74
     0
 49
1.799999952316284
 74
     0
 49
-1.799999952316284
 74
     0
 49
0.3600000143051147
 74
     0
 49
-1.799999952316284
 74
     0
  0
LTYPE
  5
55
330
5
100
AcDbSymbolTableRecord
100
AcDbLinetypeTableRecord
  2
Punktlinie
 70
     0
  3

 72
    65
 73
     6
 40
20.10000000149012
 49
0.0500000007450581
 74
     0
 49
-0.0500000007450581
 74
     0
 49
5.0
 74
     0
 49
-5.0
 74
     0
 49
5.0
 74
     0
 49
-5.0
 74
     0
  0
LTYPE
  5
56
330
5
100
AcDbSymbolTableRecord
100
AcDbLinetypeTableRecord
  2
Punkt-Strichlinie
 70
     0
  3

 72
    65
 73
     6
 40
3.550000000745058
 49
1.0
 74
     0
 49
-0.5
 74
     0
 49
1.0
 74
     0
 49
-0.5
 74
     0
 49
0.0500000007450581
 74
     0
 49
-0.5
 74
     0
  0
LTYPE
  5
57
330
5
100
AcDbSymbolTableRecord
100
AcDbLinetypeTableRecord
  2
Doppelpunkt-Strichlinie
 70
     0
  3

 72
    65
 73
     6
 40
1.350000001490116
 49
0.5
 74
     0
 49
-0.25
 74
     0
 49
0.0500000007450581
 74
     0
 49
-0.25
 74
     0
 49
0.0500000007450581
 74
     0
 49
-0.25
 74
     0
  0
LTYPE
  5
58
330
5
100
AcDbSymbolTableRecord
100
AcDbLinetypeTableRecord
  2
Eigene Linie 27
 70
     0
  3

 72
    65
 73
     6
 40
2.600000001490116
 49
1.0
 74
     0
 49
-0.5
 74
     0
 49
0.0500000007450581
 74
     0
 49
-0.5
 74
     0
 49
0.0500000007450581
 74
     0
 49
-0.5
 74
     0
  0
LTYPE
  5
59
330
5
100
AcDbSymbolTableRecord
100
AcDbLinetypeTableRecord
  2
Eigene Linie 28
 70
     0
  3

 72
    65
 73
     6
 40
1.800000000745058
 49
0.5
 74
     0
 49
-0.25
 74
     0
 49
0.5
 74
     0
 49
-0.25
 74
     0
 49
0.0500000007450581
 74
     0
 49
-0.25
 74
     0
  0
LTYPE
  5
5A
330
5
100
AcDbSymbolTableRecord
100
AcDbLinetypeTableRecord
  2
Eigene Linie 29
 70
     0
  3

 72
    65
 73
     6
 40
0.9250000007450581
 49
0.25
 74
     0
 49
-0.125
 74
     0
 49
0.25
 74
     0
 49
-0.125
 74
     0
 49
0.0500000007450581
 74
     0
 49
-0.125
 74
     0
  0
LTYPE
  5
5B
330
5
100
AcDbSymbolTableRecord
100
AcDbLinetypeTableRecord
  2
Eigene Linie 30
 70
     0
  3

 72
    65
 73
     2
 40
0.3000000007450581
 49
0.0500000007450581
 74
     0
 49
-0.25
 74
     0
  0
LTYPE
  5
5C
330
5
100
AcDbSymbolTableRecord
100
AcDbLinetypeTableRecord
  2
Eigene Linie 31
 70
     0
  3

 72
    65
 73
     2
 40
0.1750000007450581
 49
0.0500000007450581
 74
     0
 49
-0.125
 74
     0
  0
LTYPE
  5
5D
330
5
100
AcDbSymbolTableRecord
100
AcDbLinetypeTableRecord
  2
Eigene Linie 32
 70
     0
  3

 72
    65
 73
     2
 40
0.5500000007450581
 49
0.0500000007450581
 74
     0
 49
-0.5
 74
     0
  0
LTYPE
  5
5E
330
5
100
AcDbSymbolTableRecord
100
AcDbLinetypeTableRecord
  2
Eigene Linie 33
 70
     0
  3

 72
    65
 73
     4
 40
1.050000000745058
 49
0.5
 74
     0
 49
-0.25
 74
     0
 49
0.0500000007450581
 74
     0
 49
-0.25
 74
     0
  0
LTYPE
  5
5F
330
5
100
AcDbSymbolTableRecord
100
AcDbLinetypeTableRecord
  2
Eigene Linie 34
 70
     0
  3

 72
    65
 73
     4
 40
0.5500000007450581
 49
0.25
 74
     0
 49
-0.125
 74
     0
 49
0.0500000007450581
 74
     0
 49
-0.125
 74
     0
  0
LTYPE
  5
60
330
5
100
AcDbSymbolTableRecord
100
AcDbLinetypeTableRecord
  2
Eigene Linie 35
 70
     0
  3

 72
    65
 73
     4
 40
2.050000000745058
 49
1.0
 74
     0
 49
-0.5
 74
     0
 49
0.0500000007450581
 74
     0
 49
-0.5
 74
     0
  0
LTYPE
  5
61
330
5
100
AcDbSymbolTableRecord
100
AcDbLinetypeTableRecord
  2
Eigene Linie 36
 70
     0
  3

 72
    65
 73
     2
 40
0.75
 49
0.5
 74
     0
 49
-0.25
 74
     0
  0
LTYPE
  5
62
330
5
100
AcDbSymbolTableRecord
100
AcDbLinetypeTableRecord
  2
Eigene Linie 37
 70
     0
  3

 72
    65
 73
     2
 40
0.375
 49
0.25
 74
     0
 49
-0.125
 74
     0
  0
LTYPE
  5
63
330
5
100
AcDbSymbolTableRecord
100
AcDbLinetypeTableRecord
  2
Eigene Linie 38
 70
     0
  3

 72
    65
 73
     2
 40
1.5
 49
1.0
 74
     0
 49
-0.5
 74
     0
  0
LTYPE
  5
64
330
5
100
AcDbSymbolTableRecord
100
AcDbLinetypeTableRecord
  2
Eigene Linie 39
 70
     0
  3

 72
    65
 73
     6
 40
2.5
 49
1.25
 74
     0
 49
-0.25
 74
     0
 49
0.25
 74
     0
 49
-0.25
 74
     0
 49
0.25
 74
     0
 49
-0.25
 74
     0
  0
LTYPE
  5
65
330
5
100
AcDbSymbolTableRecord
100
AcDbLinetypeTableRecord
  2
Eigene Linie 40
 70
     0
  3

 72
    65
 73
     6
 40
1.25
 49
0.625
 74
     0
 49
-0.125
 74
     0
 49
0.125
 74
     0
 49
-0.125
 74
     0
 49
0.125
 74
     0
 49
-0.125
 74
     0
  0
LTYPE
  5
66
330
5
100
AcDbSymbolTableRecord
100
AcDbLinetypeTableRecord
  2
Eigene Linie 41
 70
     0
  3

 72
    65
 73
     6
 40
5.0
 49
2.5
 74
     0
 49
-0.5
 74
     0
 49
0.5
 74
     0
 49
-0.5
 74
     0
 49
0.5
 74
     0
 49
-0.5
 74
     0
  0
LTYPE
  5
67
330
5
100
AcDbSymbolTableRecord
100
AcDbLinetypeTableRecord
  2
Eigene Linie 42
 70
     0
  3

 72
    65
 73
     2
 40
0.300000011920929
 49
0.1500000059604645
 74
     0
 49
-0.1500000059604645
 74
     0
  0
LTYPE
  5
68
330
5
100
AcDbSymbolTableRecord
100
AcDbLinetypeTableRecord
  2
Eigene Linie 43
 70
     0
  3

 72
    65
 73
     2
 40
0.1399999968707561
 49
0.0799999982118607
 74
     0
 49
-0.0599999986588955
 74
     0
  0
LTYPE
  5
69
330
5
100
AcDbSymbolTableRecord
100
AcDbLinetypeTableRecord
  2
Eigene Linie 44
 70
     0
  3

 72
    65
 73
     2
 40
0.3000000007450581
 49
0.0500000007450581
 74
     0
 49
-0.25
 74
     0
  0
LTYPE
  5
6A
330
5
100
AcDbSymbolTableRecord
100
AcDbLinetypeTableRecord
  2
Eigene Linie 45
 70
     0
  3

 72
    65
 73
     2
 40
0.5500000007450581
 49
0.0500000007450581
 74
     0
 49
-0.5
 74
     0
  0
LTYPE
  5
6B
330
5
100
AcDbSymbolTableRecord
100
AcDbLinetypeTableRecord
  2
User line type56
 70
     0
  3

 72
    65
 73
     2
 40
5.399999856948853
 49
3.599999904632568
 74
     0
 49
-1.799999952316284
 74
     0
  0
LTYPE
  5
6C
330
5
100
AcDbSymbolTableRecord
100
AcDbLinetypeTableRecord
  2
User line type57
 70
     0
  3

 72
    65
 73
     2
 40
7.199999809265137
 49
3.599999904632568
 74
     0
 49
-3.599999904632568
 74
     0
  0
LTYPE
  5
6D
330
5
100
AcDbSymbolTableRecord
100
AcDbLinetypeTableRecord
  2
User line type58
 70
     0
  3

 72
    65
 73
     4
 40
8.999999761581421
 49
1.799999952316284
 74
     0
 49
-1.799999952316284
 74
     0
 49
3.599999904632568
 74
     0
 49
-1.799999952316284
 74
     0
  0
LTYPE
  5
6E
330
5
100
AcDbSymbolTableRecord
100
AcDbLinetypeTableRecord
  2
User line type59
 70
     0
  3

 72
    65
 73
     6
 40
7.919999837875366
 49
0.3600000143051147
 74
     0
 49
-1.799999952316284
 74
     0
 49
0.3600000143051147
 74
     0
 49
-1.799999952316284
 74
     0
 49
1.799999952316284
 74
     0
 49
-1.799999952316284
 74
     0
  0
LTYPE
  5
6F
330
5
100
AcDbSymbolTableRecord
100
AcDbLinetypeTableRecord
  2
User line type60
 70
     0
  3

 72
    65
 73
     6
 40
9.359999775886536
 49
1.799999952316284
 74
     0
 49
-1.799999952316284
 74
     0
 49
1.799999952316284
 74
     0
 49
-1.799999952316284
 74
     0
 49
0.3600000143051147
 74
     0
 49
-1.799999952316284
 74
     0
  0
LTYPE
  5
70
330
5
100
AcDbSymbolTableRecord
100
AcDbLinetypeTableRecord
  2
User line type61
 70
     0
  3

 72
    65
 73
     6
 40
20.10000000149012
 49
0.0500000007450581
 74
     0
 49
-0.0500000007450581
 74
     0
 49
5.0
 74
     0
 49
-5.0
 74
     0
 49
5.0
 74
     0
 49
-5.0
 74
     0
  0
LTYPE
  5
71
330
5
100
AcDbSymbolTableRecord
100
AcDbLinetypeTableRecord
  2
User line type62
 70
     0
  3

 72
    65
 73
     6
 40
3.550000000745058
 49
1.0
 74
     0
 49
-0.5
 74
     0
 49
1.0
 74
     0
 49
-0.5
 74
     0
 49
0.0500000007450581
 74
     0
 49
-0.5
 74
     0
  0
LTYPE
  5
72
330
5
100
AcDbSymbolTableRecord
100
AcDbLinetypeTableRecord
  2
User line type63
 70
     0
  3

 72
    65
 73
     6
 40
1.350000001490116
 49
0.5
 74
     0
 49
-0.25
 74
     0
 49
0.0500000007450581
 74
     0
 49
-0.25
 74
     0
 49
0.0500000007450581
 74
     0
 49
-0.25
 74
     0
  0
LTYPE
  5
73
330
5
100
AcDbSymbolTableRecord
100
AcDbLinetypeTableRecord
  2
User line type64
 70
     0
  3

 72
    65
 73
     6
 40
2.600000001490116
 49
1.0
 74
     0
 49
-0.5
 74
     0
 49
0.0500000007450581
 74
     0
 49
-0.5
 74
     0
 49
0.0500000007450581
 74
     0
 49
-0.5
 74
     0
  0
LTYPE
  5
74
330
5
100
AcDbSymbolTableRecord
100
AcDbLinetypeTableRecord
  2
User line type65
 70
     0
  3

 72
    65
 73
     6
 40
1.800000000745058
 49
0.5
 74
     0
 49
-0.25
 74
     0
 49
0.5
 74
     0
 49
-0.25
 74
     0
 49
0.0500000007450581
 74
     0
 49
-0.25
 74
     0
  0
LTYPE
  5
75
330
5
100
AcDbSymbolTableRecord
100
AcDbLinetypeTableRecord
  2
User line type66
 70
     0
  3

 72
    65
 73
     6
 40
0.9250000007450581
 49
0.25
 74
     0
 49
-0.125
 74
     0
 49
0.25
 74
     0
 49
-0.125
 74
     0
 49
0.0500000007450581
 74
     0
 49
-0.125
 74
     0
  0
LTYPE
  5
76
330
5
100
AcDbSymbolTableRecord
100
AcDbLinetypeTableRecord
  2
User line type67
 70
     0
  3

 72
    65
 73
     2
 40
0.3000000007450581
 49
0.0500000007450581
 74
     0
 49
-0.25
 74
     0
  0
LTYPE
  5
77
330
5
100
AcDbSymbolTableRecord
100
AcDbLinetypeTableRecord
  2
User line type68
 70
     0
  3

 72
    65
 73
     2
 40
0.1750000007450581
 49
0.0500000007450581
 74
     0
 49
-0.125
 74
     0
  0
LTYPE
  5
78
330
5
100
AcDbSymbolTableRecord
100
AcDbLinetypeTableRecord
  2
User line type69
 70
     0
  3

 72
    65
 73
     2
 40
0.5500000007450581
 49
0.0500000007450581
 74
     0
 49
-0.5
 74
     0
  0
LTYPE
  5
79
330
5
100
AcDbSymbolTableRecord
100
AcDbLinetypeTableRecord
  2
User line type70
 70
     0
  3

 72
    65
 73
     4
 40
1.050000000745058
 49
0.5
 74
     0
 49
-0.25
 74
     0
 49
0.0500000007450581
 74
     0
 49
-0.25
 74
     0
  0
LTYPE
  5
7A
330
5
100
AcDbSymbolTableRecord
100
AcDbLinetypeTableRecord
  2
User line type71
 70
     0
  3

 72
    65
 73
     4
 40
0.5500000007450581
 49
0.25
 74
     0
 49
-0.125
 74
     0
 49
0.0500000007450581
 74
     0
 49
-0.125
 74
     0
  0
LTYPE
  5
7B
330
5
100
AcDbSymbolTableRecord
100
AcDbLinetypeTableRecord
  2
User line type72
 70
     0
  3

 72
    65
 73
     4
 40
2.050000000745058
 49
1.0
 74
     0
 49
-0.5
 74
     0
 49
0.0500000007450581
 74
     0
 49
-0.5
 74
     0
  0
LTYPE
  5
7C
330
5
100
AcDbSymbolTableRecord
100
AcDbLinetypeTableRecord
  2
User line type73
 70
     0
  3

 72
    65
 73
     2
 40
0.75
 49
0.5
 74
     0
 49
-0.25
 74
     0
  0
LTYPE
  5
7D
330
5
100
AcDbSymbolTableRecord
100
AcDbLinetypeTableRecord
  2
User line type74
 70
     0
  3

 72
    65
 73
     2
 40
0.375
 49
0.25
 74
     0
 49
-0.125
 74
     0
  0
LTYPE
  5
7E
330
5
100
AcDbSymbolTableRecord
100
AcDbLinetypeTableRecord
  2
User line type75
 70
     0
  3

 72
    65
 73
     2
 40
1.5
 49
1.0
 74
     0
 49
-0.5
 74
     0
  0
LTYPE
  5
7F
330
5
100
AcDbSymbolTableRecord
100
AcDbLinetypeTableRecord
  2
User line type76
 70
     0
  3

 72
    65
 73
     6
 40
2.5
 49
1.25
 74
     0
 49
-0.25
 74
     0
 49
0.25
 74
     0
 49
-0.25
 74
     0
 49
0.25
 74
     0
 49
-0.25
 74
     0
  0
LTYPE
  5
80
330
5
100
AcDbSymbolTableRecord
100
AcDbLinetypeTableRecord
  2
User line type77
 70
     0
  3

 72
    65
 73
     6
 40
1.25
 49
0.625
 74
     0
 49
-0.125
 74
     0
 49
0.125
 74
     0
 49
-0.125
 74
     0
 49
0.125
 74
     0
 49
-0.125
 74
     0
  0
LTYPE
  5
81
330
5
100
AcDbSymbolTableRecord
100
AcDbLinetypeTableRecord
  2
User line type78
 70
     0
  3

 72
    65
 73
     6
 40
5.0
 49
2.5
 74
     0
 49
-0.5
 74
     0
 49
0.5
 74
     0
 49
-0.5
 74
     0
 49
0.5
 74
     0
 49
-0.5
 74
     0
  0
LTYPE
  5
82
330
5
100
AcDbSymbolTableRecord
100
AcDbLinetypeTableRecord
  2
User line type79
 70
     0
  3

 72
    65
 73
     2
 40
0.300000011920929
 49
0.1500000059604645
 74
     0
 49
-0.1500000059604645
 74
     0
  0
LTYPE
  5
83
330
5
100
AcDbSymbolTableRecord
100
AcDbLinetypeTableRecord
  2
User line type80
 70
     0
  3

 72
    65
 73
     2
 40
0.1399999968707561
 49
0.0799999982118607
 74
     0
 49
-0.0599999986588955
 74
     0
  0
LTYPE
  5
84
330
5
100
AcDbSymbolTableRecord
100
AcDbLinetypeTableRecord
  2
User line type81
 70
     0
  3

 72
    65
 73
     2
 40
0.3000000007450581
 49
0.0500000007450581
 74
     0
 49
-0.25
 74
     0
  0
LTYPE
  5
85
330
5
100
AcDbSymbolTableRecord
100
AcDbLinetypeTableRecord
  2
User line type82
 70
     0
  3

 72
    65
 73
     2
 40
0.5500000007450581
 49
0.0500000007450581
 74
     0
 49
-0.5
 74
     0
  0
LTYPE
  5
86
330
5
100
AcDbSymbolTableRecord
100
AcDbLinetypeTableRecord
  2
User line type83
 70
     0
  3

 72
    65
 73
     6
 40
31.84999952465296
 49
12.69999980926514
 74
     0
 49
-6.349999904632568
 74
     0
 49
0.0500000007450581
 74
     0
 49
-6.349999904632568
 74
     0
 49
0.0500000007450581
 74
     0
 49
-6.349999904632568
 74
     0
  0
LTYPE
  5
87
330
5
100
AcDbSymbolTableRecord
100
AcDbLinetypeTableRecord
  2
User line type84
 70
     0
  3

 72
    65
 73
     4
 40
50.79999971389771
 49
31.75
 74
     0
 49
-6.349999904632568
 74
     0
 49
6.349999904632568
 74
     0
 49
-6.349999904632568
 74
     0
  0
LTYPE
  5
88
330
5
100
AcDbSymbolTableRecord
100
AcDbLinetypeTableRecord
  2
User line type85
 70
     0
  3

 72
    65
 73
     2
 40
6.399999905377626
 49
0.0500000007450581
 74
     0
 49
-6.349999904632568
 74
     0
  0
LTYPE
  5
89
330
5
100
AcDbSymbolTableRecord
100
AcDbLinetypeTableRecord
  2
User line type86
 70
     0
  3

 72
    65
 73
     4
 40
25.44999961927533
 49
12.69999980926514
 74
     0
 49
-6.349999904632568
 74
     0
 49
0.0500000007450581
 74
     0
 49
-6.349999904632568
 74
     0
  0
LTYPE
  5
8A
330
5
100
AcDbSymbolTableRecord
100
AcDbLinetypeTableRecord
  2
User line type87
 70
     0
  3

 72
    65
 73
     2
 40
9.524999856948853
 49
6.349999904632568
 74
     0
 49
-3.174999952316284
 74
     0
  0
LTYPE
  5
8B
330
5
100
AcDbSymbolTableRecord
100
AcDbLinetypeTableRecord
  2
User line type88
 70
     0
  3

 72
    65
 73
     2
 40
0.0050000002374873
 49
0.0040000001899898
 74
     0
 49
-0.0010000000474975
 74
     0
  0
LTYPE
  5
8C
330
5
100
AcDbSymbolTableRecord
100
AcDbLinetypeTableRecord
  2
User line type89
 70
     0
  3

 72
    65
 73
     4
 40
0.0550000009825453
 49
0.0040000001899898
 74
     0
 49
-0.0005000000237487
 74
     0
 49
0.0500000007450581
 74
     0
 49
-0.0005000000237487
 74
     0
  0
LTYPE
  5
8D
330
5
100
AcDbSymbolTableRecord
100
AcDbLinetypeTableRecord
  2
DOT
 70
     0
  3

 72
    65
 73
     3
 40
0.5499949939548969
 49
0.0500000007450581
 74
     0
 49
-0.25
 74
     0
 49
0.2499949932098389
 74
     0
  0
LTYPE
  5
8E
330
5
100
AcDbSymbolTableRecord
100
AcDbLinetypeTableRecord
  2
User line type91
 70
     0
  3

 72
    65
 73
     2
 40
4.0
 49
2.0
 74
     0
 49
-2.0
 74
     0
  0
LTYPE
  5
8F
330
5
100
AcDbSymbolTableRecord
100
AcDbLinetypeTableRecord
  2
User line type92
 70
     0
  3

 72
    65
 73
     2
 40
4.0
 49
2.0
 74
     0
 49
-2.0
 74
     0
  0
LTYPE
  5
90
330
5
100
AcDbSymbolTableRecord
100
AcDbLinetypeTableRecord
  2
User line type93
 70
     0
  3

 72
    65
 73
     4
 40
1.050000000745058
 49
0.5
 74
     0
 49
-0.25
 74
     0
 49
0.0500000007450581
 74
     0
 49
-0.25
 74
     0
  0
LTYPE
  5
91
330
5
100
AcDbSymbolTableRecord
100
AcDbLinetypeTableRecord
  2
User line type94
 70
     0
  3

 72
    65
 73
     2
 40
0.75
 49
0.5
 74
     0
 49
-0.25
 74
     0
  0
LTYPE
  5
92
330
5
100
AcDbSymbolTableRecord
100
AcDbLinetypeTableRecord
  2
User line type95
 70
     0
  3

 72
    65
 73
     6
 40
17.60000000149012
 49
10.0
 74
     0
 49
-2.5
 74
     0
 49
0.0500000007450581
 74
     0
 49
-2.5
 74
     0
 49
0.0500000007450581
 74
     0
 49
-2.5
 74
     0
  0
LTYPE
  5
93
330
5
100
AcDbSymbolTableRecord
100
AcDbLinetypeTableRecord
  2
User line type96
 70
     0
  3

 72
    65
 73
     2
 40
0.375
 49
0.25
 74
     0
 49
-0.125
 74
     0
  0
LTYPE
  5
94
330
5
100
AcDbSymbolTableRecord
100
AcDbLinetypeTableRecord
  2
User line type97
 70
     0
  3

 72
    65
 73
     4
 40
1.100000001490116
 49
0.5
 74
     0
 49
-0.25
 74
     0
 49
0.1000000014901161
 74
     0
 49
-0.25
 74
     0
  0
LTYPE
  5
95
330
5
100
AcDbSymbolTableRecord
100
AcDbLinetypeTableRecord
  2
User line type98
 70
     0
  3

 72
    65
 73
     2
 40
0.75
 49
0.5
 74
     0
 49
-0.25
 74
     0
  0
LTYPE
  5
96
330
5
100
AcDbSymbolTableRecord
100
AcDbLinetypeTableRecord
  2
User line type99
 70
     0
  3

 72
    65
 73
     4
 40
1.050000000745058
 49
0.5
 74
     0
 49
-0.25
 74
     0
 49
0.0500000007450581
 74
     0
 49
-0.25
 74
     0
  0
LTYPE
  5
97
330
5
100
AcDbSymbolTableRecord
100
AcDbLinetypeTableRecord
  2
User line type100
 70
     0
  3

 72
    65
 73
     6
 40
1.350000001490116
 49
0.5
 74
     0
 49
-0.25
 74
     0
 49
0.0500000007450581
 74
     0
 49
-0.25
 74
     0
 49
0.0500000007450581
 74
     0
 49
-0.25
 74
     0
  0
LTYPE
  5
98
330
5
100
AcDbSymbolTableRecord
100
AcDbLinetypeTableRecord
  2
User line type101
 70
     0
  3

 72
    65
 73
     4
 40
1.050000000745058
 49
0.5
 74
     0
 49
-0.25
 74
     0
 49
0.0500000007450581
 74
     0
 49
-0.25
 74
     0
  0
LTYPE
  5
99
330
5
100
AcDbSymbolTableRecord
100
AcDbLinetypeTableRecord
  2
User line type102
 70
     0
  3

 72
    65
 73
     2
 40
0.375
 49
0.25
 74
     0
 49
-0.125
 74
     0
  0
ENDTAB
  0
TABLE
  2
LAYER
  5
2
330
0
100
AcDbSymbolTable
 70
    10
  0
LAYER
  5
10
330
2
100
AcDbSymbolTableRecord
100
AcDbLayerTableRecord
  2
0
 70
     0
 62
     7
  6
Continuous
370
    -3
390
F
347
3E
  0
LAYER
  5
9A
330
2
100
AcDbSymbolTableRecord
100
AcDbLayerTableRecord
  2
00_Allgemein
 70
     0
 62
     7
  6
Continuous
370
     0
390
F
347
3E
  0
LAYER
  5
9B
330
2
100
AcDbSymbolTableRecord
100
AcDbLayerTableRecord
  2
37_Bilder
 70
     0
 62
     7
  6
Continuous
370
     0
390
F
347
3E
  0
LAYER
  5
9C
330
2
100
AcDbSymbolTableRecord
100
AcDbLayerTableRecord
  2
34_Gruppe
 70
     0
 62
     7
  6
Continuous
370
     0
390
F
347
3E
  0
LAYER
  5
9D
330
2
100
AcDbSymbolTableRecord
100
AcDbLayerTableRecord
  2
12_Linie
 70
     0
 62
     7
  6
Continuous
370
     0
390
F
347
3E
  0
LAYER
  5
9E
330
2
100
AcDbSymbolTableRecord
100
AcDbLayerTableRecord
  2
14_Kreis
 70
     0
 62
     7
  6
Continuous
370
     0
390
F
347
3E
  0
LAYER
  5
9F
330
2
100
AcDbSymbolTableRecord
100
AcDbLayerTableRecord
  2
18_Schraffur
 70
     0
 62
     7
  6
Continuous
370
     0
390
F
347
3E
  0
LAYER
  5
A0
330
2
100
AcDbSymbolTableRecord
100
AcDbLayerTableRecord
  2
Folie _ 3
 70
     0
 62
     7
  6
Continuous
370
     0
390
F
347
3E
  0
LAYER
  5
A1
330
2
100
AcDbSymbolTableRecord
100
AcDbLayerTableRecord
  2
Schraff_Dämmung
 70
     0
 62
     7
  6
Continuous
370
     0
390
F
347
3E
  0
LAYER
  5
A2
330
2
100
AcDbSymbolTableRecord
100
AcDbLayerTableRecord
  2
STANDARD
 70
     0
 62
     7
  6
Continuous
370
     0
390
F
347
3E
  0
ENDTAB
  0
TABLE
  2
STYLE
  5
3
330
0
100
AcDbSymbolTable
 70
     3
  0
STYLE
  5
11
330
3
100
AcDbSymbolTableRecord
100
AcDbTextStyleTableRecord
  2
Standard
 70
     0
 40
0.0
 41
1.0
 50
0.0
 71
     0
 42
0.2
  3
txt
  4

  0
STYLE
  5
B3
330
3
100
AcDbSymbolTableRecord
100
AcDbTextStyleTableRecord
  2
Style0
 70
     0
 40
0.0
 41
1.0
 50
0.0
 71
     0
 42
0.2
  3
arial.ttf
  4

1001
ACAD
1000
Arial
1071
        0
  0
STYLE
  5
B6
330
3
100
AcDbSymbolTableRecord
100
AcDbTextStyleTableRecord
  2
Style1
 70
     0
 40
0.0
 41
1.0
 50
0.0
 71
     0
 42
0.2
  3
ariblk.ttf
  4

1001
ACAD
1000
Arial Black
1071
        0
  0
ENDTAB
  0
TABLE
  2
VIEW
  5
6
330
0
100
AcDbSymbolTable
 70
     0
  0
ENDTAB
  0
TABLE
  2
UCS
  5
7
330
0
100
AcDbSymbolTable
 70
     0
  0
ENDTAB
  0
TABLE
  2
APPID
  5
9
330
0
100
AcDbSymbolTable
 70
     1
  0
APPID
  5
12
330
9
100
AcDbSymbolTableRecord
100
AcDbRegAppTableRecord
  2
ACAD
 70
     0
  0
ENDTAB
  0
TABLE
  2
DIMSTYLE
  5
A
330
0
100
AcDbSymbolTable
 70
     1
100
AcDbDimStyleTable
  0
DIMSTYLE
105
27
330
A
100
AcDbSymbolTableRecord
100
AcDbDimStyleTableRecord
  2
Standard
 70
     0
178
     0
340
11
  0
ENDTAB
  0
TABLE
  2
BLOCK_RECORD
  5
1
330
0
100
AcDbSymbolTable
 70
     3
  0
BLOCK_RECORD
  5
1F
330
1
100
AcDbSymbolTableRecord
100
AcDbBlockTableRecord
  2
*Model_Space
340
22
 70
     0
280
     1
281
     0
  0
BLOCK_RECORD
  5
1B
330
1
100
AcDbSymbolTableRecord
100
AcDbBlockTableRecord
  2
*Paper_Space
340
1E
 70
     0
280
     1
281
     0
  0
BLOCK_RECORD
  5
23
330
1
100
AcDbSymbolTableRecord
100
AcDbBlockTableRecord
  2
*Paper_Space0
340
26
 70
     0
280
     1
281
     0
  0
BLOCK_RECORD
  5
A3
330
1
100
AcDbSymbolTableRecord
100
AcDbBlockTableRecord
  2
printlayout(id_1)
340
0
102
{BLKREFS
331
B0
102
}
 70
     0
280
     1
281
     0
  0
BLOCK_RECORD
  5
B7
330
1
100
AcDbSymbolTableRecord
100
AcDbBlockTableRecord
  2
dokument alle 2d details_asc(id_4)
340
0
102
{BLKREFS
331
36B
102
}
 70
     0
280
     1
281
     0
  0
ENDTAB
  0
ENDSEC
  0
SECTION
  2
BLOCKS
  0
BLOCK
  5
20
330
1F
100
AcDbEntity
  8
0
100
AcDbBlockBegin
  2
*Model_Space
 70
     0
 10
0.0
 20
0.0
 30
0.0
  3
*Model_Space
  1

  0
ENDBLK
  5
21
330
1F
100
AcDbEntity
  8
0
100
AcDbBlockEnd
  0
BLOCK
  5
1C
330
1B
100
AcDbEntity
 67
     1
  8
0
100
AcDbBlockBegin
  2
*Paper_Space
 70
     0
 10
0.0
 20
0.0
 30
0.0
  3
*Paper_Space
  1

  0
ENDBLK
  5
1D
330
1B
100
AcDbEntity
 67
     1
  8
0
100
AcDbBlockEnd
  0
BLOCK
  5
24
330
23
100
AcDbEntity
  8
0
100
AcDbBlockBegin
  2
*Paper_Space0
 70
     0
 10
0.0
 20
0.0
 30
0.0
  3
*Paper_Space0
  1

  0
ENDBLK
  5
25
330
23
100
AcDbEntity
  8
0
100
AcDbBlockEnd
  0
BLOCK
  5
B1
330
A3
100
AcDbEntity
  8
0
100
AcDbBlockBegin
  2
printlayout(id_1)
 70
     0
 10
0.0
 20
0.0
 30
0.0
  3
printlayout(id_1)
  1

  0
POLYLINE
  5
A4
330
A3
100
AcDbEntity
  8
00_Allgemein
  6
Continuous
 62
     7
370
     0
100
AcDb2dPolyline
 66
     1
 10
0.0
 20
0.0
 30
0.0
 70
     1
  0
VERTEX
  5
A5
330
A4
100
AcDbEntity
  8
00_Allgemein
  6
Continuous
 62
     7
370
     0
100
AcDbVertex
100
AcDb2dVertex
 10
0.0
 20
0.0
 30
0.0
  0
VERTEX
  5
A6
330
A4
100
AcDbEntity
  8
00_Allgemein
  6
Continuous
 62
     7
370
     0
100
AcDbVertex
100
AcDb2dVertex
 10
297.0
 20
0.0
 30
0.0
  0
VERTEX
  5
A7
330
A4
100
AcDbEntity
  8
00_Allgemein
  6
Continuous
 62
     7
370
     0
100
AcDbVertex
100
AcDb2dVertex
 10
297.0
 20
210.0
 30
0.0
  0
VERTEX
  5
A8
330
A4
100
AcDbEntity
  8
00_Allgemein
  6
Continuous
 62
     7
370
     0
100
AcDbVertex
100
AcDb2dVertex
 10
0.0
 20
210.0
 30
0.0
  0
SEQEND
  5
A9
330
A4
100
AcDbEntity
  8
00_Allgemein
  6
Continuous
 62
     7
370
     0
  0
POLYLINE
  5
AA
330
A3
100
AcDbEntity
  8
00_Allgemein
  6
Strichpunktierte
 62
     5
420
      255
 48
5.0
370
     0
100
AcDb2dPolyline
 66
     1
 10
0.0
 20
0.0
 30
0.0
 70
     1
  0
VERTEX
  5
AB
330
AA
100
AcDbEntity
  8
00_Allgemein
  6
Strichpunktierte
 62
     5
420
      255
370
     0
100
AcDbVertex
100
AcDb2dVertex
 10
3.0
 20
3.0
 30
0.0
  0
VERTEX
  5
AC
330
AA
100
AcDbEntity
  8
00_Allgemein
  6
Strichpunktierte
 62
     5
420
      255
370
     0
100
AcDbVertex
100
AcDb2dVertex
 10
294.0
 20
3.0
 30
0.0
  0
VERTEX
  5
AD
330
AA
100
AcDbEntity
  8
00_Allgemein
  6
Strichpunktierte
 62
     5
420
      255
370
     0
100
AcDbVertex
100
AcDb2dVertex
 10
294.0
 20
207.0
 30
0.0
  0
VERTEX
  5
AE
330
AA
100
AcDbEntity
  8
00_Allgemein
  6
Strichpunktierte
 62
     5
420
      255
370
     0
100
AcDbVertex
100
AcDb2dVertex
 10
3.0
 20
207.0
 30
0.0
  0
SEQEND
  5
AF
330
AA
100
AcDbEntity
  8
00_Allgemein
  6
Strichpunktierte
 62
     5
420
      255
 48
5.0
370
     0
  0
ENDBLK
  5
B2
330
A3
100
AcDbEntity
  8
0
100
AcDbBlockEnd
  0
BLOCK
  5
36C
330
B7
100
AcDbEntity
  8
0
100
AcDbBlockBegin
  2
dokument alle 2d details_asc(id_4)
 70
     0
 10
0.0
 20
0.0
 30
0.0
  3
dokument alle 2d details_asc(id_4)
  1

  0
HATCH
  5
B8
330
B7
100
AcDbEntity
  8
Schraff_Dämmung
 62
   253
420
 10066329
100
AcDbHatch
 10
0.0
 20
0.0
 30
0.0
210
0.0
220
0.0
230
1.0
  2
SOLID
 70
     1
 71
     0
 91
        1
 92
        0
 93
        4
 72
     1
 10
138.551147542061
 20
141.4457045958226
 11
138.507569697659
 21
141.9438019472283
 72
     1
 10
138.507569697659
 20
141.9438019472283
 11
127.5494279667357
 21
140.9850893703872
 72
     1
 10
127.5494279667357
 20
140.9850893703872
 11
127.5930058111375
 21
140.4869920189816
 72
     1
 10
127.5930058111375
 20
140.4869920189816
 11
138.551147542061
 21
141.4457045958226
 97
        0
 75
     0
 76
     1
 98
        0
  0
LINE
  5
B9
330
B7
100
AcDbEntity
  8
12_Linie
 62
     7
370
    20
100
AcDbLine
 10
207.093933676403
 20
136.4017938048172
 30
0.0
 11
207.1810894654891
 21
135.4055982850572
 31
0.0
  0
LINE
  5
BA
330
B7
100
AcDbEntity
  8
STANDARD
  6
Continuous
 62
     7
370
    60
100
AcDbLine
 10
172.2725718227415
 20
113.7808326728787
 30
0.0
 11
172.2725718227415
 21
72.26510491327818
 31
0.0
  0
LINE
  5
BB
330
B7
100
AcDbEntity
  8
STANDARD
  6
Continuous
 62
     7
370
    20
100
AcDbLine
 10
96.23242624122014
 20
134.93531182128
 30
0.0
 11
115.7261021517732
 21
136.632954611796
 31
0.0
  0
LINE
  5
BC
330
B7
100
AcDbEntity
  8
STANDARD
  6
Continuous
 62
     7
370
    60
100
AcDbLine
 10
104.5730353335659
 20
126.4285593935183
 30
0.0
 11
106.3597275401355
 21
106.0065680371646
 31
0.0
  0
LINE
  5
BD
330
B7
100
AcDbEntity
  8
STANDARD
  6
Continuous
 62
     7
370
    60
100
AcDbLine
 10
238.1987029309274
 20
135.6097374491788
 30
0.0
 11
104.7909246270501
 21
123.9380726427435
 31
0.0
  0
LINE
  5
BE
330
B7
100
AcDbEntity
  8
STANDARD
  6
Continuous
 62
     7
370
    60
100
AcDbLine
 10
197.2725718227415
 20
113.9604089492683
 30
0.0
 11
197.2725718227415
 21
72.26510491327818
 31
0.0
  0
LINE
  5
BF
330
B7
100
AcDbEntity
  8
STANDARD
  6
Continuous
 62
     7
370
    60
100
AcDbLine
 10
239.7675058440127
 20
117.6782328436
 30
0.0
 11
186.2725718227415
 21
112.9980339325856
 31
0.0
  0
LINE
  5
C0
330
B7
100
AcDbEntity
  8
STANDARD
  6
Continuous
 62
     7
370
    60
100
AcDbLine
 10
237.9808136374433
 20
138.1002241999537
 30
0.0
 11
104.5730353335659
 21
126.4285593935183
 31
0.0
  0
LINE
  5
C1
330
B7
100
AcDbEntity
  8
12_Linie
 62
     7
370
    20
100
AcDbLine
 10
107.4744636454096
 20
127.6862220654592
 30
0.0
 11
107.5616194344957
 21
126.6900265456992
 31
0.0
  0
LINE
  5
C2
330
B7
100
AcDbEntity
  8
12_Linie
 62
     7
370
    20
100
AcDbLine
 10
117.4364106485089
 20
128.5577792393958
 30
0.0
 11
117.523566437595
 21
127.5615837196357
 31
0.0
  0
LINE
  5
C3
330
B7
100
AcDbEntity
  8
12_Linie
 62
     7
370
    20
100
AcDbLine
 10
127.3983576516083
 20
129.4293364133323
 30
0.0
 11
127.4855134406944
 21
128.4331408935723
 31
0.0
  0
LINE
  5
C4
330
B7
100
AcDbEntity
  8
12_Linie
 62
     7
370
    20
100
AcDbLine
 10
137.3603046547076
 20
130.3008935872679
 30
0.0
 11
137.4474604437937
 21
129.3046980675079
 31
0.0
  0
LINE
  5
C5
330
B7
100
AcDbEntity
  8
12_Linie
 62
     7
370
    20
100
AcDbLine
 10
147.3222516578069
 20
131.1724507612035
 30
0.0
 11
147.4094074468931
 21
130.1762552414435
 31
0.0
  0
LINE
  5
C6
330
B7
100
AcDbEntity
  8
12_Linie
 62
     7
370
    20
100
AcDbLine
 10
157.2841986609063
 20
132.0440079351391
 30
0.0
 11
157.3713544499924
 21
131.0478124153791
 31
0.0
  0
HATCH
  5
C7
330
B7
100
AcDbEntity
  8
Schraff_Dämmung
 62
   252
100
AcDbHatch
 10
0.0
 20
0.0
 30
0.0
210
0.0
220
0.0
230
1.0
  2
SOLID
 70
     1
 71
     0
 91
        4
 92
        0
 93
        4
 72
     1
 10
138.8421175129963
 20
139.9654314046476
 11
138.6562257951096
 21
140.4510779132262
 72
     1
 10
138.6562257951096
 20
140.4510779132262
 11
127.6622389356962
 21
139.4892292959556
 72
     1
 10
127.6622389356962
 20
139.4892292959556
 11
127.5635029066132
 21
138.9786811017229
 72
     1
 10
127.5635029066132
 20
138.9786811017229
 11
138.8421175129963
 21
139.9654314046476
 97
        0
 92
        0
 93
        4
 72
     1
 10
126.964902580026
 20
139.4282203082198
 11
125.6877720943186
 21
139.316485938563
 72
     1
 10
125.6877720943186
 20
139.316485938563
 11
125.7313499387206
 21
138.8183885871574
 72
     1
 10
125.7313499387206
 20
138.8183885871574
 11
127.1507936725913
 21
138.9425737449327
 72
     1
 10
127.1507936725913
 20
138.9425737449327
 11
126.9649026437281
 21
139.428220313793
 97
        0
 92
        0
 93
        4
 72
     1
 10
140.6306926364871
 20
140.6238212706188
 11
139.3535620870778
 21
140.5120868953888
 72
     1
 10
139.3535620870778
 20
140.5120868953888
 11
139.2548267470183
 21
140.0015387614378
 72
     1
 10
139.2548267470183
 20
140.0015387614378
 11
140.674270480889
 21
140.1257239192131
 72
     1
 10
140.674270480889
 20
140.1257239192131
 11
140.6306926364871
 21
140.6238212706188
 97
        0
 92
        0
 93
        8
 72
     2
 10
132.2586235810979
 20
150.2641655336402
 40
4.166666666666675
 50
21.26020160574612
 51
168.7397921891214
 73
     1
 72
     1
 10
128.1721631329154
 20
151.0777699317051
 11
128.207089434324
 21
150.6785602308859
 72
     1
 10
128.207089434324
 20
150.6785602308859
 11
131.5086235810559
 21
151.5632036392926
 72
     2
 10
132.2586235810979
 20
150.2641655336402
 40
1.5
 50
239.9999999981487
 51
474.9928205806456
 73
     0
 72
     1
 10
131.6248665401376
 20
148.9046244297992
 11
128.4370197158785
 21
148.0504434476389
 72
     1
 10
128.4370197158785
 20
148.0504434476389
 11
129.0437200209526
 21
141.1158229035928
 72
     1
 10
129.0437200209526
 20
141.1158229035928
 11
137.0132776434424
 21
141.8130684140227
 72
     1
 10
137.0132776434424
 20
141.8130684140227
 11
136.1417207554052
 21
151.7750154421349
 97
        0
 75
     0
 76
     1
 98
        0
  0
HATCH
  5
C8
330
B7
100
AcDbEntity
  8
Schraff_Dämmung
 62
   253
100
AcDbHatch
 10
0.0
 20
0.0
 30
0.0
210
0.0
220
0.0
230
1.0
  2
SOLID
 70
     1
 71
     0
 91
        2
 92
        0
 93
        7
 72
     1
 10
132.258623581141
 20
151.7641655336402
 11
123.2845538364501
 21
149.3595707927128
 72
     1
 10
123.2845538364501
 20
149.3595707927128
 11
124.6429016205439
 21
148.9956026009269
 72
     4
 94
        3
 73
     0
 74
     0
 95
        8
 96
        4
 40
0.0
 40
0.0
 40
0.0
 40
0.0
 40
1.017569024012753
 40
1.017569024012753
 40
1.017569024012753
 40
1.017569024012753
 10
124.6429016205439
 20
148.9956026009269
 10
125.0544055163591
 20
148.8853404643618
 10
125.028650697878
 20
148.5471299903543
 10
124.5656371651006
 20
147.9809711789045
 97
        0
 72
     4
 94
        3
 73
     0
 74
     0
 95
        8
 96
        4
 40
0.0
 40
0.0
 40
0.0
 40
0.0
 40
0.5951652273552397
 40
0.5951652273552397
 40
0.5951652273552397
 40
0.5951652273552397
 10
124.5656371651006
 20
147.9809711789047
 10
124.4371662666084
 20
147.8238808866189
 10
124.2592903004749
 20
147.7360281601694
 10
124.0320092667002
 20
147.717412999556
 97
        0
 72
     4
 94
        3
 73
     0
 74
     0
 95
        8
 96
        4
 40
0.0
 40
0.0
 40
0.0
 40
0.0
 40
0.8427070783797984
 40
0.8427070783797984
 40
0.8427070783797984
 40
0.8427070783797984
 10
124.0320092667002
 20
147.7174129995559
 10
123.6661090850876
 20
147.6874444160096
 10
123.6720423924958
 20
147.406604726127
 10
124.049809188925
 20
146.8748939299081
 97
        0
 72
     1
 10
124.0498091889251
 20
146.8748939299082
 11
133.4872438303202
 21
149.4036469207093
 72
     2
 10
132.2586235810979
 20
150.2641655336402
 40
1.5
 50
324.9928205808468
 51
449.9999999983501
 73
     1
 97
        0
 92
        0
 93
        7
 72
     4
 94
        3
 73
     0
 74
     0
 95
        8
 96
        4
 40
0.0
 40
0.0
 40
0.0
 40
0.0
 40
1.218540091115994
 40
1.218540091115994
 40
1.218540091115994
 40
1.218540091115994
 10
149.450621724198
 20
153.6810211358765
 10
149.6296346098235
 20
154.1656913343139
 10
149.5810982304247
 20
154.5689610169679
 10
149.3050125860017
 20
154.8908301838385
 97
        0
 72
     4
 94
        3
 73
     0
 74
     0
 95
        8
 96
        4
 40
0.0
 40
0.0
 40
0.0
 40
0.0
 40
0.9104273015519846
 40
0.9104273015519846
 40
0.9104273015519846
 40
0.9104273015519846
 10
149.3050125860016
 20
154.8908301838383
 10
148.8739725698336
 20
155.3933499406397
 10
148.8433663729293
 20
155.6952784122666
 10
149.2131939952887
 20
155.796615598719
 97
        0
 72
     4
 94
        3
 73
     0
 74
     0
 95
        8
 96
        4
 40
0.0
 40
0.0
 40
0.0
 40
0.0
 40
1.280536133202463
 40
1.280536133202463
 40
1.280536133202463
 40
1.280536133202463
 10
149.2131939952886
 20
155.7966155987193
 10
149.5243258615556
 20
155.8818694468284
 10
149.8622874829594
 20
156.1425971188371
 10
150.2270788595002
 20
156.5787986147452
 97
        0
 72
     1
 10
150.2270788595004
 20
156.5787986147452
 11
135.6571476112842
 21
152.6747973029814
 72
     2
 10
132.2586235810979
 20
150.2641655336402
 40
4.166666666666675
 50
324.6512640165013
 51
338.7397983942539
 73
     0
 72
     1
 10
136.1417207554052
 20
151.7750154421349
 11
136.2836341037708
 21
150.1529374362079
 72
     1
 10
136.2836341037708
 20
150.1529374362079
 11
149.450621724198
 21
153.6810211358765
 97
        0
 75
     0
 76
     1
 98
        0
  0
HATCH
  5
C9
330
B7
100
AcDbEntity
  8
Folie _ 3
  6
Continuous
 62
    50
100
AcDbHatch
 10
0.0
 20
0.0
 30
0.0
210
0.0
220
0.0
230
1.0
  2
SOLID
 70
     1
 71
     0
 91
        1
 92
        0
 93
        4
 72
     1
 10
140.7874518502067
 20
138.8320415628281
 11
141.5021218502066
 21
130.6632415628283
 72
     1
 10
141.5021218502066
 20
130.6632415628283
 11
237.8936579200497
 21
139.0964189002636
 72
     1
 10
237.8936579200497
 20
139.0964189002636
 11
235.852962927372
 21
147.1492154843722
 72
     1
 10
235.852962927372
 20
147.1492154843722
 11
140.7874518502067
 21
138.8320415628281
 97
        0
 75
     0
 76
     1
 98
        0
  0
LINE
  5
CA
330
B7
100
AcDbEntity
  8
12_Linie
 62
     7
370
    20
100
AcDbLine
 10
156.2725718227415
 20
128.4421318317256
 30
0.0
 11
172.2725718227415
 21
124.6223690988345
 31
0.0
  0
LINE
  5
CB
330
B7
100
AcDbEntity
  8
12_Linie
 62
     7
370
    20
100
AcDbLine
 10
156.2725718227415
 20
120.8026063659435
 30
0.0
 11
172.2725718227415
 21
124.6223690988346
 31
0.0
  0
LINE
  5
CC
330
B7
100
AcDbEntity
  8
STANDARD
  6
Continuous
 62
     7
370
    60
100
AcDbLine
 10
155.7725718227415
 20
110.3296304772383
 30
0.0
 11
106.3597275401355
 21
106.0065680371646
 31
0.0
  0
HATCH
  5
CD
330
B7
100
AcDbEntity
  8
Schraff_Dämmung
 62
     7
100
AcDbHatch
 10
0.0
 20
0.0
 30
0.0
210
0.0
220
0.0
230
1.0
  2
SOLID
 70
     1
 71
     0
 91
        7
 92
        0
 93
        4
 72
     1
 10
110.0713705518063
 20
136.4417771862531
 11
109.3740342208261
 21
136.3807686500057
 72
     1
 10
109.3740342208261
 20
136.3807686500057
 11
109.3827497260043
 21
136.2811491741513
 72
     1
 10
109.3827497260043
 20
136.2811491741513
 11
110.0800860569845
 21
136.3421577103988
 72
     1
 10
110.0800860569845
 20
136.3421577103988
 11
110.0713705518063
 21
136.4417771862531
 97
        0
 92
        0
 93
        4
 72
     1
 10
110.0800860569845
 20
136.3421577103988
 11
109.3827497260043
 21
136.2811491741513
 72
     1
 10
109.3827497260043
 20
136.2811491741513
 11
109.4571061511346
 21
136.0868905111161
 72
     1
 10
109.4571061511346
 20
136.0868905111161
 11
110.0405916525669
 21
136.137938470017
 72
     1
 10
110.0405916525669
 20
136.137938470017
 11
110.0800860569845
 21
136.3421577103988
 97
        0
 92
        0
 93
        4
 72
     1
 10
110.0405916525669
 20
136.137938470017
 11
109.4571061511346
 21
136.0868905111161
 72
     1
 10
109.4571061511346
 20
136.0868905111161
 11
109.6429972139604
 21
135.6012438535275
 72
     1
 10
109.6429972139604
 20
135.6012438535275
 11
109.9418556415232
 21
135.6273903690621
 72
     1
 10
109.9418556415232
 20
135.6273903690621
 11
110.0405916525669
 21
136.137938470017
 97
        0
 92
        0
 93
        4
 72
     1
 10
109.9418556415232
 20
135.6273903690621
 11
109.6429972139604
 21
135.6012438535275
 72
     1
 10
109.6429972139602
 20
135.6012438535277
 11
109.6755515659186
 21
135.2291429353858
 72
     1
 10
109.6755515659186
 20
135.2291429353858
 11
109.9767869494393
 21
135.2281205029602
 72
     1
 10
109.9767869494393
 20
135.2281205029602
 11
109.9418556415232
 21
135.6273903690622
 97
        0
 92
        0
 93
        4
 72
     1
 10
109.9767869494393
 20
135.2281205029602
 11
109.6755515659186
 21
135.2291429353858
 72
     1
 10
109.6755515659186
 20
135.2291429353858
 11
109.7560992497769
 21
134.3084713411212
 72
     1
 10
109.7560992497769
 20
134.3084713411212
 11
110.0573346332976
 21
134.3074489086956
 72
     1
 10
110.0573346332976
 20
134.3074489086956
 11
109.9767869494393
 21
135.2281205029602
 97
        0
 92
        0
 93
        4
 72
     1
 10
110.0573346332976
 20
134.3074489086956
 11
109.7560992497769
 21
134.3084713411212
 72
     1
 10
109.7560992497769
 20
134.3084713411212
 11
109.8195988489346
 21
133.5826618033259
 72
     1
 10
109.8195988489346
 20
133.5826618033259
 11
110.1208342324553
 21
133.5816393709002
 72
     1
 10
110.1208342324553
 20
133.5816393709002
 11
110.0573346332976
 21
134.3074489086956
 97
        0
 92
        0
 93
        4
 72
     1
 10
110.1208342324553
 20
133.5816393709002
 11
109.8195988489346
 21
133.5826618033259
 72
     1
 10
109.8195988489346
 20
133.5826618033259
 11
109.9016650541724
 21
132.6446332916133
 72
     1
 10
109.9016650541724
 20
132.6446332916132
 11
110.2005234817354
 21
132.6707798071478
 72
     1
 10
110.2005234817352
 20
132.6707798071478
 11
110.1208342324553
 21
133.5816393709002
 97
        0
 75
     0
 76
     1
 98
        0
  0
LINE
  5
CE
330
B7
100
AcDbEntity
  8
12_Linie
 62
     7
370
    20
100
AcDbLine
 10
156.2725718227415
 20
113.1630809001614
 30
0.0
 11
172.2725718227415
 21
116.9828436330525
 31
0.0
  0
LINE
  5
CF
330
B7
100
AcDbEntity
  8
STANDARD
  6
Continuous
 62
     7
370
    60
100
AcDbLine
 10
172.2725718227415
 20
113.7808326728787
 30
0.0
 11
186.2725718227415
 21
113.7808326728787
 31
0.0
  0
LINE
  5
D0
330
B7
100
AcDbEntity
  8
STANDARD
  6
Continuous
 62
     7
370
    60
100
AcDbLine
 10
186.2725718227415
 20
113.7808326728787
 30
0.0
 11
186.2725718227415
 21
97.78083267287866
 31
0.0
  0
LINE
  5
D1
330
B7
100
AcDbEntity
  8
STANDARD
  6
Continuous
 62
     7
370
    60
100
AcDbLine
 10
186.2725718227415
 20
97.78083267287866
 30
0.0
 11
172.2725718227415
 21
97.78083267287866
 31
0.0
  0
LINE
  5
D2
330
B7
100
AcDbEntity
  8
STANDARD
  6
Continuous
 62
     7
370
    20
100
AcDbLine
 10
95.93242624122013
 20
135.2103212359342
 30
0.0
 11
102.9670769079379
 21
135.822946789111
 31
0.0
  0
LINE
  5
D3
330
B7
100
AcDbEntity
  8
STANDARD
  6
Continuous
 62
     7
370
    20
100
AcDbLine
 10
96.23242624122014
 20
134.93531182128
 30
0.0
 11
96.23242624122031
 21
130.1751017372224
 31
0.0
  0
LINE
  5
D4
330
B7
100
AcDbEntity
  8
STANDARD
  6
Continuous
 62
     7
370
    20
100
AcDbLine
 10
96.7486892694964
 20
132.6409626349027
 30
0.0
 11
97.05519149645025
 21
132.6409626349026
 31
0.0
  0
LINE
  5
D5
330
B7
100
AcDbEntity
  8
STANDARD
  6
Continuous
 62
     7
370
    20
100
AcDbLine
 10
96.23242624122031
 20
130.1751017372224
 30
0.0
 11
96.7486892694964
 21
132.6409626349027
 31
0.0
  0
LINE
  5
D6
330
B7
100
AcDbEntity
  8
STANDARD
  6
Continuous
 62
     7
370
    20
100
AcDbLine
 10
95.93242624122013
 20
135.2103212359342
 30
0.0
 11
95.93242624122031
 21
130.0767609336026
 31
0.0
  0
LINE
  5
D7
330
B7
100
AcDbEntity
  8
STANDARD
  6
Continuous
 62
     7
370
    20
100
AcDbLine
 10
96.51468801557768
 20
130.0593336854636
 30
0.0
 11
97.05519149645025
 21
132.6409626349026
 31
0.0
  0
ARC
  5
D8
330
B7
100
AcDbEntity
  8
STANDARD
  6
Continuous
 62
     7
370
    20
100
AcDbCircle
 10
96.22538145878607
 20
130.1290000107112
 30
0.0
 40
0.2975763442818989
100
AcDbArc
 50
190.110578253343
 51
346.460689826503
  0
LINE
  5
D9
330
B7
100
AcDbEntity
  8
STANDARD
  6
Continuous
 62
     7
370
    60
100
AcDbLine
 10
172.2725718227415
 20
97.78083267287866
 30
0.0
 11
186.2725718227415
 21
113.7808326728787
 31
0.0
  0
LINE
  5
DA
330
B7
100
AcDbEntity
  8
STANDARD
  6
Continuous
 62
     7
370
    60
100
AcDbLine
 10
186.2725718227415
 20
97.78083267287866
 30
0.0
 11
172.2725718227415
 21
113.7808326728787
 31
0.0
  0
LINE
  5
DB
330
B7
100
AcDbEntity
  8
STANDARD
  6
Continuous
 62
     7
370
    20
100
AcDbLine
 10
115.7255395444798
 20
136.6394149132783
 30
0.0
 11
115.6995120016512
 21
136.9382837256597
 31
0.0
  0
LINE
  5
DC
330
B7
100
AcDbEntity
  8
12_Linie
 62
     7
370
    20
100
AcDbLine
 10
156.2725718227415
 20
120.8026063659435
 30
0.0
 11
172.2725718227415
 21
116.9828436330524
 31
0.0
  0
LINE
  5
DD
330
B7
100
AcDbEntity
  8
12_Linie
 62
     7
370
    20
100
AcDbLine
 10
156.2725718227415
 20
97.88402996859703
 30
0.0
 11
172.2725718227415
 21
101.7037927014881
 31
0.0
  0
LINE
  5
DE
330
B7
100
AcDbEntity
  8
12_Linie
 62
     7
370
    20
100
AcDbLine
 10
156.2725718227415
 20
105.5235554343791
 30
0.0
 11
172.2725718227415
 21
101.7037927014881
 31
0.0
  0
LINE
  5
DF
330
B7
100
AcDbEntity
  8
12_Linie
 62
     7
370
    20
100
AcDbLine
 10
156.2725718227415
 20
113.1630809001612
 30
0.0
 11
172.2725718227415
 21
109.3433181672701
 31
0.0
  0
LINE
  5
E0
330
B7
100
AcDbEntity
  8
12_Linie
 62
     7
370
    20
100
AcDbLine
 10
156.2725718227415
 20
105.5235554343791
 30
0.0
 11
172.2725718227415
 21
109.3433181672702
 31
0.0
  0
HATCH
  5
E1
330
B7
100
AcDbEntity
  8
Folie _ 3
  6
Continuous
 62
    50
100
AcDbHatch
 10
0.0
 20
0.0
 30
0.0
210
0.0
220
0.0
230
1.0
  2
SOLID
 70
     1
 71
     0
 91
        1
 92
        0
 93
        5
 72
     1
 10
115.7261021517732
 20
136.632954611796
 11
125.8140864885212
 21
137.5220494812073
 72
     1
 10
125.8140864885212
 20
137.5220494812073
 11
125.8445307150077
 21
137.5247130091505
 72
     1
 10
125.8445307150077
 20
137.5247130091505
 11
126.5592002043912
 21
129.3559188455853
 72
     1
 10
126.5592002043912
 20
129.3559188455853
 11
116.4402197096517
 21
128.4706230253639
 72
     1
 10
116.4402197096517
 20
128.4706230253639
 11
115.7261021517732
 21
136.632954611796
 97
        0
 75
     0
 76
     1
 98
        0
  0
LINE
  5
E2
330
B7
100
AcDbEntity
  8
12_Linie
 62
     7
370
    20
100
AcDbLine
 10
161.6792086470752
 20
132.4285074030776
 30
0.0
 11
162.9822386039641
 21
140.7738268037706
 31
0.0
  0
LINE
  5
E3
330
B7
100
AcDbEntity
  8
12_Linie
 62
     7
370
    20
100
AcDbLine
 10
165.7146259135399
 20
132.7815616330818
 30
0.0
 11
162.9822386039641
 21
140.7738268037706
 31
0.0
  0
HATCH
  5
E4
330
B7
100
AcDbEntity
  8
Schraff_Dämmung
 62
   253
100
AcDbHatch
 10
0.0
 20
0.0
 30
0.0
210
0.0
220
0.0
230
1.0
  2
SOLID
 70
     1
 71
     0
 91
        2
 92
        0
 93
        9
 72
     1
 10
104.1640423381132
 20
131.1034090772503
 11
103.7757163312717
 21
130.9548886232614
 72
     1
 10
103.7757163312717
 20
130.9548886232614
 11
103.8430836584206
 21
130.1824891070475
 72
     1
 10
103.8430836584206
 20
130.1824891070475
 11
104.0706848754993
 21
127.5809683743005
 72
     1
 10
104.0706848754993
 20
127.5809683743005
 11
98.83327213233879
 21
125.1262922889615
 72
     2
 10
91.3459450752047
 20
124.6904786366863
 40
7.5
 50
356.6687524330531
 51
534.2833195183633
 73
     0
 72
     1
 10
83.88324547844513
 20
123.9434078712811
 11
83.48523483328445
 21
123.9035640971262
 72
     2
 10
91.3459450752047
 20
124.6904786366863
 40
7.900000000000046
 50
185.7166804816363
 51
361.3523144162854
 73
     1
 72
     1
 10
99.24374474923152
 20
124.8769198042006
 11
104.4935227936241
 21
127.3373912718602
 72
     1
 10
104.4935227936241
 20
127.3373912718602
 11
104.1640423381132
 21
131.1034090772503
 97
        0
 92
        0
 93
        6
 72
     1
 10
103.868067365726
 20
134.4864534955655
 11
103.4695894551709
 21
134.451591556439
 72
     1
 10
103.4695894551709
 20
134.451591556439
 11
103.6447774562907
 21
132.4491628221316
 72
     1
 10
103.6447774562907
 20
132.4491628221316
 11
103.645383751979
 21
132.4492157021751
 72
     1
 10
103.645383751979
 20
132.4492157021751
 11
103.7148944609353
 21
131.6522412600878
 72
     1
 10
103.7148944609353
 20
131.6522412600878
 11
104.1229400611024
 21
131.5732151142275
 72
     1
 10
104.1229400611024
 20
131.5732151142275
 11
103.868067365726
 21
134.4864534955653
 97
        0
 75
     0
 76
     1
 98
        0
  0
LINE
  5
E5
330
B7
100
AcDbEntity
  8
12_Linie
 62
     7
370
    20
100
AcDbLine
 10
234.3167202796207
 20
138.7834739855647
 30
0.0
 11
231.5843350732781
 21
146.7757398753042
 31
0.0
  0
LINE
  5
E6
330
B7
100
AcDbEntity
  8
12_Linie
 62
     7
370
    20
100
AcDbLine
 10
156.2725718227415
 20
82.60497903703289
 30
0.0
 11
172.2725718227415
 21
78.78521630414178
 31
0.0
  0
LINE
  5
E7
330
B7
100
AcDbEntity
  8
12_Linie
 62
     7
370
    20
100
AcDbLine
 10
156.2725718227415
 20
74.96545357125078
 30
0.0
 11
172.2725718227415
 21
78.78521630414187
 31
0.0
  0
LINE
  5
E8
330
B7
100
AcDbEntity
  8
12_Linie
 62
     7
370
    20
100
AcDbLine
 10
169.7500430870954
 20
133.1346169250405
 30
0.0
 11
167.0176536742874
 21
141.1268813766781
 31
0.0
  0
LINE
  5
E9
330
B7
100
AcDbEntity
  8
12_Linie
 62
     7
370
    20
100
AcDbLine
 10
165.7146259135399
 20
132.7815616330818
 30
0.0
 11
167.0176536742874
 21
141.1268813766781
 31
0.0
  0
LINE
  5
EA
330
B7
100
AcDbEntity
  8
12_Linie
 62
     7
370
    20
100
AcDbLine
 10
230.2813029202469
 20
138.4304208175149
 30
0.0
 11
231.5843350732781
 21
146.7757398753042
 31
0.0
  0
LINE
  5
EB
330
B7
100
AcDbEntity
  8
12_Linie
 62
     7
370
    20
100
AcDbLine
 10
202.0333817762672
 20
135.9590443933484
 30
0.0
 11
199.3009965699246
 21
143.9513102830879
 31
0.0
  0
LINE
  5
EC
330
B7
100
AcDbEntity
  8
12_Linie
 62
     7
370
    20
100
AcDbLine
 10
116.4402197096517
 20
128.4706230253639
 30
0.0
 11
117.7432518626827
 21
136.8159420831533
 31
0.0
  0
LINE
  5
ED
330
B7
100
AcDbEntity
  8
12_Linie
 62
     7
370
    20
100
AcDbLine
 10
156.2725718227415
 20
97.88402996859722
 30
0.0
 11
172.2725718227415
 21
94.06426723570611
 31
0.0
  0
LINE
  5
EE
330
B7
100
AcDbEntity
  8
12_Linie
 62
     7
370
    20
100
AcDbLine
 10
161.6792086470754
 20
132.4285074030776
 30
0.0
 11
158.9468234407326
 21
140.4207732928171
 31
0.0
  0
LINE
  5
EF
330
B7
100
AcDbEntity
  8
12_Linie
 62
     7
370
    20
100
AcDbLine
 10
120.4756370690257
 20
128.8236761934139
 30
0.0
 11
117.7432518626825
 21
136.8159420831533
 31
0.0
  0
LINE
  5
F0
330
B7
100
AcDbEntity
  8
12_Linie
 62
     7
370
    20
100
AcDbLine
 10
197.9979644168934
 20
135.6059912252984
 30
0.0
 11
199.3009965699246
 21
143.9513102830879
 31
0.0
  0
LINE
  5
F1
330
B7
100
AcDbEntity
  8
12_Linie
 62
     7
370
    20
100
AcDbLine
 10
157.6437912877016
 20
132.0754542350277
 30
0.0
 11
158.9468234407326
 21
140.4207732928171
 31
0.0
  0
LINE
  5
F2
330
B7
100
AcDbEntity
  8
12_Linie
 62
     7
370
    20
100
AcDbLine
 10
124.5110543354904
 20
129.1767304234181
 30
0.0
 11
121.7786670259147
 21
137.1689955941068
 31
0.0
  0
LINE
  5
F3
330
B7
100
AcDbEntity
  8
12_Linie
 62
     7
370
    20
100
AcDbLine
 10
120.4756370690257
 20
128.8236761934139
 30
0.0
 11
121.7786670259149
 21
137.1689955941068
 31
0.0
  0
LINE
  5
F4
330
B7
100
AcDbEntity
  8
12_Linie
 62
     7
370
    20
100
AcDbLine
 10
153.6083738354188
 20
131.7224021289322
 30
0.0
 11
154.9114081845914
 21
140.0677208438173
 31
0.0
  0
LINE
  5
F5
330
B7
100
AcDbEntity
  8
12_Linie
 62
     7
370
    20
100
AcDbLine
 10
157.6437912877016
 20
132.0754542350277
 30
0.0
 11
154.9114081845914
 21
140.0677208438173
 31
0.0
  0
LINE
  5
F6
330
B7
100
AcDbEntity
  8
12_Linie
 62
     7
370
    20
100
AcDbLine
 10
153.6083738354191
 20
131.7224021289323
 30
0.0
 11
150.8759886290762
 21
139.7146680186716
 31
0.0
  0
LINE
  5
F7
330
B7
100
AcDbEntity
  8
12_Linie
 62
     7
370
    20
100
AcDbLine
 10
169.750043087095
 20
133.1346169250405
 30
0.0
 11
171.0530730439841
 21
141.4799363257334
 31
0.0
  0
LINE
  5
F8
330
B7
100
AcDbEntity
  8
12_Linie
 62
     7
370
    20
100
AcDbLine
 10
124.5110543354902
 20
129.1767304234181
 30
0.0
 11
125.8140864885212
 21
137.5220494812073
 31
0.0
  0
LINE
  5
F9
330
B7
100
AcDbEntity
  8
12_Linie
 62
     7
370
    20
100
AcDbLine
 10
141.5021218502066
 20
130.6632415628283
 30
0.0
 11
142.8051540032375
 21
139.0085606206177
 31
0.0
  0
LINE
  5
FA
330
B7
100
AcDbEntity
  8
12_Linie
 62
     7
370
    20
100
AcDbLine
 10
145.5375392095804
 20
131.0162947308782
 30
0.0
 11
142.8051540032375
 21
139.0085606206177
 31
0.0
  0
LINE
  5
FB
330
B7
100
AcDbEntity
  8
12_Linie
 62
     7
370
    20
100
AcDbLine
 10
149.5729564760453
 20
131.3693489608825
 30
0.0
 11
146.8405691664699
 21
139.3616141315712
 31
0.0
  0
LINE
  5
FC
330
B7
100
AcDbEntity
  8
12_Linie
 62
     7
370
    20
100
AcDbLine
 10
181.8562949793985
 20
134.1937785530991
 30
0.0
 11
179.1239076698228
 21
142.1860437237879
 31
0.0
  0
LINE
  5
FD
330
B7
100
AcDbEntity
  8
12_Linie
 62
     7
370
    20
100
AcDbLine
 10
145.5375392095804
 20
131.0162947308782
 30
0.0
 11
146.8405691664699
 21
139.3616141315712
 31
0.0
  0
LINE
  5
FE
330
B7
100
AcDbEntity
  8
12_Linie
 62
     7
370
    20
100
AcDbLine
 10
149.5729564760452
 20
131.3693489608825
 30
0.0
 11
150.8759886290762
 21
139.7146680186717
 31
0.0
  0
LINE
  5
FF
330
B7
100
AcDbEntity
  8
12_Linie
 62
     7
370
    20
100
AcDbLine
 10
177.8208777129337
 20
133.8407243230948
 30
0.0
 11
179.1239076698228
 21
142.1860437237879
 31
0.0
  0
LINE
  5
100
330
B7
100
AcDbEntity
  8
12_Linie
 62
     7
370
    20
100
AcDbLine
 10
173.7854603535598
 20
133.4876711550449
 30
0.0
 11
175.0884925065904
 21
141.8329902128342
 31
0.0
  0
LINE
  5
101
330
B7
100
AcDbEntity
  8
12_Linie
 62
     7
370
    20
100
AcDbLine
 10
177.8208777129337
 20
133.8407243230948
 30
0.0
 11
175.0884925065904
 21
141.8329902128342
 31
0.0
  0
LINE
  5
102
330
B7
100
AcDbEntity
  8
12_Linie
 62
     7
370
    20
100
AcDbLine
 10
173.78546035356
 20
133.4876711550449
 30
0.0
 11
171.0530730439841
 21
141.4799363257335
 31
0.0
  0
LINE
  5
103
330
B7
100
AcDbEntity
  8
12_Linie
 62
     7
370
    20
100
AcDbLine
 10
193.9625469646107
 20
135.2529391192031
 30
0.0
 11
195.2655813137833
 21
143.5982578340881
 31
0.0
  0
LINE
  5
104
330
B7
100
AcDbEntity
  8
12_Linie
 62
     7
370
    20
100
AcDbLine
 10
197.9979644168934
 20
135.6059912252984
 30
0.0
 11
195.2655813137833
 21
143.5982578340881
 31
0.0
  0
LINE
  5
105
330
B7
100
AcDbEntity
  8
12_Linie
 62
     7
370
    20
100
AcDbLine
 10
202.0333817762672
 20
135.9590443933484
 30
0.0
 11
203.3364117331563
 21
144.3043637940414
 31
0.0
  0
LINE
  5
106
330
B7
100
AcDbEntity
  8
12_Linie
 62
     7
370
    20
100
AcDbLine
 10
206.0687990427317
 20
136.3120986233527
 30
0.0
 11
203.3364117331563
 21
144.3043637940414
 31
0.0
  0
LINE
  5
107
330
B7
100
AcDbEntity
  8
12_Linie
 62
     7
370
    20
100
AcDbLine
 10
210.1042162162876
 20
136.6651539153114
 30
0.0
 11
207.3718268034794
 21
144.6574183669489
 31
0.0
  0
LINE
  5
108
330
B7
100
AcDbEntity
  8
12_Linie
 62
     7
370
    20
100
AcDbLine
 10
206.0687990427317
 20
136.3120986233527
 30
0.0
 11
207.3718268034794
 21
144.6574183669489
 31
0.0
  0
LINE
  5
109
330
B7
100
AcDbEntity
  8
12_Linie
 62
     7
370
    20
100
AcDbLine
 10
210.1042162162872
 20
136.6651539153114
 30
0.0
 11
211.4072461731763
 21
145.0104733160042
 31
0.0
  0
LINE
  5
10A
330
B7
100
AcDbEntity
  8
12_Linie
 62
     7
370
    20
100
AcDbLine
 10
193.9625469646111
 20
135.2529391192031
 30
0.0
 11
191.2301617582683
 21
143.2452050089425
 31
0.0
  0
LINE
  5
10B
330
B7
100
AcDbEntity
  8
12_Linie
 62
     7
370
    20
100
AcDbLine
 10
214.1396334827517
 20
137.0182081453157
 30
0.0
 11
215.4426656357826
 21
145.363527203105
 31
0.0
  0
LINE
  5
10C
330
B7
100
AcDbEntity
  8
12_Linie
 62
     7
370
    20
100
AcDbLine
 10
181.8562949793986
 20
134.1937785530992
 30
0.0
 11
183.1593271324295
 21
142.5390976108885
 31
0.0
  0
LINE
  5
10D
330
B7
100
AcDbEntity
  8
12_Linie
 62
     7
370
    20
100
AcDbLine
 10
218.1750508421257
 20
137.3712613133656
 30
0.0
 11
215.4426656357826
 21
145.363527203105
 31
0.0
  0
LINE
  5
10E
330
B7
100
AcDbEntity
  8
12_Linie
 62
     7
370
    20
100
AcDbLine
 10
214.1396334827521
 20
137.0182081453158
 30
0.0
 11
211.4072461731763
 21
145.0104733160044
 31
0.0
  0
LINE
  5
10F
330
B7
100
AcDbEntity
  8
12_Linie
 62
     7
370
    20
100
AcDbLine
 10
185.8917123387724
 20
134.5468317211491
 30
0.0
 11
183.1593271324295
 21
142.5390976108885
 31
0.0
  0
HATCH
  5
110
330
B7
100
AcDbEntity
  8
18_Schraffur
 62
   251
100
AcDbHatch
 10
0.0
 20
0.0
 30
0.0
210
0.0
220
0.0
230
1.0
  2
SOLID
 70
     1
 71
     0
 91
        1
 92
        0
 93
        4
 72
     1
 10
117.523566437595
 20
127.5615837196355
 11
117.4364107202015
 21
128.5577784199454
 72
     1
 10
117.4364107202015
 20
128.5577784199454
 11
107.4744636220399
 21
127.6862223325752
 72
     1
 10
107.4744636220399
 20
127.6862223325752
 11
107.5616194344957
 21
126.6900265456992
 72
     1
 10
107.5616194344957
 20
126.6900265456992
 11
117.523566437595
 21
127.5615837196355
 97
        0
 75
     0
 76
     1
 98
        0
  0
HATCH
  5
111
330
B7
100
AcDbEntity
  8
18_Schraffur
 62
   251
100
AcDbHatch
 10
0.0
 20
0.0
 30
0.0
210
0.0
220
0.0
230
1.0
  2
SOLID
 70
     1
 71
     0
 91
        1
 92
        0
 93
        4
 72
     1
 10
137.4474604437937
 20
129.3046980675081
 11
137.3603047264001
 21
130.300892767818
 72
     1
 10
137.3603047264001
 20
130.300892767818
 11
127.3983577233008
 21
129.4293355938817
 72
     1
 10
127.3983577233008
 20
129.4293355938817
 11
127.4855134406944
 21
128.4331408935718
 72
     1
 10
127.4855134406944
 20
128.4331408935718
 11
137.4474604437937
 21
129.3046980675081
 97
        0
 75
     0
 76
     1
 98
        0
  0
HATCH
  5
112
330
B7
100
AcDbEntity
  8
18_Schraffur
 62
   251
100
AcDbHatch
 10
0.0
 20
0.0
 30
0.0
210
0.0
220
0.0
230
1.0
  2
SOLID
 70
     1
 71
     0
 91
        1
 92
        0
 93
        4
 72
     1
 10
157.2841987325986
 20
132.0440071156906
 11
147.3222517294995
 21
131.1724499417543
 72
     1
 10
147.3222517294995
 20
131.1724499417543
 11
147.4094074468931
 21
130.1762552414444
 72
     1
 10
147.4094074468931
 20
130.1762552414444
 11
157.3713544499922
 21
131.0478124153807
 72
     1
 10
157.3713544499922
 20
131.0478124153807
 11
157.2841987325986
 21
132.0440071156906
 97
        0
 75
     0
 76
     1
 98
        0
  0
LINE
  5
113
330
B7
100
AcDbEntity
  8
12_Linie
 62
     7
370
    20
100
AcDbLine
 10
167.2461456640056
 20
132.9155651090747
 30
0.0
 11
167.3333014530917
 21
131.9193695893147
 31
0.0
  0
LINE
  5
114
330
B7
100
AcDbEntity
  8
12_Linie
 62
     7
370
    20
100
AcDbLine
 10
177.2080926671049
 20
133.7871222830104
 30
0.0
 11
177.2952484561911
 21
132.7909267632504
 31
0.0
  0
LINE
  5
115
330
B7
100
AcDbEntity
  8
12_Linie
 62
     7
370
    20
100
AcDbLine
 10
187.1700396702043
 20
134.658679456946
 30
0.0
 11
187.2571954592904
 21
133.662483937186
 31
0.0
  0
LINE
  5
116
330
B7
100
AcDbEntity
  8
12_Linie
 62
     7
370
    20
100
AcDbLine
 10
197.1319866733036
 20
135.5302366308816
 30
0.0
 11
197.2191424623898
 21
134.5340411111216
 31
0.0
  0
LINE
  5
117
330
B7
100
AcDbEntity
  8
12_Linie
 62
     7
370
    20
100
AcDbLine
 10
217.0558806795023
 20
137.2733509787528
 30
0.0
 11
217.1430364685884
 21
136.2771554589928
 31
0.0
  0
LINE
  5
118
330
B7
100
AcDbEntity
  8
12_Linie
 62
     7
370
    20
100
AcDbLine
 10
227.0178276826016
 20
138.1449081526885
 30
0.0
 11
227.1049834716878
 21
137.1487126329284
 31
0.0
  0
LINE
  5
119
330
B7
100
AcDbEntity
  8
12_Linie
 62
     7
370
    20
100
AcDbLine
 10
236.979774685701
 20
139.0164653266241
 30
0.0
 11
237.0669304747871
 21
138.0202698068641
 31
0.0
  0
HATCH
  5
11A
330
B7
100
AcDbEntity
  8
18_Schraffur
 62
   251
100
AcDbHatch
 10
0.0
 20
0.0
 30
0.0
210
0.0
220
0.0
230
1.0
  2
SOLID
 70
     1
 71
     0
 91
        1
 92
        0
 93
        4
 72
     1
 10
177.2952484561909
 20
132.7909267632534
 11
177.2080927387973
 21
133.7871214635633
 72
     1
 10
177.2080927387973
 20
133.7871214635633
 11
167.246145735698
 21
132.915564289627
 72
     1
 10
167.246145735698
 20
132.915564289627
 11
167.3333014530916
 21
131.919369589317
 72
     1
 10
167.3333014530916
 20
131.919369589317
 11
177.2952484561909
 21
132.7909267632534
 97
        0
 75
     0
 76
     1
 98
        0
  0
HATCH
  5
11B
330
B7
100
AcDbEntity
  8
18_Schraffur
 62
   251
100
AcDbHatch
 10
0.0
 20
0.0
 30
0.0
210
0.0
220
0.0
230
1.0
  2
SOLID
 70
     1
 71
     0
 91
        1
 92
        0
 93
        4
 72
     1
 10
197.2191424623894
 20
134.5340411111259
 11
197.1319867449958
 21
135.5302358114359
 72
     1
 10
197.1319867449958
 20
135.5302358114359
 11
187.1700397418965
 21
134.6586786374995
 72
     1
 10
187.1700397418965
 20
134.6586786374995
 11
187.2571954592901
 21
133.6624839371896
 72
     1
 10
187.2571954592901
 20
133.6624839371896
 11
197.2191424623894
 21
134.5340411111259
 97
        0
 75
     0
 76
     1
 98
        0
  0
HATCH
  5
11C
330
B7
100
AcDbEntity
  8
18_Schraffur
 62
   251
100
AcDbHatch
 10
0.0
 20
0.0
 30
0.0
210
0.0
220
0.0
230
1.0
  2
SOLID
 70
     1
 71
     0
 91
        1
 92
        0
 93
        4
 72
     1
 10
217.1430364685879
 20
136.2771554589985
 11
217.0558807511943
 21
137.2733501593085
 72
     1
 10
217.0558807511943
 20
137.2733501593085
 11
207.0939337480952
 21
136.4017929853721
 72
     1
 10
207.0939337480952
 20
136.4017929853721
 11
207.1810894654888
 21
135.4055982850622
 72
     1
 10
207.1810894654888
 20
135.4055982850622
 11
217.1430364685879
 21
136.2771554589985
 97
        0
 75
     0
 76
     1
 98
        0
  0
HATCH
  5
11D
330
B7
100
AcDbEntity
  8
18_Schraffur
 62
   251
100
AcDbHatch
 10
0.0
 20
0.0
 30
0.0
210
0.0
220
0.0
230
1.0
  2
SOLID
 70
     1
 71
     0
 91
        1
 92
        0
 93
        4
 72
     1
 10
236.979774757393
 20
139.0164645071811
 11
227.0178277542936
 21
138.1449073332447
 72
     1
 10
227.0178277542936
 20
138.1449073332447
 11
227.1049834716872
 21
137.1487126329348
 72
     1
 10
227.1049834716872
 20
137.1487126329348
 11
237.0669304747866
 21
138.0202698068711
 72
     1
 10
237.0669304747866
 20
138.0202698068711
 11
236.979774757393
 21
139.0164645071811
 97
        0
 75
     0
 76
     1
 98
        0
  0
LINE
  5
11E
330
B7
100
AcDbEntity
  8
STANDARD
  6
Continuous
 62
     7
370
    20
100
AcDbLine
 10
140.7874518502067
 20
138.8320415628281
 30
0.0
 11
141.5021218502066
 21
130.6632415628283
 31
0.0
  0
LINE
  5
11F
330
B7
100
AcDbEntity
  8
14_Kreis
  6
Continuous
 62
     7
370
    20
100
AcDbLine
 10
127.5494279667357
 20
140.9850893703872
 30
0.0
 11
138.507569697659
 21
141.9438019472283
 31
0.0
  0
POLYLINE
  5
120
330
B7
100
AcDbEntity
  8
34_Gruppe
  6
Continuous
 62
     7
370
    20
100
AcDb2dPolyline
 66
     1
 10
0.0
 20
0.0
 30
0.0
  0
VERTEX
  5
121
330
120
100
AcDbEntity
  8
34_Gruppe
  6
Continuous
 62
     7
370
    20
100
AcDbVertex
100
AcDb2dVertex
 10
136.5371791033265
 20
131.7763772142429
 30
0.0
  0
VERTEX
  5
122
330
120
100
AcDbEntity
  8
34_Gruppe
  6
Continuous
 62
     7
370
    20
100
AcDbVertex
100
AcDb2dVertex
 10
140.5946059621909
 20
132.4988552920255
 30
0.0
  0
VERTEX
  5
123
330
120
100
AcDbEntity
  8
34_Gruppe
  6
Continuous
 62
     7
370
    20
100
AcDbVertex
100
AcDb2dVertex
 10
141.3246658109225
 20
132.6915943602133
 30
0.0
  0
SEQEND
  5
124
330
120
100
AcDbEntity
  8
34_Gruppe
  6
Continuous
 62
     7
370
    20
  0
POLYLINE
  5
125
330
B7
100
AcDbEntity
  8
34_Gruppe
  6
Continuous
 62
     7
370
    20
100
AcDb2dPolyline
 66
     1
 10
0.0
 20
0.0
 30
0.0
  0
VERTEX
  5
126
330
125
100
AcDbEntity
  8
34_Gruppe
  6
Continuous
 62
     7
370
    20
100
AcDbVertex
100
AcDb2dVertex
 10
136.2788718675822
 20
133.6760830442912
 30
0.0
  0
VERTEX
  5
127
330
125
100
AcDbEntity
  8
34_Gruppe
  6
Continuous
 62
     7
370
    20
100
AcDbVertex
100
AcDb2dVertex
 10
141.2192954403761
 20
133.8959956683966
 30
0.0
  0
SEQEND
  5
128
330
125
100
AcDbEntity
  8
34_Gruppe
  6
Continuous
 62
     7
370
    20
  0
POLYLINE
  5
129
330
B7
100
AcDbEntity
  8
34_Gruppe
  6
Continuous
 62
     7
370
    20
100
AcDb2dPolyline
 66
     1
 10
0.0
 20
0.0
 30
0.0
  0
VERTEX
  5
12A
330
129
100
AcDbEntity
  8
34_Gruppe
  6
Continuous
 62
     7
370
    20
100
AcDbVertex
100
AcDb2dVertex
 10
135.6960446379373
 20
137.9624526571168
 30
0.0
  0
VERTEX
  5
12B
330
129
100
AcDbEntity
  8
34_Gruppe
  6
Continuous
 62
     7
370
    20
100
AcDbVertex
100
AcDb2dVertex
 10
140.8434843814666
 20
138.1915801731577
 30
0.0
  0
SEQEND
  5
12C
330
129
100
AcDbEntity
  8
34_Gruppe
  6
Continuous
 62
     7
370
    20
  0
POLYLINE
  5
12D
330
B7
100
AcDbEntity
  8
34_Gruppe
  6
Continuous
 62
     7
370
    20
100
AcDb2dPolyline
 66
     1
 10
0.0
 20
0.0
 30
0.0
  0
VERTEX
  5
12E
330
12D
100
AcDbEntity
  8
34_Gruppe
  6
Continuous
 62
     7
370
    20
100
AcDbVertex
100
AcDb2dVertex
 10
135.9199763970119
 20
136.3155593092737
 30
0.0
  0
VERTEX
  5
12F
330
12D
100
AcDbEntity
  8
34_Gruppe
  6
Continuous
 62
     7
370
    20
100
AcDbVertex
100
AcDb2dVertex
 10
139.8432864242928
 20
137.0141561258406
 30
0.0
  0
SEQEND
  5
130
330
12D
100
AcDbEntity
  8
34_Gruppe
  6
Continuous
 62
     7
370
    20
  0
POLYLINE
  5
131
330
B7
100
AcDbEntity
  8
34_Gruppe
  6
Continuous
 62
     7
370
    20
100
AcDb2dPolyline
 66
     1
 10
0.0
 20
0.0
 30
0.0
  0
VERTEX
  5
132
330
131
100
AcDbEntity
  8
34_Gruppe
  6
Continuous
 62
     7
370
    20
100
AcDbVertex
100
AcDb2dVertex
 10
135.9713152558101
 20
135.9379906008868
 30
0.0
  0
VERTEX
  5
133
330
131
100
AcDbEntity
  8
34_Gruppe
  6
Continuous
 62
     7
370
    20
100
AcDbVertex
100
AcDb2dVertex
 10
141.0209807940011
 20
136.1627659026393
 30
0.0
  0
SEQEND
  5
134
330
131
100
AcDbEntity
  8
34_Gruppe
  6
Continuous
 62
     7
370
    20
  0
POLYLINE
  5
135
330
B7
100
AcDbEntity
  8
34_Gruppe
  6
Continuous
 62
     7
370
    20
100
AcDb2dPolyline
 66
     1
 10
0.0
 20
0.0
 30
0.0
  0
VERTEX
  5
136
330
135
100
AcDbEntity
  8
34_Gruppe
  6
Continuous
 62
     7
370
    20
100
AcDbVertex
100
AcDb2dVertex
 10
136.1143470257213
 20
134.8860716083758
 30
0.0
  0
VERTEX
  5
137
330
135
100
AcDbEntity
  8
34_Gruppe
  6
Continuous
 62
     7
370
    20
100
AcDbVertex
100
AcDb2dVertex
 10
141.1132086759084
 20
135.1085854812929
 30
0.0
  0
SEQEND
  5
138
330
135
100
AcDbEntity
  8
34_Gruppe
  6
Continuous
 62
     7
370
    20
  0
POLYLINE
  5
139
330
B7
100
AcDbEntity
  8
34_Gruppe
  6
Continuous
 62
     7
370
    20
100
AcDb2dPolyline
 66
     1
 10
0.0
 20
0.0
 30
0.0
  0
VERTEX
  5
13A
330
139
100
AcDbEntity
  8
34_Gruppe
  6
Continuous
 62
     7
370
    20
100
AcDbVertex
100
AcDb2dVertex
 10
125.8445302043912
 20
137.5247188455853
 30
0.0
  0
VERTEX
  5
13B
330
139
100
AcDbEntity
  8
34_Gruppe
  6
Continuous
 62
     7
370
    20
100
AcDbVertex
100
AcDb2dVertex
 10
132.2817322647718
 20
137.8112574340561
 30
0.0
  0
VERTEX
  5
13C
330
139
100
AcDbEntity
  8
34_Gruppe
  6
Continuous
 62
     7
370
    20
100
AcDbVertex
100
AcDb2dVertex
 10
135.3360012855836
 20
138.3551100992905
 30
0.0
  0
SEQEND
  5
13D
330
139
100
AcDbEntity
  8
34_Gruppe
  6
Continuous
 62
     7
370
    20
  0
POLYLINE
  5
13E
330
B7
100
AcDbEntity
  8
34_Gruppe
  6
Continuous
 62
     7
370
    20
100
AcDb2dPolyline
 66
     1
 10
0.0
 20
0.0
 30
0.0
  0
VERTEX
  5
13F
330
13E
100
AcDbEntity
  8
34_Gruppe
  6
Continuous
 62
     7
370
    20
100
AcDbVertex
100
AcDb2dVertex
 10
129.6590008513676
 20
136.7732077448181
 30
0.0
  0
VERTEX
  5
140
330
13E
100
AcDbEntity
  8
34_Gruppe
  6
Continuous
 62
     7
370
    20
100
AcDbVertex
100
AcDb2dVertex
 10
136.5861230448796
 20
137.0815541035117
 30
0.0
  0
VERTEX
  5
141
330
13E
100
AcDbEntity
  8
34_Gruppe
  6
Continuous
 62
     7
370
    20
100
AcDbVertex
100
AcDb2dVertex
 10
137.2128647389954
 20
137.193153683783
 30
0.0
  0
SEQEND
  5
142
330
13E
100
AcDbEntity
  8
34_Gruppe
  6
Continuous
 62
     7
370
    20
  0
POLYLINE
  5
143
330
B7
100
AcDbEntity
  8
34_Gruppe
  6
Continuous
 62
     7
370
    20
100
AcDb2dPolyline
 66
     1
 10
0.0
 20
0.0
 30
0.0
  0
VERTEX
  5
144
330
143
100
AcDbEntity
  8
34_Gruppe
  6
Continuous
 62
     7
370
    20
100
AcDbVertex
100
AcDb2dVertex
 10
126.3292837307297
 20
135.89868403201
 30
0.0
  0
VERTEX
  5
145
330
143
100
AcDbEntity
  8
34_Gruppe
  6
Continuous
 62
     7
370
    20
100
AcDbVertex
100
AcDb2dVertex
 10
133.2564059242417
 20
136.2070303907036
 30
0.0
  0
VERTEX
  5
146
330
143
100
AcDbEntity
  8
34_Gruppe
  6
Continuous
 62
     7
370
    20
100
AcDbVertex
100
AcDb2dVertex
 10
133.8831476183577
 20
136.3186299709751
 30
0.0
  0
SEQEND
  5
147
330
143
100
AcDbEntity
  8
34_Gruppe
  6
Continuous
 62
     7
370
    20
  0
POLYLINE
  5
148
330
B7
100
AcDbEntity
  8
34_Gruppe
  6
Continuous
 62
     7
370
    20
100
AcDb2dPolyline
 66
     1
 10
0.0
 20
0.0
 30
0.0
  0
VERTEX
  5
149
330
148
100
AcDbEntity
  8
34_Gruppe
  6
Continuous
 62
     7
370
    20
100
AcDbVertex
100
AcDb2dVertex
 10
126.18037411733
 20
133.7237316623361
 30
0.0
  0
VERTEX
  5
14A
330
148
100
AcDbEntity
  8
34_Gruppe
  6
Continuous
 62
     7
370
    20
100
AcDbVertex
100
AcDb2dVertex
 10
131.2796313217516
 20
135.0699583911954
 30
0.0
  0
VERTEX
  5
14B
330
148
100
AcDbEntity
  8
34_Gruppe
  6
Continuous
 62
     7
370
    20
100
AcDbVertex
100
AcDb2dVertex
 10
135.9463561432147
 20
135.2468663525084
 30
0.0
  0
VERTEX
  5
14C
330
148
100
AcDbEntity
  8
34_Gruppe
  6
Continuous
 62
     7
370
    20
100
AcDbVertex
100
AcDb2dVertex
 10
137.6411967289589
 20
135.4442084959841
 30
0.0
  0
SEQEND
  5
14D
330
148
100
AcDbEntity
  8
34_Gruppe
  6
Continuous
 62
     7
370
    20
  0
POLYLINE
  5
14E
330
B7
100
AcDbEntity
  8
34_Gruppe
  6
Continuous
 62
     7
370
    20
100
AcDb2dPolyline
 66
     1
 10
0.0
 20
0.0
 30
0.0
  0
VERTEX
  5
14F
330
14E
100
AcDbEntity
  8
34_Gruppe
  6
Continuous
 62
     7
370
    20
100
AcDbVertex
100
AcDb2dVertex
 10
130.4158480766148
 20
132.469756709972
 30
0.0
  0
VERTEX
  5
150
330
14E
100
AcDbEntity
  8
34_Gruppe
  6
Continuous
 62
     7
370
    20
100
AcDbVertex
100
AcDb2dVertex
 10
137.3429702701267
 20
132.7781030686656
 30
0.0
  0
VERTEX
  5
151
330
14E
100
AcDbEntity
  8
34_Gruppe
  6
Continuous
 62
     7
370
    20
100
AcDbVertex
100
AcDb2dVertex
 10
137.9697119642426
 20
132.8897026489369
 30
0.0
  0
SEQEND
  5
152
330
14E
100
AcDbEntity
  8
34_Gruppe
  6
Continuous
 62
     7
370
    20
  0
POLYLINE
  5
153
330
B7
100
AcDbEntity
  8
34_Gruppe
  6
Continuous
 62
     7
370
    20
100
AcDb2dPolyline
 66
     1
 10
0.0
 20
0.0
 30
0.0
  0
VERTEX
  5
154
330
153
100
AcDbEntity
  8
34_Gruppe
  6
Continuous
 62
     7
370
    20
100
AcDbVertex
100
AcDb2dVertex
 10
127.0861309559768
 20
131.5952329971638
 30
0.0
  0
VERTEX
  5
155
330
153
100
AcDbEntity
  8
34_Gruppe
  6
Continuous
 62
     7
370
    20
100
AcDbVertex
100
AcDb2dVertex
 10
134.0132531494888
 20
131.9035793558574
 30
0.0
  0
VERTEX
  5
156
330
153
100
AcDbEntity
  8
34_Gruppe
  6
Continuous
 62
     7
370
    20
100
AcDbVertex
100
AcDb2dVertex
 10
134.6399948436049
 20
132.0151789361287
 30
0.0
  0
SEQEND
  5
157
330
153
100
AcDbEntity
  8
34_Gruppe
  6
Continuous
 62
     7
370
    20
  0
POLYLINE
  5
158
330
B7
100
AcDbEntity
  8
34_Gruppe
  6
Continuous
 62
     7
370
    20
100
AcDb2dPolyline
 66
     1
 10
0.0
 20
0.0
 30
0.0
  0
VERTEX
  5
159
330
158
100
AcDbEntity
  8
34_Gruppe
  6
Continuous
 62
     7
370
    20
100
AcDbVertex
100
AcDb2dVertex
 10
126.8105780972354
 20
132.669810827155
 30
0.0
  0
VERTEX
  5
15A
330
158
100
AcDbEntity
  8
34_Gruppe
  6
Continuous
 62
     7
370
    20
100
AcDbVertex
100
AcDb2dVertex
 10
131.9098353016565
 20
134.0160375560143
 30
0.0
  0
VERTEX
  5
15B
330
158
100
AcDbEntity
  8
34_Gruppe
  6
Continuous
 62
     7
370
    20
100
AcDbVertex
100
AcDb2dVertex
 10
136.5765601231196
 20
134.1929455173273
 30
0.0
  0
VERTEX
  5
15C
330
158
100
AcDbEntity
  8
34_Gruppe
  6
Continuous
 62
     7
370
    20
100
AcDbVertex
100
AcDb2dVertex
 10
138.2714007088642
 20
134.390287660803
 30
0.0
  0
SEQEND
  5
15D
330
158
100
AcDbEntity
  8
34_Gruppe
  6
Continuous
 62
     7
370
    20
  0
POLYLINE
  5
15E
330
B7
100
AcDbEntity
  8
34_Gruppe
  6
Continuous
 62
     7
370
    20
100
AcDb2dPolyline
 66
     1
 10
0.0
 20
0.0
 30
0.0
  0
VERTEX
  5
15F
330
15E
100
AcDbEntity
  8
34_Gruppe
  6
Continuous
 62
     7
370
    20
100
AcDbVertex
100
AcDb2dVertex
 10
126.9231396123018
 20
129.5792264611297
 30
0.0
  0
VERTEX
  5
160
330
15E
100
AcDbEntity
  8
34_Gruppe
  6
Continuous
 62
     7
370
    20
100
AcDbVertex
100
AcDb2dVertex
 10
132.0223968167229
 20
130.9254531899889
 30
0.0
  0
VERTEX
  5
161
330
15E
100
AcDbEntity
  8
34_Gruppe
  6
Continuous
 62
     7
370
    20
100
AcDbVertex
100
AcDb2dVertex
 10
136.689121638186
 20
131.1023611513019
 30
0.0
  0
VERTEX
  5
162
330
15E
100
AcDbEntity
  8
34_Gruppe
  6
Continuous
 62
     7
370
    20
100
AcDbVertex
100
AcDb2dVertex
 10
138.3839622239306
 20
131.2997032947777
 30
0.0
  0
SEQEND
  5
163
330
15E
100
AcDbEntity
  8
34_Gruppe
  6
Continuous
 62
     7
370
    20
  0
POLYLINE
  5
164
330
B7
100
AcDbEntity
  8
34_Gruppe
  6
Continuous
 62
     7
370
    20
100
AcDb2dPolyline
 66
     1
 10
0.0
 20
0.0
 30
0.0
  0
VERTEX
  5
165
330
164
100
AcDbEntity
  8
34_Gruppe
  6
Continuous
 62
     7
370
    20
100
AcDbVertex
100
AcDb2dVertex
 10
133.4210380826358
 20
130.6701223280066
 30
0.0
  0
VERTEX
  5
166
330
164
100
AcDbEntity
  8
34_Gruppe
  6
Continuous
 62
     7
370
    20
100
AcDbVertex
100
AcDb2dVertex
 10
140.3481602761478
 20
130.9784686867002
 30
0.0
  0
VERTEX
  5
167
330
164
100
AcDbEntity
  8
34_Gruppe
  6
Continuous
 62
     7
370
    20
100
AcDbVertex
100
AcDb2dVertex
 10
140.9749019702638
 20
131.0900682669715
 30
0.0
  0
SEQEND
  5
168
330
164
100
AcDbEntity
  8
34_Gruppe
  6
Continuous
 62
     7
370
    20
  0
POLYLINE
  5
169
330
B7
100
AcDbEntity
  8
34_Gruppe
  6
Continuous
 62
     7
370
    20
100
AcDb2dPolyline
 66
     1
 10
0.0
 20
0.0
 30
0.0
  0
VERTEX
  5
16A
330
169
100
AcDbEntity
  8
34_Gruppe
  6
Continuous
 62
     7
370
    20
100
AcDbVertex
100
AcDb2dVertex
 10
200.7624353974758
 20
133.5799637949283
 30
0.0
  0
VERTEX
  5
16B
330
169
100
AcDbEntity
  8
34_Gruppe
  6
Continuous
 62
     7
370
    20
100
AcDbVertex
100
AcDb2dVertex
 10
202.7900963997119
 20
133.6632923292665
 30
0.0
  0
VERTEX
  5
16C
330
169
100
AcDbEntity
  8
34_Gruppe
  6
Continuous
 62
     7
370
    20
100
AcDbVertex
100
AcDb2dVertex
 10
207.8348865929875
 20
134.2868057239451
 30
0.0
  0
VERTEX
  5
16D
330
169
100
AcDbEntity
  8
34_Gruppe
  6
Continuous
 62
     7
370
    20
100
AcDbVertex
100
AcDb2dVertex
 10
212.4828955351492
 20
133.8333414369059
 30
0.0
  0
VERTEX
  5
16E
330
169
100
AcDbEntity
  8
34_Gruppe
  6
Continuous
 62
     7
370
    20
100
AcDbVertex
100
AcDb2dVertex
 10
214.1888709801622
 20
133.8005342168095
 30
0.0
  0
SEQEND
  5
16F
330
169
100
AcDbEntity
  8
34_Gruppe
  6
Continuous
 62
     7
370
    20
  0
LINE
  5
170
330
B7
100
AcDbEntity
  8
12_Linie
 62
     7
370
    20
100
AcDbLine
 10
189.9271296052373
 20
134.8998859511534
 30
0.0
 11
187.1947422956621
 21
142.8921511218421
 31
0.0
  0
LINE
  5
171
330
B7
100
AcDbEntity
  8
14_Kreis
  6
Continuous
 62
     7
370
    40
100
AcDbLine
 10
140.5435369476834
 20
141.62001597343
 30
0.0
 11
125.600616405515
 21
140.3126806413742
 31
0.0
  0
POLYLINE
  5
172
330
B7
100
AcDbEntity
  8
34_Gruppe
  6
Continuous
 62
     7
370
    20
100
AcDb2dPolyline
 66
     1
 10
0.0
 20
0.0
 30
0.0
  0
VERTEX
  5
173
330
172
100
AcDbEntity
  8
34_Gruppe
  6
Continuous
 62
     7
370
    20
100
AcDbVertex
100
AcDb2dVertex
 10
203.7737157438185
 20
134.4680549367496
 30
0.0
  0
VERTEX
  5
174
330
172
100
AcDbEntity
  8
34_Gruppe
  6
Continuous
 62
     7
370
    20
100
AcDbVertex
100
AcDb2dVertex
 10
208.2506637389686
 20
134.6704023066033
 30
0.0
  0
VERTEX
  5
175
330
172
100
AcDbEntity
  8
34_Gruppe
  6
Continuous
 62
     7
370
    20
100
AcDbVertex
100
AcDb2dVertex
 10
208.877329027331
 20
134.7824301327093
 30
0.0
  0
SEQEND
  5
176
330
172
100
AcDbEntity
  8
34_Gruppe
  6
Continuous
 62
     7
370
    20
  0
POLYLINE
  5
177
330
B7
100
AcDbEntity
  8
34_Gruppe
  6
Continuous
 62
     7
370
    20
100
AcDb2dPolyline
 66
     1
 10
0.0
 20
0.0
 30
0.0
  0
VERTEX
  5
178
330
177
100
AcDbEntity
  8
34_Gruppe
  6
Continuous
 62
     7
370
    20
100
AcDbVertex
100
AcDb2dVertex
 10
204.7668178648084
 20
133.3799914976706
 30
0.0
  0
VERTEX
  5
179
330
177
100
AcDbEntity
  8
34_Gruppe
  6
Continuous
 62
     7
370
    20
100
AcDbVertex
100
AcDb2dVertex
 10
209.2437658599585
 20
133.5823388675242
 30
0.0
  0
VERTEX
  5
17A
330
177
100
AcDbEntity
  8
34_Gruppe
  6
Continuous
 62
     7
370
    20
100
AcDbVertex
100
AcDb2dVertex
 10
209.8704311483209
 20
133.6943666936302
 30
0.0
  0
SEQEND
  5
17B
330
177
100
AcDbEntity
  8
34_Gruppe
  6
Continuous
 62
     7
370
    20
  0
POLYLINE
  5
17C
330
B7
100
AcDbEntity
  8
34_Gruppe
  6
Continuous
 62
     7
370
    20
100
AcDb2dPolyline
 66
     1
 10
0.0
 20
0.0
 30
0.0
  0
VERTEX
  5
17D
330
17C
100
AcDbEntity
  8
34_Gruppe
  6
Continuous
 62
     7
370
    20
100
AcDbVertex
100
AcDb2dVertex
 10
158.6861477197768
 20
130.6628667435238
 30
0.0
  0
VERTEX
  5
17E
330
17C
100
AcDbEntity
  8
34_Gruppe
  6
Continuous
 62
     7
370
    20
100
AcDbVertex
100
AcDb2dVertex
 10
160.713808722013
 20
130.746195277862
 30
0.0
  0
VERTEX
  5
17F
330
17C
100
AcDbEntity
  8
34_Gruppe
  6
Continuous
 62
     7
370
    20
100
AcDbVertex
100
AcDb2dVertex
 10
165.7585989152885
 20
131.3697086725406
 30
0.0
  0
VERTEX
  5
180
330
17C
100
AcDbEntity
  8
34_Gruppe
  6
Continuous
 62
     7
370
    20
100
AcDbVertex
100
AcDb2dVertex
 10
170.4066078574502
 20
130.9162443855013
 30
0.0
  0
VERTEX
  5
181
330
17C
100
AcDbEntity
  8
34_Gruppe
  6
Continuous
 62
     7
370
    20
100
AcDbVertex
100
AcDb2dVertex
 10
172.1125833024633
 20
130.8834371654049
 30
0.0
  0
SEQEND
  5
182
330
17C
100
AcDbEntity
  8
34_Gruppe
  6
Continuous
 62
     7
370
    20
  0
POLYLINE
  5
183
330
B7
100
AcDbEntity
  8
34_Gruppe
  6
Continuous
 62
     7
370
    20
100
AcDb2dPolyline
 66
     1
 10
0.0
 20
0.0
 30
0.0
  0
VERTEX
  5
184
330
183
100
AcDbEntity
  8
34_Gruppe
  6
Continuous
 62
     7
370
    20
100
AcDbVertex
100
AcDb2dVertex
 10
158.8044510117128
 20
129.8837166925697
 30
0.0
  0
VERTEX
  5
185
330
183
100
AcDbEntity
  8
34_Gruppe
  6
Continuous
 62
     7
370
    20
100
AcDbVertex
100
AcDb2dVertex
 10
160.832112013949
 20
129.967045226908
 30
0.0
  0
VERTEX
  5
186
330
183
100
AcDbEntity
  8
34_Gruppe
  6
Continuous
 62
     7
370
    20
100
AcDbVertex
100
AcDb2dVertex
 10
165.8769022072245
 20
130.5905586215866
 30
0.0
  0
VERTEX
  5
187
330
183
100
AcDbEntity
  8
34_Gruppe
  6
Continuous
 62
     7
370
    20
100
AcDbVertex
100
AcDb2dVertex
 10
170.5249111493862
 20
130.1370943345473
 30
0.0
  0
VERTEX
  5
188
330
183
100
AcDbEntity
  8
34_Gruppe
  6
Continuous
 62
     7
370
    20
100
AcDbVertex
100
AcDb2dVertex
 10
172.2308865943993
 20
130.1042871144509
 30
0.0
  0
SEQEND
  5
189
330
183
100
AcDbEntity
  8
34_Gruppe
  6
Continuous
 62
     7
370
    20
  0
ARC
  5
18A
330
B7
100
AcDbEntity
  8
14_Kreis
  6
Continuous
 62
     7
370
    20
100
AcDbCircle
 10
132.2586235810979
 20
150.2641655336402
 30
0.0
 40
4.166666666666675
100
AcDbArc
 50
21.26020160574612
 51
168.7397921891214
  0
LINE
  5
18B
330
B7
100
AcDbEntity
  8
12_Linie
 62
     7
370
    20
100
AcDbLine
 10
185.8917123387724
 20
134.5468317211491
 30
0.0
 11
187.1947422956621
 21
142.8921511218421
 31
0.0
  0
LINE
  5
18C
330
B7
100
AcDbEntity
  8
STANDARD
  6
Continuous
 62
     7
370
    20
100
AcDbLine
 10
125.8445307150077
 20
137.5247130091505
 30
0.0
 11
126.5592002043912
 21
129.3559188455853
 31
0.0
  0
ARC
  5
18D
330
B7
100
AcDbEntity
  8
STANDARD
  6
Continuous
 62
     7
370
    40
100
AcDbCircle
 10
126.8834756859429
 20
134.7100265117713
 30
0.0
 40
5.747648321647404
100
AcDbArc
 50
102.8968923986443
 51
124.6888408687384
  0
POLYLINE
  5
18E
330
B7
100
AcDbEntity
  8
34_Gruppe
  6
Continuous
 62
     7
370
    20
100
AcDb2dPolyline
 66
     1
 10
0.0
 20
0.0
 30
0.0
  0
VERTEX
  5
18F
330
18E
100
AcDbEntity
  8
34_Gruppe
  6
Continuous
 62
     7
370
    20
100
AcDbVertex
100
AcDb2dVertex
 10
159.6022815211996
 20
129.2911012944404
 30
0.0
  0
VERTEX
  5
190
330
18E
100
AcDbEntity
  8
34_Gruppe
  6
Continuous
 62
     7
370
    20
100
AcDbVertex
100
AcDb2dVertex
 10
164.0792295163498
 20
129.493448664294
 30
0.0
  0
VERTEX
  5
191
330
18E
100
AcDbEntity
  8
34_Gruppe
  6
Continuous
 62
     7
370
    20
100
AcDbVertex
100
AcDb2dVertex
 10
164.7058948047121
 20
129.6054764904
 30
0.0
  0
SEQEND
  5
192
330
18E
100
AcDbEntity
  8
34_Gruppe
  6
Continuous
 62
     7
370
    20
  0
POLYLINE
  5
193
330
B7
100
AcDbEntity
  8
34_Gruppe
  6
Continuous
 62
     7
370
    20
100
AcDb2dPolyline
 66
     1
 10
0.0
 20
0.0
 30
0.0
  0
VERTEX
  5
194
330
193
100
AcDbEntity
  8
34_Gruppe
  6
Continuous
 62
     7
370
    20
100
AcDbVertex
100
AcDb2dVertex
 10
170.7746716459271
 20
131.9300594126906
 30
0.0
  0
VERTEX
  5
195
330
193
100
AcDbEntity
  8
34_Gruppe
  6
Continuous
 62
     7
370
    20
100
AcDbVertex
100
AcDb2dVertex
 10
172.8023326481633
 20
132.0133879470288
 30
0.0
  0
VERTEX
  5
196
330
193
100
AcDbEntity
  8
34_Gruppe
  6
Continuous
 62
     7
370
    20
100
AcDbVertex
100
AcDb2dVertex
 10
177.8471228414388
 20
132.6369013417074
 30
0.0
  0
VERTEX
  5
197
330
193
100
AcDbEntity
  8
34_Gruppe
  6
Continuous
 62
     7
370
    20
100
AcDbVertex
100
AcDb2dVertex
 10
182.4951317836005
 20
132.1834370546681
 30
0.0
  0
VERTEX
  5
198
330
193
100
AcDbEntity
  8
34_Gruppe
  6
Continuous
 62
     7
370
    20
100
AcDbVertex
100
AcDb2dVertex
 10
184.2011072286136
 20
132.1506298345717
 30
0.0
  0
SEQEND
  5
199
330
193
100
AcDbEntity
  8
34_Gruppe
  6
Continuous
 62
     7
370
    20
  0
POLYLINE
  5
19A
330
B7
100
AcDbEntity
  8
34_Gruppe
  6
Continuous
 62
     7
370
    20
100
AcDb2dPolyline
 66
     1
 10
0.0
 20
0.0
 30
0.0
  0
VERTEX
  5
19B
330
19A
100
AcDbEntity
  8
34_Gruppe
  6
Continuous
 62
     7
370
    20
100
AcDbVertex
100
AcDb2dVertex
 10
170.8929749378631
 20
131.1509093617364
 30
0.0
  0
VERTEX
  5
19C
330
19A
100
AcDbEntity
  8
34_Gruppe
  6
Continuous
 62
     7
370
    20
100
AcDbVertex
100
AcDb2dVertex
 10
172.9206359400993
 20
131.2342378960746
 30
0.0
  0
VERTEX
  5
19D
330
19A
100
AcDbEntity
  8
34_Gruppe
  6
Continuous
 62
     7
370
    20
100
AcDbVertex
100
AcDb2dVertex
 10
177.9654261333748
 20
131.8577512907532
 30
0.0
  0
VERTEX
  5
19E
330
19A
100
AcDbEntity
  8
34_Gruppe
  6
Continuous
 62
     7
370
    20
100
AcDbVertex
100
AcDb2dVertex
 10
182.6134350755365
 20
131.4042870037139
 30
0.0
  0
VERTEX
  5
19F
330
19A
100
AcDbEntity
  8
34_Gruppe
  6
Continuous
 62
     7
370
    20
100
AcDbVertex
100
AcDb2dVertex
 10
184.3194105205496
 20
131.3714797836177
 30
0.0
  0
SEQEND
  5
1A0
330
19A
100
AcDbEntity
  8
34_Gruppe
  6
Continuous
 62
     7
370
    20
  0
POLYLINE
  5
1A1
330
B7
100
AcDbEntity
  8
34_Gruppe
  6
Continuous
 62
     7
370
    20
100
AcDb2dPolyline
 66
     1
 10
0.0
 20
0.0
 30
0.0
  0
VERTEX
  5
1A2
330
1A1
100
AcDbEntity
  8
34_Gruppe
  6
Continuous
 62
     7
370
    20
100
AcDbVertex
100
AcDb2dVertex
 10
171.6908054473499
 20
130.5582939636071
 30
0.0
  0
VERTEX
  5
1A3
330
1A1
100
AcDbEntity
  8
34_Gruppe
  6
Continuous
 62
     7
370
    20
100
AcDbVertex
100
AcDb2dVertex
 10
176.1677534425
 20
130.7606413334608
 30
0.0
  0
VERTEX
  5
1A4
330
1A1
100
AcDbEntity
  8
34_Gruppe
  6
Continuous
 62
     7
370
    20
100
AcDbVertex
100
AcDb2dVertex
 10
176.7944187308624
 20
130.8726691595668
 30
0.0
  0
SEQEND
  5
1A5
330
1A1
100
AcDbEntity
  8
34_Gruppe
  6
Continuous
 62
     7
370
    20
  0
POLYLINE
  5
1A6
330
B7
100
AcDbEntity
  8
34_Gruppe
  6
Continuous
 62
     7
370
    20
100
AcDb2dPolyline
 66
     1
 10
0.0
 20
0.0
 30
0.0
  0
VERTEX
  5
1A7
330
1A6
100
AcDbEntity
  8
34_Gruppe
  6
Continuous
 62
     7
370
    20
100
AcDbVertex
100
AcDb2dVertex
 10
181.8677274446076
 20
132.654373740365
 30
0.0
  0
VERTEX
  5
1A8
330
1A6
100
AcDbEntity
  8
34_Gruppe
  6
Continuous
 62
     7
370
    20
100
AcDbVertex
100
AcDb2dVertex
 10
186.3446754397577
 20
132.8567211102187
 30
0.0
  0
VERTEX
  5
1A9
330
1A6
100
AcDbEntity
  8
34_Gruppe
  6
Continuous
 62
     7
370
    20
100
AcDbVertex
100
AcDb2dVertex
 10
186.9713407281201
 20
132.9687489363247
 30
0.0
  0
SEQEND
  5
1AA
330
1A6
100
AcDbEntity
  8
34_Gruppe
  6
Continuous
 62
     7
370
    20
  0
POLYLINE
  5
1AB
330
B7
100
AcDbEntity
  8
34_Gruppe
  6
Continuous
 62
     7
370
    20
100
AcDb2dPolyline
 66
     1
 10
0.0
 20
0.0
 30
0.0
  0
VERTEX
  5
1AC
330
1AB
100
AcDbEntity
  8
34_Gruppe
  6
Continuous
 62
     7
370
    20
100
AcDbVertex
100
AcDb2dVertex
 10
183.6200239931474
 20
131.848582139758
 30
0.0
  0
VERTEX
  5
1AD
330
1AB
100
AcDbEntity
  8
34_Gruppe
  6
Continuous
 62
     7
370
    20
100
AcDbVertex
100
AcDb2dVertex
 10
185.6476849953835
 20
131.9319106740962
 30
0.0
  0
VERTEX
  5
1AE
330
1AB
100
AcDbEntity
  8
34_Gruppe
  6
Continuous
 62
     7
370
    20
100
AcDbVertex
100
AcDb2dVertex
 10
190.692475188659
 20
132.5554240687748
 30
0.0
  0
VERTEX
  5
1AF
330
1AB
100
AcDbEntity
  8
34_Gruppe
  6
Continuous
 62
     7
370
    20
100
AcDbVertex
100
AcDb2dVertex
 10
195.3404841308208
 20
132.1019597817356
 30
0.0
  0
VERTEX
  5
1B0
330
1AB
100
AcDbEntity
  8
34_Gruppe
  6
Continuous
 62
     7
370
    20
100
AcDbVertex
100
AcDb2dVertex
 10
197.0464595758338
 20
132.0691525616392
 30
0.0
  0
SEQEND
  5
1B1
330
1AB
100
AcDbEntity
  8
34_Gruppe
  6
Continuous
 62
     7
370
    20
  0
POLYLINE
  5
1B2
330
B7
100
AcDbEntity
  8
34_Gruppe
  6
Continuous
 62
     7
370
    20
100
AcDb2dPolyline
 66
     1
 10
0.0
 20
0.0
 30
0.0
  0
VERTEX
  5
1B3
330
1B2
100
AcDbEntity
  8
34_Gruppe
  6
Continuous
 62
     7
370
    20
100
AcDbVertex
100
AcDb2dVertex
 10
177.043568803798
 20
130.8863096455878
 30
0.0
  0
VERTEX
  5
1B4
330
1B2
100
AcDbEntity
  8
34_Gruppe
  6
Continuous
 62
     7
370
    20
100
AcDbVertex
100
AcDb2dVertex
 10
181.5205167989481
 20
131.0886570154415
 30
0.0
  0
VERTEX
  5
1B5
330
1B2
100
AcDbEntity
  8
34_Gruppe
  6
Continuous
 62
     7
370
    20
100
AcDbVertex
100
AcDb2dVertex
 10
182.1471820873105
 20
131.2006848415475
 30
0.0
  0
SEQEND
  5
1B6
330
1B2
100
AcDbEntity
  8
34_Gruppe
  6
Continuous
 62
     7
370
    20
  0
POLYLINE
  5
1B7
330
B7
100
AcDbEntity
  8
34_Gruppe
  6
Continuous
 62
     7
370
    20
100
AcDb2dPolyline
 66
     1
 10
0.0
 20
0.0
 30
0.0
  0
VERTEX
  5
1B8
330
1B7
100
AcDbEntity
  8
34_Gruppe
  6
Continuous
 62
     7
370
    20
100
AcDbVertex
100
AcDb2dVertex
 10
185.0909414044296
 20
131.5557777131038
 30
0.0
  0
VERTEX
  5
1B9
330
1B7
100
AcDbEntity
  8
34_Gruppe
  6
Continuous
 62
     7
370
    20
100
AcDbVertex
100
AcDb2dVertex
 10
189.5678893995797
 20
131.7581250829575
 30
0.0
  0
VERTEX
  5
1BA
330
1B7
100
AcDbEntity
  8
34_Gruppe
  6
Continuous
 62
     7
370
    20
100
AcDbVertex
100
AcDb2dVertex
 10
190.1945546879421
 20
131.8701529090634
 30
0.0
  0
SEQEND
  5
1BB
330
1B7
100
AcDbEntity
  8
34_Gruppe
  6
Continuous
 62
     7
370
    20
  0
POLYLINE
  5
1BC
330
B7
100
AcDbEntity
  8
34_Gruppe
  6
Continuous
 62
     7
370
    20
100
AcDb2dPolyline
 66
     1
 10
0.0
 20
0.0
 30
0.0
  0
VERTEX
  5
1BD
330
1BC
100
AcDbEntity
  8
34_Gruppe
  6
Continuous
 62
     7
370
    20
100
AcDbVertex
100
AcDb2dVertex
 10
187.1503476841102
 20
133.008661541937
 30
0.0
  0
VERTEX
  5
1BE
330
1BC
100
AcDbEntity
  8
34_Gruppe
  6
Continuous
 62
     7
370
    20
100
AcDbVertex
100
AcDb2dVertex
 10
189.1780086863464
 20
133.0919900762752
 30
0.0
  0
VERTEX
  5
1BF
330
1BC
100
AcDbEntity
  8
34_Gruppe
  6
Continuous
 62
     7
370
    20
100
AcDbVertex
100
AcDb2dVertex
 10
194.222798879622
 20
133.7155034709538
 30
0.0
  0
VERTEX
  5
1C0
330
1BC
100
AcDbEntity
  8
34_Gruppe
  6
Continuous
 62
     7
370
    20
100
AcDbVertex
100
AcDb2dVertex
 10
198.8708078217836
 20
133.2620391839146
 30
0.0
  0
VERTEX
  5
1C1
330
1BC
100
AcDbEntity
  8
34_Gruppe
  6
Continuous
 62
     7
370
    20
100
AcDbVertex
100
AcDb2dVertex
 10
200.5767832667967
 20
133.229231963818
 30
0.0
  0
SEQEND
  5
1C2
330
1BC
100
AcDbEntity
  8
34_Gruppe
  6
Continuous
 62
     7
370
    20
  0
POLYLINE
  5
1C3
330
B7
100
AcDbEntity
  8
34_Gruppe
  6
Continuous
 62
     7
370
    20
100
AcDb2dPolyline
 66
     1
 10
0.0
 20
0.0
 30
0.0
  0
VERTEX
  5
1C4
330
1C3
100
AcDbEntity
  8
34_Gruppe
  6
Continuous
 62
     7
370
    20
100
AcDbVertex
100
AcDb2dVertex
 10
193.3749391598032
 20
132.6701251874507
 30
0.0
  0
VERTEX
  5
1C5
330
1C3
100
AcDbEntity
  8
34_Gruppe
  6
Continuous
 62
     7
370
    20
100
AcDbVertex
100
AcDb2dVertex
 10
197.8518871549533
 20
132.8724725573043
 30
0.0
  0
VERTEX
  5
1C6
330
1C3
100
AcDbEntity
  8
34_Gruppe
  6
Continuous
 62
     7
370
    20
100
AcDbVertex
100
AcDb2dVertex
 10
198.4785524433157
 20
132.9845003834103
 30
0.0
  0
SEQEND
  5
1C7
330
1C3
100
AcDbEntity
  8
34_Gruppe
  6
Continuous
 62
     7
370
    20
  0
LINE
  5
1C8
330
B7
100
AcDbEntity
  8
14_Kreis
  6
Continuous
 62
     7
370
    20
100
AcDbLine
 10
129.0437200209526
 20
141.1158229035928
 30
0.0
 11
128.4370197158785
 21
148.0504434476389
 31
0.0
  0
LINE
  5
1C9
330
B7
100
AcDbEntity
  8
14_Kreis
  6
Continuous
 62
     7
370
    20
100
AcDbLine
 10
137.0132776434424
 20
141.8130684140227
 30
0.0
 11
136.1417207554052
 21
151.7750154421349
 31
0.0
  0
ARC
  5
1CA
330
B7
100
AcDbEntity
  8
STANDARD
  6
Continuous
 62
     7
370
    40
100
AcDbCircle
 10
126.00427029983
 20
136.7163491139488
 30
0.0
 40
2.619328658417427
100
AcDbArc
 50
96.94011073520831
 51
131.046647170306
  0
LINE
  5
1CB
330
B7
100
AcDbEntity
  8
STANDARD
  6
Continuous
 62
     7
370
    40
100
AcDbLine
 10
123.6123775854219
 20
139.4360585097696
 30
0.0
 11
119.3548265013289
 21
139.06357128784
 31
0.0
  0
ARC
  5
1CC
330
B7
100
AcDbEntity
  8
14_Kreis
  6
Continuous
 62
     7
370
    20
100
AcDbCircle
 10
132.2586235810979
 20
150.2641655336402
 30
0.0
 40
1.5
100
AcDbArc
 50
245.0071794193549
 51
120.0000000018512
  0
LINE
  5
1CD
330
B7
100
AcDbEntity
  8
STANDARD
  6
Continuous
 62
     7
370
    40
100
AcDbLine
 10
118.6433039787282
 20
138.362264013939
 30
0.0
 11
118.6575430083811
 21
138.1995110587601
 31
0.0
  0
POLYLINE
  5
1CE
330
B7
100
AcDbEntity
  8
34_Gruppe
  6
Continuous
 62
     7
370
    20
100
AcDb2dPolyline
 66
     1
 10
0.0
 20
0.0
 30
0.0
  0
VERTEX
  5
1CF
330
1CE
100
AcDbEntity
  8
34_Gruppe
  6
Continuous
 62
     7
370
    20
100
AcDbVertex
100
AcDb2dVertex
 10
196.7901307227268
 20
133.9339465123825
 30
0.0
  0
VERTEX
  5
1D0
330
1CE
100
AcDbEntity
  8
34_Gruppe
  6
Continuous
 62
     7
370
    20
100
AcDbVertex
100
AcDb2dVertex
 10
201.267078717877
 20
134.1362938822361
 30
0.0
  0
VERTEX
  5
1D1
330
1CE
100
AcDbEntity
  8
34_Gruppe
  6
Continuous
 62
     7
370
    20
100
AcDbVertex
100
AcDb2dVertex
 10
201.8937440062393
 20
134.2483217083421
 30
0.0
  0
SEQEND
  5
1D2
330
1CE
100
AcDbEntity
  8
34_Gruppe
  6
Continuous
 62
     7
370
    20
  0
POLYLINE
  5
1D3
330
B7
100
AcDbEntity
  8
34_Gruppe
  6
Continuous
 62
     7
370
    20
100
AcDb2dPolyline
 66
     1
 10
0.0
 20
0.0
 30
0.0
  0
VERTEX
  5
1D4
330
1D3
100
AcDbEntity
  8
34_Gruppe
  6
Continuous
 62
     7
370
    20
100
AcDbVertex
100
AcDb2dVertex
 10
199.9049033836314
 20
132.6701251874507
 30
0.0
  0
VERTEX
  5
1D5
330
1D3
100
AcDbEntity
  8
34_Gruppe
  6
Continuous
 62
     7
370
    20
100
AcDbVertex
100
AcDb2dVertex
 10
204.3818513787816
 20
132.8724725573043
 30
0.0
  0
VERTEX
  5
1D6
330
1D3
100
AcDbEntity
  8
34_Gruppe
  6
Continuous
 62
     7
370
    20
100
AcDbVertex
100
AcDb2dVertex
 10
205.0085166671439
 20
132.9845003834103
 30
0.0
  0
SEQEND
  5
1D7
330
1D3
100
AcDbEntity
  8
34_Gruppe
  6
Continuous
 62
     7
370
    20
  0
LINE
  5
1D8
330
B7
100
AcDbEntity
  8
14_Kreis
  6
Continuous
 62
     7
370
    40
100
AcDbLine
 10
140.6306926364871
 20
140.6238212706188
 30
0.0
 11
125.6877720943186
 21
139.316485938563
 31
0.0
  0
LINE
  5
1D9
330
B7
100
AcDbEntity
  8
14_Kreis
  6
Continuous
 62
     7
370
    20
100
AcDbLine
 10
140.674270480889
 20
140.1257239192132
 30
0.0
 11
125.7313499387206
 21
138.8183885871574
 31
0.0
  0
LINE
  5
1DA
330
B7
100
AcDbEntity
  8
14_Kreis
  6
Continuous
 62
     7
370
    20
100
AcDbLine
 10
125.7313499387206
 20
138.8183885871574
 30
0.0
 11
125.6877720943186
 21
139.316485938563
 31
0.0
  0
LINE
  5
1DB
330
B7
100
AcDbEntity
  8
14_Kreis
  6
Continuous
 62
     7
370
    20
100
AcDbLine
 10
140.6306926364871
 20
140.6238212706188
 30
0.0
 11
140.674270480889
 21
140.1257239192132
 31
0.0
  0
ARC
  5
1DC
330
B7
100
AcDbEntity
  8
STANDARD
  6
Continuous
 62
     7
370
    40
100
AcDbCircle
 10
119.7349909961085
 20
137.9662723929553
 30
0.0
 40
1.161288038260214
100
AcDbArc
 50
109.1088900819943
 51
160.0625877001347
  0
SPLINE
  5
1DD
330
B7
100
AcDbEntity
  8
12_Linie
 62
     7
370
    20
100
AcDbSpline
210
0.0
220
0.0
230
1.0
 70
    24
 71
     3
 72
     8
 73
     4
 74
     2
 42
0.0000000001
 43
0.0000000001
 44
0.0
 12
0.9659258262895314
 22
-0.258819045100792
 32
0.0
 13
0.9659258262895314
 23
-0.258819045100792
 33
0.0
 40
0.0
 40
0.0
 40
0.0
 40
0.0
 40
1.406265105584363
 40
1.406265105584363
 40
1.406265105584363
 40
1.406265105584363
 10
123.2845538364501
 20
149.3595707927128
 30
0.0
 10
123.7373364311481
 20
149.2382480621175
 30
0.0
 10
124.1901190258459
 20
149.1169253315222
 30
0.0
 10
124.6429016205439
 20
148.9956026009269
 30
0.0
 11
123.2845538364501
 21
149.3595707927128
 31
0.0
 11
124.6429016205439
 21
148.9956026009269
 31
0.0
  0
SPLINE
  5
1DE
330
B7
100
AcDbEntity
  8
12_Linie
 62
     7
370
    20
100
AcDbSpline
210
0.0
220
0.0
230
1.0
 70
     8
 71
     3
 72
     8
 73
     4
 74
     2
 42
0.0000000001
 43
0.0000000001
 44
0.0
 12
0.9659258262895314
 22
-0.258819045100792
 32
0.0
 13
-0.6330679830647908
 23
-0.7740962012684712
 33
0.0
 40
0.0
 40
0.0
 40
0.0
 40
0.0
 40
1.01756902401255
 40
1.01756902401255
 40
1.01756902401255
 40
1.01756902401255
 10
124.6429016205439
 20
148.9956026009269
 30
0.0
 10
124.9705336873192
 20
148.9078138532206
 30
0.0
 10
124.7803672883209
 20
148.2435366175769
 30
0.0
 10
124.5656371651006
 20
147.9809711789047
 30
0.0
 11
124.6429016205439
 21
148.9956026009269
 31
0.0
 11
124.5656371651006
 21
147.9809711789047
 31
0.0
  0
SPLINE
  5
1DF
330
B7
100
AcDbEntity
  8
12_Linie
 62
     7
370
    20
100
AcDbSpline
210
0.0
220
0.0
230
1.0
 70
     8
 71
     3
 72
     8
 73
     4
 74
     2
 42
0.0000000001
 43
0.0000000001
 44
0.0
 12
-0.633067983064791
 22
-0.7740962012684712
 32
0.0
 13
-0.9966626721670704
 23
-0.08163037369015683
 33
0.0
 40
0.0
 40
0.0
 40
0.0
 40
0.0
 40
0.5951652273553413
 40
0.5951652273553413
 40
0.5951652273553413
 40
0.5951652273553413
 10
124.5656371651006
 20
147.9809711789047
 30
0.0
 10
124.4400438150766
 20
147.8273994650304
 30
0.0
 10
124.2297355886591
 20
147.7336075195281
 30
0.0
 10
124.0320092667002
 20
147.7174129995559
 30
0.0
 11
124.5656371651006
 21
147.9809711789047
 31
0.0
 11
124.0320092667002
 21
147.7174129995559
 31
0.0
  0
SPLINE
  5
1E0
330
B7
100
AcDbEntity
  8
12_Linie
 62
     7
370
    20
100
AcDbSpline
210
0.0
220
0.0
230
1.0
 70
     8
 71
     3
 72
     8
 73
     4
 74
     2
 42
0.0000000001
 43
0.0000000001
 44
0.0
 12
-0.9966626721670705
 22
-0.08163037369015676
 32
0.0
 13
0.5791788936084401
 23
-0.8152004717850102
 33
0.0
 40
0.0
 40
0.0
 40
0.0
 40
0.0
 40
0.8427070783797699
 40
0.8427070783797699
 40
0.8427070783797699
 40
0.8427070783797699
 10
124.0320092667002
 20
147.7174129995559
 30
0.0
 10
123.7520443705028
 20
147.6944828349828
 30
0.0
 10
123.887116471161
 20
147.1038856658654
 30
0.0
 10
124.049809188925
 20
146.8748939299082
 30
0.0
 11
124.0320092667002
 21
147.7174129995559
 31
0.0
 11
124.049809188925
 21
146.8748939299082
 31
0.0
  0
ARC
  5
1E1
330
B7
100
AcDbEntity
  8
STANDARD
  6
Continuous
 62
     7
370
    40
100
AcDbCircle
 10
146.7274997035871
 20
140.3278094321531
 30
0.0
 40
1.161288038260213
100
AcDbArc
 50
29.93740609473565
 51
80.89110371287599
  0
LINE
  5
1E2
330
B7
100
AcDbEntity
  8
STANDARD
  6
Continuous
 62
     7
370
    40
100
AcDbLine
 10
147.7338383815757
 20
140.9073544027901
 30
0.0
 11
147.7480774112286
 21
140.7446014476112
 31
0.0
  0
ARC
  5
1E3
330
B7
100
AcDbEntity
  8
STANDARD
  6
Continuous
 62
     7
370
    40
100
AcDbCircle
 10
140.7705114878954
 20
138.0082270150823
 30
0.0
 40
2.619328658417427
100
AcDbArc
 50
58.95334662456428
 51
93.05988305966198
  0
LINE
  5
1E4
330
B7
100
AcDbEntity
  8
STANDARD
  6
Continuous
 62
     7
370
    40
100
AcDbLine
 10
142.6537937321018
 20
141.1019655210993
 30
0.0
 11
146.9113448161948
 21
141.4744527430291
 31
0.0
  0
ARC
  5
1E5
330
B7
100
AcDbEntity
  8
STANDARD
  6
Continuous
 62
     7
370
    40
100
AcDbCircle
 10
140.2530572403235
 20
135.8797126043611
 30
0.0
 40
5.747648321647403
100
AcDbArc
 50
65.31115292613191
 51
87.103101396226
  0
LINE
  5
1E6
330
B7
100
AcDbEntity
  8
12_Linie
 62
     7
370
    20
100
AcDbLine
 10
123.2845538364501
 20
149.3595707927128
 30
0.0
 11
132.2586235810994
 21
151.7641655336291
 31
0.0
  0
LINE
  5
1E7
330
B7
100
AcDbEntity
  8
14_Kreis
  6
Continuous
 62
     7
370
    20
100
AcDbLine
 10
138.507569697659
 20
141.9438019472283
 30
0.0
 11
138.551147542061
 21
141.4457045958221
 31
0.0
  0
LINE
  5
1E8
330
B7
100
AcDbEntity
  8
12_Linie
 62
     7
370
    20
100
AcDbLine
 10
124.0498091889249
 20
146.8748939299081
 30
0.0
 11
133.4872438303202
 21
149.4036469207093
 31
0.0
  0
LINE
  5
1E9
330
B7
100
AcDbEntity
  8
14_Kreis
  6
Continuous
 62
     7
370
    20
100
AcDbLine
 10
128.207089434324
 20
150.6785602308859
 30
0.0
 11
128.1721631329154
 21
151.0777699317051
 31
0.0
  0
LINE
  5
1EA
330
B7
100
AcDbEntity
  8
12_Linie
 62
     7
370
    20
100
AcDbLine
 10
136.2836341037708
 20
150.1529374362079
 30
0.0
 11
149.450621724198
 21
153.6810211358765
 31
0.0
  0
LINE
  5
1EB
330
B7
100
AcDbEntity
  8
12_Linie
 62
     7
370
    20
100
AcDbLine
 10
135.6571476112842
 20
152.6747973029814
 30
0.0
 11
150.2270788595004
 21
156.5787986147452
 31
0.0
  0
SPLINE
  5
1EC
330
B7
100
AcDbEntity
  8
12_Linie
 62
     7
370
    20
100
AcDbSpline
210
0.0
220
0.0
230
1.0
 70
     8
 71
     3
 72
     8
 73
     4
 74
     2
 42
0.0000000001
 43
0.0000000001
 44
0.0
 12
-0.6415224050917199
 22
-0.7671042978404796
 32
0.0
 13
-0.9644486162809849
 23
-0.2642704420734441
 33
0.0
 40
0.0
 40
0.0
 40
0.0
 40
0.0
 40
1.280536133202487
 40
1.280536133202487
 40
1.280536133202487
 40
1.280536133202487
 10
150.2270788595004
 20
156.5787986147452
 30
0.0
 10
149.9532479861741
 20
156.251363690972
 30
0.0
 10
149.6248644292104
 20
155.9094182153899
 30
0.0
 10
149.2131939952887
 20
155.7966155987191
 30
0.0
 11
150.2270788595004
 21
156.5787986147452
 31
0.0
 11
149.2131939952887
 21
155.7966155987191
 31
0.0
  0
SPLINE
  5
1ED
330
B7
100
AcDbEntity
  8
12_Linie
 62
     7
370
    20
100
AcDbSpline
210
0.0
220
0.0
230
1.0
 70
     8
 71
     3
 72
     8
 73
     4
 74
     2
 42
0.0000000001
 43
0.0000000001
 44
0.0
 12
-0.9644486162809849
 22
-0.2642704420734441
 32
0.0
 13
0.6510602089076161
 23
-0.7590260893916436
 33
0.0
 40
0.0
 40
0.0
 40
0.0
 40
0.0
 40
0.910427301551897
 40
0.910427301551897
 40
0.910427301551897
 40
0.910427301551897
 10
149.2131939952887
 20
155.7966155987191
 30
0.0
 10
148.9205072115534
 20
155.7164159235668
 30
0.0
 10
149.1074315896204
 20
155.1211762086292
 30
0.0
 10
149.3050125860016
 20
154.8908301838384
 30
0.0
 11
149.2131939952887
 21
155.7966155987191
 31
0.0
 11
149.3050125860016
 21
154.8908301838384
 31
0.0
  0
SPLINE
  5
1EE
330
B7
100
AcDbEntity
  8
12_Linie
 62
     7
370
    20
100
AcDbSpline
210
0.0
220
0.0
230
1.0
 70
     8
 71
     3
 72
     8
 73
     4
 74
     2
 42
0.0000000001
 43
0.0000000001
 44
0.0
 12
0.6510602089076162
 22
-0.7590260893916437
 32
0.0
 13
-0.3464724189554885
 23
-0.9380601595330293
 33
0.0
 40
0.0
 40
0.0
 40
0.0
 40
0.0
 40
1.218540091115891
 40
1.218540091115891
 40
1.218540091115891
 40
1.218540091115891
 10
149.3050125860016
 20
154.8908301838384
 30
0.0
 10
149.5694602414297
 20
154.5825289437962
 30
0.0
 10
149.5913519018525
 20
154.0620424399664
 30
0.0
 10
149.4506217241981
 20
153.6810211358766
 30
0.0
 11
149.3050125860016
 21
154.8908301838384
 31
0.0
 11
149.4506217241981
 21
153.6810211358766
 31
0.0
  0
LINE
  5
1EF
330
B7
100
AcDbEntity
  8
12_Linie
 62
     7
100
AcDbLine
 10
237.0654816290207
 20
148.5588568986723
 30
0.0
 11
235.852962927372
 21
147.1492154843722
 31
0.0
  0
HATCH
  5
1F0
330
B7
100
AcDbEntity
  8
Schraff_Dämmung
 62
     7
100
AcDbHatch
 10
0.0
 20
0.0
 30
0.0
210
0.0
220
0.0
230
1.0
  2
SOLID
 70
     1
 71
     0
 91
        7
 92
        0
 93
        4
 72
     1
 10
127.6535233863218
 20
139.5888485432793
 11
126.9561870553418
 21
139.5278400070318
 72
     1
 10
126.9561870553418
 20
139.5278400070318
 11
126.9649025605198
 21
139.4282205311774
 72
     1
 10
126.9649025605198
 20
139.4282205311774
 11
127.6622388915002
 21
139.4892290674249
 72
     1
 10
127.6622388915002
 20
139.4892290674249
 11
127.6535233863218
 21
139.5888485432793
 97
        0
 92
        0
 93
        4
 72
     1
 10
127.6622388915002
 20
139.4892290674249
 11
126.9649025605198
 21
139.4282205311774
 72
     1
 10
126.9649025605198
 20
139.4282205311774
 11
127.0392589856503
 21
139.2339618681422
 72
     1
 10
127.0392589856503
 20
139.2339618681422
 11
127.6227444870827
 21
139.2850098270431
 72
     1
 10
127.6227444870827
 20
139.2850098270431
 11
127.6622388915002
 21
139.4892290674249
 97
        0
 92
        0
 93
        4
 72
     1
 10
127.6227444870827
 20
139.2850098270431
 11
127.0392589856503
 21
139.2339618681422
 72
     1
 10
127.0392589856503
 20
139.2339618681422
 11
127.2251500484759
 21
138.7483152105536
 72
     1
 10
127.2251500484759
 20
138.7483152105536
 11
127.5240084760389
 21
138.7744617260882
 72
     1
 10
127.5240084760389
 20
138.7744617260882
 11
127.6227444870827
 21
139.2850098270431
 97
        0
 92
        0
 93
        4
 72
     1
 10
127.5240084760389
 20
138.7744617260882
 11
127.2251500484759
 21
138.7483152105536
 72
     1
 10
127.2251500484759
 20
138.7483152105538
 11
127.2577044004342
 21
138.3762142924119
 72
     1
 10
127.2577044004342
 20
138.3762142924119
 11
127.5589397839551
 21
138.3751918599863
 72
     1
 10
127.5589397839551
 20
138.3751918599863
 11
127.5240084760389
 21
138.7744617260883
 97
        0
 92
        0
 93
        4
 72
     1
 10
127.5589397839551
 20
138.3751918599863
 11
127.2577044004342
 21
138.3762142924119
 72
     1
 10
127.2577044004342
 20
138.3762142924119
 11
127.3382520842926
 21
137.4555426981473
 72
     1
 10
127.3382520842926
 20
137.4555426981473
 11
127.6394874678132
 21
137.4545202657217
 72
     1
 10
127.6394874678132
 20
137.4545202657217
 11
127.5589397839551
 21
138.3751918599863
 97
        0
 92
        0
 93
        4
 72
     1
 10
127.6394874678132
 20
137.4545202657217
 11
127.3382520842926
 21
137.4555426981473
 72
     1
 10
127.3382520842926
 20
137.4555426981473
 11
127.4017516834501
 21
136.7297331603521
 72
     1
 10
127.4017516834501
 20
136.7297331603521
 11
127.702987066971
 21
136.7287107279263
 72
     1
 10
127.702987066971
 20
136.7287107279263
 11
127.6394874678132
 21
137.4545202657217
 97
        0
 92
        0
 93
        4
 72
     1
 10
127.702987066971
 20
136.7287107279263
 11
127.4017516834501
 21
136.7297331603521
 72
     1
 10
127.4017516834501
 20
136.7297331603521
 11
127.4838178886879
 21
135.7917046486394
 72
     1
 10
127.4838178886879
 20
135.7917046486393
 11
127.782676316251
 21
135.8178511641739
 72
     1
 10
127.782676316251
 20
135.8178511641739
 11
127.702987066971
 21
136.7287107279263
 97
        0
 75
     0
 76
     1
 98
        0
  0
LINE
  5
1F1
330
B7
100
AcDbEntity
  8
12_Linie
 62
     7
100
AcDbLine
 10
106.1852659627648
 20
135.7043683799221
 30
0.0
 11
106.1765506811036
 21
135.8039878753313
 31
0.0
  0
HATCH
  5
1F2
330
B7
100
AcDbEntity
  8
Schraff_Dämmung
 62
     7
100
AcDbHatch
 10
0.0
 20
0.0
 30
0.0
210
0.0
220
0.0
230
1.0
  2
SOLID
 70
     1
 71
     0
 91
        7
 92
        0
 93
        4
 72
     1
 10
138.6475102457358
 20
140.5506971605497
 11
139.3448464986908
 21
140.6117065886274
 72
     1
 10
139.3448464986908
 20
140.6117065886274
 11
139.3535621312736
 21
140.5120871239195
 72
     1
 10
139.3535621312736
 20
140.5120871239195
 11
138.6562258783182
 21
140.4510776958419
 72
     1
 10
138.6562258783182
 20
140.4510776958419
 11
138.6475102457358
 21
140.5506971605497
 97
        0
 92
        0
 93
        4
 72
     1
 10
138.6562258783182
 20
140.4510776958419
 11
139.3535621312736
 21
140.5120871239195
 72
     1
 10
139.3535621312736
 20
140.5120871239195
 11
139.314067988034
 21
140.3078678330281
 72
     1
 10
139.314067988034
 20
140.3078678330281
 11
138.7305825518879
 21
140.2568191279018
 72
     1
 10
138.7305825518879
 20
140.2568191279018
 11
138.6562258783182
 21
140.4510776958419
 97
        0
 92
        0
 93
        4
 72
     1
 10
138.7305825518879
 20
140.2568191279018
 11
139.314067988034
 21
140.3078678330281
 72
     1
 10
139.314067988034
 20
140.3078678330281
 11
139.2153326299356
 21
139.7973196057992
 72
     1
 10
139.2153326299356
 20
139.7973196057992
 11
138.9164742358118
 21
139.7711727080516
 72
     1
 10
138.9164742358118
 20
139.7711727080516
 11
138.7305825518879
 21
140.2568191279018
 97
        0
 92
        0
 93
        4
 72
     1
 10
138.9164742358118
 20
139.7711727080516
 11
139.2153326299356
 21
139.7973196057992
 72
     1
 10
139.2153326299354
 20
139.7973196057994
 11
139.2478874577777
 21
139.4252187292919
 72
     1
 10
139.2478874577777
 20
139.4252187292919
 11
138.9514060543583
 21
139.371902886624
 72
     1
 10
138.9514060543583
 20
139.371902886624
 11
138.9164742358118
 21
139.7711727080517
 97
        0
 92
        0
 93
        4
 72
     1
 10
138.9514060543583
 20
139.371902886624
 11
139.2478874577777
 21
139.4252187292919
 72
     1
 10
139.2478874577777
 20
139.4252187292919
 11
139.328436319092
 21
138.5045472380412
 72
     1
 10
139.328436319092
 20
138.5045472380412
 11
139.0319549156726
 21
138.4512313953734
 72
     1
 10
139.0319549156726
 20
138.4512313953734
 11
138.9514060543583
 21
139.371902886624
 97
        0
 92
        0
 93
        4
 72
     1
 10
139.0319549156726
 20
138.4512313953734
 11
139.328436319092
 21
138.5045472380412
 72
     1
 10
139.328436319092
 20
138.5045472380412
 11
139.3919368464947
 21
137.7787377814569
 72
     1
 10
139.3919368464947
 20
137.7787377814569
 11
139.0954554430751
 21
137.7254219387889
 72
     1
 10
139.0954554430751
 20
137.7254219387889
 11
139.0319549156726
 21
138.4512313953734
 97
        0
 92
        0
 93
        4
 72
     1
 10
139.0954554430751
 20
137.7254219387889
 11
139.3919368464947
 21
137.7787377814569
 72
     1
 10
139.3919368464947
 20
137.7787377814569
 11
139.4740042513862
 21
136.8407093747004
 72
     1
 10
139.4740042513862
 20
136.8407093747002
 11
139.1751458572624
 21
136.8145624769526
 72
     1
 10
139.1751458572624
 20
136.8145624769526
 11
139.0954554430751
 21
137.7254219387889
 97
        0
 75
     0
 76
     1
 98
        0
  0
LINE
  5
1F3
330
B7
100
AcDbEntity
  8
12_Linie
 62
     7
370
    20
100
AcDbLine
 10
189.9271296052372
 20
134.8998859511534
 30
0.0
 11
191.2301617582683
 21
143.2452050089425
 31
0.0
  0
LINE
  5
1F4
330
B7
100
AcDbEntity
  8
12_Linie
 62
     7
370
    20
100
AcDbLine
 10
226.2458854679639
 20
138.0773687114195
 30
0.0
 11
227.5489198171368
 21
146.4226874263045
 31
0.0
  0
LINE
  5
1F5
330
B7
100
AcDbEntity
  8
14_Kreis
  6
Continuous
 62
     7
370
    20
100
AcDbLine
 10
127.5494279667357
 20
140.9850893703872
 30
0.0
 11
127.5930058111375
 21
140.4869920189814
 31
0.0
  0
HATCH
  5
1F6
330
B7
100
AcDbEntity
  8
Folie _ 3
  6
Continuous
 62
    30
100
AcDbHatch
 10
0.0
 20
0.0
 30
0.0
210
0.0
220
0.0
230
1.0
  2
SOLID
 70
     1
 71
     0
 91
        3
 92
        0
 93
        7
 72
     1
 10
127.3209000669376
 20
137.6538787485055
 11
127.2251500484759
 21
138.7483152105538
 72
     1
 10
127.2251500484759
 20
138.7483152105536
 11
127.1507936725913
 21
138.9425737449327
 72
     1
 10
127.1507936725913
 20
138.9425737449327
 11
102.8873269079379
 21
136.8197967891109
 72
     1
 10
102.8873269079379
 20
136.8197967891109
 11
102.9670769079379
 21
135.822946789111
 72
     1
 10
102.9670769079379
 20
135.822946789111
 11
115.7000746089443
 21
136.9318234241774
 72
     1
 10
115.7000746089443
 20
136.9318234241774
 11
115.7255395444798
 21
136.6394149132783
 72
     1
 10
115.7255395444798
 20
136.6394149132783
 11
127.3209000669376
 21
137.6538787485055
 97
        0
 92
        0
 93
        6
 72
     1
 10
138.9164742358118
 20
139.7711727080516
 11
138.8421175129965
 21
139.9654314046475
 72
     1
 10
138.8421175129963
 20
139.9654314046475
 11
127.5635029066132
 21
138.9786811017228
 72
     1
 10
127.5635029066132
 20
138.9786811017228
 11
127.5240084760389
 21
138.7744617260882
 72
     1
 10
127.5240084760389
 20
138.7744617260882
 11
127.6197584735905
 21
137.6800255030472
 72
     1
 10
127.6197584735905
 20
137.6800255030472
 11
139.0122254732962
 21
138.6767384334331
 72
     1
 10
139.0122254732962
 20
138.6767384334331
 11
138.9164742358118
 21
139.7711727080517
 97
        0
 92
        0
 93
        5
 72
     1
 10
235.852962927372
 20
147.1492154843722
 11
237.0654816290207
 21
148.5588568986723
 72
     1
 10
237.0654816290207
 20
148.5588568986723
 11
139.2548267470183
 21
140.0015387614378
 72
     1
 10
139.2548267470183
 20
140.0015387614378
 11
139.2153326299356
 21
139.7973196057992
 72
     1
 10
139.2153326299354
 20
139.7973196057994
 11
139.3110838799488
 21
138.7028851879748
 72
     1
 10
139.3110838799488
 20
138.7028851879748
 11
235.852962927372
 21
147.1492154843722
 97
        0
 75
     0
 76
     1
 98
        0
  0
HATCH
  5
1F7
330
B7
100
AcDbEntity
  8
Folie _ 3
  6
Continuous
 62
    30
100
AcDbHatch
 10
0.0
 20
0.0
 30
0.0
210
0.0
220
0.0
230
1.0
  2
SOLID
 70
     1
 71
     0
 91
        1
 92
        0
 93
       22
 72
     1
 10
138.6562258588119
 20
140.4510779187995
 11
138.6475102457358
 21
140.5506971605497
 72
     1
 10
138.6475102457358
 20
140.5506971605497
 11
139.3448464986908
 21
140.6117065886274
 72
     1
 10
139.3448464986908
 20
140.6117065886274
 11
139.3535621507799
 21
140.5120869009621
 72
     1
 10
139.3535621507799
 20
140.5120869009621
 11
140.6306926364871
 21
140.6238212706188
 72
     2
 10
140.7705114878954
 20
138.0082270150823
 40
2.619328658417427
 50
266.940116940338
 51
301.0466533754634
 73
     0
 72
     1
 10
142.1213931979504
 20
140.2523306727253
 11
147.7480774112286
 21
140.7446014476103
 72
     1
 10
147.7480774112286
 20
140.7446014476103
 11
147.7338383815757
 21
140.9073544027898
 72
     2
 10
146.7274997035871
 20
140.3278094321531
 40
1.161288038260213
 50
29.93740609472546
 51
80.89110371288334
 73
     1
 72
     1
 10
146.9113448161947
 20
141.4744527430291
 11
142.6537937321018
 21
141.1019655210993
 72
     2
 10
140.2530572403235
 20
135.8797126043611
 40
5.747648321647403
 50
65.31115292613191
 51
87.103101396226
 73
     1
 72
     1
 10
140.5435369476834
 20
141.62001597343
 11
125.600616405515
 21
140.3126806413742
 72
     2
 10
126.8834756859429
 20
134.7100265117713
 40
5.747648321647404
 50
102.8968923986443
 51
124.688840868739
 73
     1
 72
     1
 10
123.6123775854219
 20
139.4360585097696
 11
119.3548265013289
 21
139.06357128784
 72
     2
 10
119.7349909961085
 20
137.9662723929553
 40
1.161288038260214
 50
109.1088900819943
 51
160.0625877001365
 73
     1
 72
     1
 10
118.6433039787282
 20
138.362264013939
 11
118.6575430083811
 21
138.1995110587601
 72
     1
 10
118.6575430083811
 20
138.1995110587601
 11
124.2842272216607
 21
138.6917818336453
 72
     2
 10
126.00427029983
 20
136.7163491139488
 40
2.619328658417427
 50
228.9533528296986
 51
263.0598892647852
 73
     0
 72
     1
 10
125.6877720943183
 20
139.316485938563
 11
126.964902580026
 21
139.4282203082198
 72
     1
 10
126.964902580026
 20
139.4282203082198
 11
126.9561870553418
 21
139.5278400070318
 72
     1
 10
126.9561870553418
 20
139.5278400070318
 11
127.6535233863218
 21
139.5888485432793
 72
     1
 10
127.6535233863218
 20
139.5888485432793
 11
127.6622388719941
 21
139.4892292903824
 72
     1
 10
127.6622388719941
 20
139.4892292903824
 11
138.6562257951096
 21
140.4510779132262
 97
        0
 75
     0
 76
     1
 98
        0
  0
LINE
  5
1F8
330
B7
100
AcDbEntity
  8
12_Linie
 62
     7
370
    20
100
AcDbLine
 10
230.2813029202469
 20
138.4304208175149
 30
0.0
 11
227.5489198171368
 21
146.4226874263045
 31
0.0
  0
LINE
  5
1F9
330
B7
100
AcDbEntity
  8
12_Linie
 62
     7
370
    20
100
AcDbLine
 10
226.2458854679642
 20
138.0773687114195
 30
0.0
 11
223.5135002616218
 21
146.0696346011588
 31
0.0
  0
LINE
  5
1FA
330
B7
100
AcDbEntity
  8
12_Linie
 62
     7
370
    20
100
AcDbLine
 10
222.2104681085906
 20
137.7243155433698
 30
0.0
 11
219.4780807990155
 21
145.7165807140586
 31
0.0
  0
LINE
  5
1FB
330
B7
100
AcDbEntity
  8
12_Linie
 62
     7
370
    20
100
AcDbLine
 10
218.1750508421257
 20
137.3712613133656
 30
0.0
 11
219.4780807990155
 21
145.7165807140586
 31
0.0
  0
LINE
  5
1FC
330
B7
100
AcDbEntity
  8
12_Linie
 62
     7
370
    20
100
AcDbLine
 10
222.2104681085901
 20
137.7243155433699
 30
0.0
 11
223.5135002616216
 21
146.069634601159
 31
0.0
  0
LINE
  5
1FD
330
B7
100
AcDbEntity
  8
12_Linie
 62
     7
370
    20
100
AcDbLine
 10
156.2725718227415
 20
90.2445045028151
 30
0.0
 11
172.2725718227415
 21
94.06426723570621
 31
0.0
  0
LINE
  5
1FE
330
B7
100
AcDbEntity
  8
12_Linie
 62
     7
370
    20
100
AcDbLine
 10
156.2725718227415
 20
82.60497903703308
 30
0.0
 11
172.2725718227415
 21
86.42474176992418
 31
0.0
  0
LINE
  5
1FF
330
B7
100
AcDbEntity
  8
12_Linie
 62
     7
370
    20
100
AcDbLine
 10
156.2725718227415
 20
90.2445045028151
 30
0.0
 11
172.2725718227415
 21
86.42474176992408
 31
0.0
  0
HATCH
  5
200
330
B7
100
AcDbEntity
  8
Folie _ 3
  6
Continuous
 62
     7
370
    20
100
AcDbHatch
 10
0.0
 20
0.0
 30
0.0
210
0.0
220
0.0
230
1.0
  2
ANSI31
 70
     0
 71
     0
 91
        1
 92
        0
 93
        6
 72
     1
 10
186.2725718227415
 20
112.9980339325856
 11
197.2725718227415
 21
113.9604089492683
 72
     1
 10
197.2725718227415
 20
113.9604089492683
 11
197.2725718227415
 21
72.26510491327818
 72
     1
 10
197.2725718227415
 20
72.26510491327818
 11
172.2725718227415
 21
72.26510491327818
 72
     1
 10
172.2725718227415
 20
72.26510491327818
 11
172.2725718227415
 21
97.78083267287866
 72
     1
 10
172.2725718227415
 20
97.78083267287866
 11
186.2725718227415
 21
97.78083267287866
 72
     1
 10
186.2725718227415
 20
97.78083267287866
 11
186.2725718227415
 21
112.9980339325856
 97
        0
 75
     0
 76
     1
 52
0.0
 41
30.0
 77
     0
 78
     1
 53
45.0
 43
-695.7164518783106
 44
732.9160616150763
 45
-2.651650429449552
 46
2.651650429449552
 79
     0
 98
        0
  0
ARC
  5
201
330
B7
100
AcDbEntity
  8
12_Linie
 62
     7
370
    20
100
AcDbCircle
 10
91.3459450752047
 20
124.6904786366863
 30
0.0
 40
7.4
100
AcDbArc
 50
180.0
 51
0.0
  0
ARC
  5
202
330
B7
100
AcDbEntity
  8
12_Linie
 62
     7
370
    20
100
AcDbCircle
 10
91.3459450752047
 20
124.6904786366863
 30
0.0
 40
7.5
100
AcDbArc
 50
180.0
 51
3.331247566946916
  0
LINE
  5
203
330
B7
100
AcDbEntity
  8
12_Linie
 62
     7
370
    20
100
AcDbLine
 10
98.83327213233879
 20
125.1262922889615
 30
0.0
 11
104.0706848754993
 21
127.5809683743005
 31
0.0
  0
ARC
  5
204
330
B7
100
AcDbEntity
  8
12_Linie
 62
     7
370
    20
100
AcDbCircle
 10
83.8959450752047
 20
124.6904786366863
 30
0.0
 40
0.05
100
AcDbArc
 50
0.0000000000010385
 51
179.9999999999989
  0
LINE
  5
205
330
B7
100
AcDbEntity
  8
12_Linie
 62
     7
100
AcDbLine
 10
104.4935227936241
 20
127.3373912718602
 30
0.0
 11
103.868067365726
 21
134.4864534955653
 31
0.0
  0
LINE
  5
206
330
B7
100
AcDbEntity
  8
12_Linie
 62
     7
370
    20
100
AcDbLine
 10
83.48523483328445
 20
123.9035640971262
 30
0.0
 11
83.88324547844513
 21
123.9434078712811
 31
0.0
  0
LINE
  5
207
330
B7
100
AcDbEntity
  8
12_Linie
 62
     7
370
    20
100
AcDbLine
 10
104.0706848754993
 20
127.5809683743005
 30
0.0
 11
103.4695894551709
 21
134.4515915564392
 31
0.0
  0
LINE
  5
208
330
B7
100
AcDbEntity
  8
12_Linie
 62
     7
370
    20
100
AcDbLine
 10
99.24374474923152
 20
124.8769198042006
 30
0.0
 11
104.4935227936241
 21
127.3373912718602
 31
0.0
  0
ARC
  5
209
330
B7
100
AcDbEntity
  8
12_Linie
 62
     7
370
    20
100
AcDbCircle
 10
91.3459450752047
 20
124.6904786366863
 30
0.0
 40
7.900000000000046
100
AcDbArc
 50
185.7166804816363
 51
1.352314416285355
  0
LINE
  5
20A
330
B7
100
AcDbEntity
  8
12_Linie
 62
     7
370
    20
100
AcDbLine
 10
98.7459450752047
 20
124.6904786366863
 30
0.0
 11
98.8459450752047
 21
124.6904786366863
 31
0.0
  0
LINE
  5
20B
330
B7
100
AcDbEntity
  8
12_Linie
 62
     7
370
    20
100
AcDbLine
 10
103.4695894551709
 20
134.451591556439
 30
0.0
 11
103.868067365726
 21
134.4864534955655
 31
0.0
  0
HATCH
  5
20C
330
B7
100
AcDbEntity
  8
Schraff_Dämmung
 62
     7
100
AcDbHatch
 10
0.0
 20
0.0
 30
0.0
210
0.0
220
0.0
230
1.0
  2
SOLID
 70
     1
 71
     0
 91
        8
 92
        0
 93
        4
 72
     1
 10
103.645383751979
 20
132.4492157021751
 11
103.5457619467181
 21
132.4405268635556
 72
     1
 10
103.5457619467181
 20
132.4405268635556
 11
103.6152726556744
 21
131.6435524214683
 72
     1
 10
103.6152726556744
 20
131.6435524214683
 11
103.7148944609353
 21
131.6522412600878
 72
     1
 10
103.7148944609353
 20
131.6522412600878
 11
103.645383751979
 21
132.4492157021751
 97
        0
 92
        0
 93
        4
 72
     1
 10
103.7148944609353
 20
131.6522412600878
 11
103.6152726556744
 21
131.6435524214683
 72
     1
 10
103.6152726556744
 20
131.6435524214683
 11
103.6760945260108
 21
130.9461997846419
 72
     1
 10
103.6760945260108
 20
130.9461997846419
 11
103.7757163312717
 21
130.9548886232614
 72
     1
 10
103.7757163312717
 20
130.9548886232614
 11
103.7148944609353
 21
131.6522412600878
 97
        0
 92
        0
 93
        4
 72
     1
 10
104.0201557780723
 20
131.5931213348548
 11
103.7148944609353
 21
131.6522412600878
 72
     1
 10
103.7148944609353
 20
131.6522412600878
 11
103.7757163312717
 21
130.9548886232614
 72
     1
 10
103.7757163312717
 20
130.9548886232614
 11
104.0661336365114
 21
131.0659625901359
 72
     1
 10
104.0661336365114
 20
131.0659625901359
 11
104.0201557780723
 21
131.5931213348547
 97
        0
 92
        0
 93
        4
 72
     1
 10
103.7757163312717
 20
130.9548886232614
 11
103.6760945260108
 21
130.9461997846419
 72
     1
 10
103.6760945260108
 20
130.9461997846419
 11
103.7456052349671
 21
130.1492253425546
 72
     1
 10
103.7456052349671
 20
130.1492253425546
 11
103.845227040228
 21
130.157914181174
 72
     1
 10
103.845227040228
 20
130.157914181174
 11
103.7757163312717
 21
130.9548886232614
 97
        0
 92
        0
 93
        4
 72
     1
 10
104.091628809479
 20
131.5792791608362
 11
104.0201557780723
 21
131.5931213348548
 72
     1
 10
104.0201557780723
 20
131.5931213348547
 11
104.0661336365114
 21
131.0659625901359
 72
     1
 10
104.0661336365114
 20
131.0659625901359
 11
104.1341311324703
 21
131.0919691382218
 72
     1
 10
104.1341311324703
 20
131.0919691382218
 11
104.091628809479
 21
131.5792791608362
 97
        0
 92
        0
 93
        4
 72
     1
 10
104.4296247750006
 20
131.5138195199025
 11
104.091628809479
 21
131.5792791608362
 72
     1
 10
104.091628809479
 20
131.5792791608362
 11
104.1341311324703
 21
131.0919691382218
 72
     1
 10
104.1341311324703
 20
131.0919691382218
 11
104.4556912908591
 21
131.2149541041197
 72
     1
 10
104.4556912908591
 20
131.2149541041197
 11
104.4296247750006
 21
131.5138195199025
 97
        0
 92
        0
 93
        4
 72
     1
 10
105.0960647656544
 20
131.5719452436155
 11
104.4296247750006
 21
131.5138195199025
 72
     1
 10
104.4296247750006
 20
131.5138195199025
 11
104.4556912908591
 21
131.2149541041197
 72
     1
 10
104.4556912908591
 20
131.2149541041197
 11
105.1221312815132
 21
131.2730798278327
 72
     1
 10
105.1221312815132
 20
131.2730798278327
 11
105.0960647656544
 21
131.5719452436155
 97
        0
 92
        0
 93
        4
 72
     1
 10
108.6844920020556
 20
131.8849215551096
 11
105.0960647656544
 21
131.5719452436155
 72
     1
 10
105.0960647656544
 20
131.5719452436155
 11
105.1221312815132
 21
131.2730798278327
 72
     1
 10
105.1221312815132
 20
131.2730798278327
 11
108.7105585179141
 21
131.5860561393268
 72
     1
 10
108.7105585179141
 20
131.5860561393268
 11
108.6844920020556
 21
131.8849215551096
 97
        0
 75
     0
 76
     1
 98
        0
  0
TEXT
  5
20D
330
B7
100
AcDbEntity
  8
Folie _ 3
  6
Continuous
 62
     7
100
AcDbText
 10
204.8758125166782
 20
154.4346283244649
 30
0.0
 40
3.177854776382446
  1
- Sparren
 41
1.071865229477616
  7
Style0
100
AcDbText
  0
TEXT
  5
20E
330
B7
100
AcDbEntity
  8
Folie _ 3
  6
Continuous
 62
     7
100
AcDbText
 10
204.8758125166782
 20
159.8951819576829
 30
0.0
 40
3.177854776382446
  1
- Holzschalung
 41
1.071865229477616
  7
Style0
100
AcDbText
  0
TEXT
  5
20F
330
B7
100
AcDbEntity
  8
Folie _ 3
  6
Continuous
 62
     7
100
AcDbText
 10
204.8758125166782
 20
165.3557355909008
 30
0.0
 40
3.177854776382446
  1
- Dampfsperre (*3)
 41
1.071865229477616
  7
Style0
100
AcDbText
  0
TEXT
  5
210
330
B7
100
AcDbEntity
  8
Folie _ 3
  6
Continuous
 62
     7
100
AcDbText
 10
204.8758125166782
 20
170.8162892241189
 30
0.0
 40
3.177854776382446
  1
- Wärmedämmung (*2)
 41
1.071865229477616
  7
Style0
100
AcDbText
  0
TEXT
  5
211
330
B7
100
AcDbEntity
  8
Folie _ 3
  6
Continuous
 62
    30
100
AcDbText
 10
204.8758125166782
 20
176.2768428573368
 30
0.0
 40
3.177854776382446
  1
- COVERiT NOVOtan EPDM vk 1,3/ 1,5 mm
 41
0.966666678754029
  7
Style0
100
AcDbText
  0
LINE
  5
212
330
B7
100
AcDbEntity
  8
Folie _ 3
  6
Continuous
 62
     7
370
    30
100
AcDbLine
 10
204.8758125166782
 20
128.7714522347964
 30
0.0
 11
204.8758125166782
 21
178.7365861568364
 31
0.0
  0
LINE
  5
213
330
B7
100
AcDbEntity
  8
Folie _ 3
  6
Continuous
 62
     7
370
    30
100
AcDbLine
 10
151.4514460461905
 20
165.4700258563215
 30
0.0
 11
133.6398760271666
 21
145.9325150250575
 31
0.0
  0
TEXT
  5
214
330
B7
100
AcDbEntity
  8
Folie _ 3
  6
Continuous
 62
     7
100
AcDbText
 10
151.4514460461905
 20
165.4700258563215
 30
0.0
 40
3.177854776382446
  1
Schneefang
 41
1.071865229477616
  7
Style0
100
AcDbText
  0
LINE
  5
215
330
B7
100
AcDbEntity
  8
12_Linie
 62
     7
370
    20
100
AcDbLine
 10
106.1765506811036
 20
135.8039878753313
 30
0.0
 11
101.6136093276171
 21
135.4047957399337
 31
0.0
  0
LINE
  5
216
330
B7
100
AcDbEntity
  8
12_Linie
 62
     7
370
    20
100
AcDbLine
 10
101.6136093276171
 20
135.4047957399337
 30
0.0
 11
97.83398258699418
 21
125.1100864636467
 31
0.0
  0
LINE
  5
217
330
B7
100
AcDbEntity
  8
12_Linie
 62
     7
370
    20
100
AcDbLine
 10
97.83398258699418
 20
125.1100864636467
 30
0.0
 11
97.92785576882306
 21
125.0756216158549
 31
0.0
  0
LINE
  5
218
330
B7
100
AcDbEntity
  8
12_Linie
 62
     7
370
    20
100
AcDbLine
 10
106.1852659627648
 20
135.7043683799221
 30
0.0
 11
101.6855936445907
 21
135.3107113806033
 31
0.0
  0
LINE
  5
219
330
B7
100
AcDbEntity
  8
12_Linie
 62
     7
370
    20
100
AcDbLine
 10
101.6855936445907
 20
135.3107113806033
 30
0.0
 11
97.92785576882306
 21
125.0756216158549
 31
0.0
  0
HATCH
  5
21A
330
B7
100
AcDbEntity
  8
Schraff_Dämmung
 62
   253
100
AcDbHatch
 10
0.0
 20
0.0
 30
0.0
210
0.0
220
0.0
230
1.0
  2
SOLID
 70
     1
 71
     0
 91
        1
 92
        0
 93
        6
 72
     1
 10
106.1852659627648
 20
135.7043683799221
 11
106.1767828143529
 21
135.8013344903837
 72
     1
 10
106.1767828143529
 20
135.8013344903837
 11
101.6132855663209
 21
135.4039138993054
 72
     1
 10
101.6132855663209
 20
135.4039138993054
 11
97.83398258699418
 21
125.1100864636467
 72
     1
 10
97.83398258699418
 20
125.1100864636467
 11
97.92785576882306
 21
125.0756216158549
 72
     1
 10
97.92785576882306
 20
125.0756216158549
 11
101.6855936445905
 21
135.3107113806032
 72
     1
 10
101.6855936445905
 20
135.3107113806032
 11
106.1852659627648
 21
135.7043683799221
 97
        0
 75
     0
 76
     1
 98
        0
  0
HATCH
  5
21B
330
B7
100
AcDbEntity
  8
Schraff_Dämmung
 62
   253
420
 10066329
100
AcDbHatch
 10
0.0
 20
0.0
 30
0.0
210
0.0
220
0.0
230
1.0
  2
SOLID
 70
     1
 71
     0
 91
        1
 92
        0
 93
       15
 72
     1
 10
101.6132855663209
 20
135.4039138993054
 11
101.6136093276171
 21
135.4047957399336
 72
     1
 10
101.6136093276171
 20
135.4047957399336
 11
106.1765506811034
 21
135.8039878753312
 72
     1
 10
106.1765506811034
 20
135.8039878753312
 11
106.1767828143529
 21
135.8013344903837
 72
     1
 10
106.1767828143529
 20
135.8013344903837
 11
109.4570628120764
 21
136.0870037358642
 72
     1
 10
109.4570628120764
 20
136.0870037358642
 11
109.3827497260043
 21
136.2811491741513
 72
     1
 10
109.3827497260043
 20
136.2811491741513
 11
109.3740342208261
 21
136.3807686500057
 72
     1
 10
109.3740342208261
 20
136.3807686500057
 11
109.7227023862242
 21
136.4112729181214
 72
     1
 10
109.7227023862242
 20
136.4112729181214
 11
95.93242624122013
 21
135.2103212359342
 72
     1
 10
95.93242624122013
 20
135.2103212359342
 11
95.93242624122031
 21
130.0767609336024
 72
     2
 10
96.22538145878607
 20
130.1290000107112
 40
0.2975763442818989
 50
190.1105782533555
 51
346.460689826503
 73
     1
 72
     1
 10
96.51468801557768
 20
130.0593336854636
 11
97.05519149645025
 21
132.6409626349026
 72
     1
 10
97.05519149645025
 20
132.6409626349026
 11
96.7486892694964
 21
132.6409626349027
 72
     1
 10
96.7486892694964
 20
132.6409626349027
 11
96.23242624122031
 21
130.1751017372224
 72
     1
 10
96.23242624122031
 20
130.1751017372224
 11
96.23242624122014
 21
134.93531182128
 72
     1
 10
96.23242624122014
 20
134.93531182128
 11
101.6132855663209
 21
135.4039138993054
 97
        0
 75
     0
 76
     1
 98
        0
  0
HATCH
  5
21C
330
B7
100
AcDbEntity
  8
Schraff_Dämmung
 62
   253
420
 10066329
100
AcDbHatch
 10
0.0
 20
0.0
 30
0.0
210
0.0
220
0.0
230
1.0
  2
SOLID
 70
     1
 71
     0
 91
        1
 92
        0
 93
        6
 72
     1
 10
115.7261047307255
 20
136.6329548363888
 11
115.7255395444798
 21
136.6394149132783
 72
     1
 10
115.7255395444798
 20
136.6394149132783
 11
115.7000746089443
 21
136.9318234241774
 72
     1
 10
115.7000746089443
 20
136.9318234241774
 11
110.0713826950558
 21
136.4416383871688
 72
     1
 10
110.0713826950558
 20
136.4416383871688
 11
110.0800860569845
 21
136.3421577103988
 72
     1
 10
110.0800860569845
 20
136.3421577103988
 11
110.0405686288812
 21
136.1378194182253
 72
     1
 10
110.0405686288812
 20
136.1378194182253
 11
115.7261047307255
 21
136.6329548363888
 97
        0
 75
     0
 76
     1
 98
        0
  0
TEXT
  5
21D
330
B7
100
AcDbEntity
  8
Folie _ 3
  6
Continuous
 62
     7
100
AcDbText
 10
159.0
 20
36.59962622006759
 30
0.0
 40
3.177854776382446
  1
NOVOtan EPDM Rollenware vlieskaschiert
 41
1.021345735900753
  7
Style0
100
AcDbText
  0
IMAGE
  5
21E
330
B7
100
AcDbEntity
  8
37_Bilder
  6
Continuous
 62
     7
370
     0
160
               140
310
8C00000001000000840000000600000005000000663F38DD7DC76E40607D7E0819A431400000000000000000B31F9CDEEF237240607D7E0819A431400000000000000000B31F9CDEEF237240B03E3F74D92D40400000000000000000663F38DD7DC76E40B03E3F74D92D40400000000000000000663F38DD7DC76E40607D7E
310
0819A431400000000000000000
100
AcDbRasterImage
 90
        0
 10
246.2341142748439
 20
17.64100697601441
 30
0.0
 11
0.0279263627105558
 21
0.0
 31
0.0
 12
0.0
 22
0.02792635995477608
 32
0.0
 13
1576.0
 23
527.0
340
B5
 70
     3
280
     0
281
    50
282
    50
283
     0
360
0
 71
     1
 91
        2
 14
-0.5
 24
-0.5
 14
1575.5
 24
526.5
290
     0
  0
LINE
  5
21F
330
B7
100
AcDbEntity
  8
STANDARD
  6
Continuous
 62
     7
370
    20
100
AcDbLine
 10
103.7799250292615
 20
135.4939354356392
 30
0.0
 11
104.5730344639878
 21
126.4285593174401
 31
0.0
  0
LINE
  5
220
330
B7
100
AcDbEntity
  8
STANDARD
  6
Continuous
 62
     7
370
    20
100
AcDbLine
 10
156.2725718227415
 20
128.4421318317256
 30
0.0
 11
156.2725718227415
 21
72.26510491327818
 31
0.0
  0
LINE
  5
221
330
B7
100
AcDbEntity
  8
STANDARD
  6
Continuous
 62
     7
370
    20
100
AcDbLine
 10
237.8936579200497
 20
139.0964189002636
 30
0.0
 11
141.5021207090345
 21
130.6632546064893
 31
0.0
  0
LINE
  5
222
330
B7
100
AcDbEntity
  8
STANDARD
  6
Continuous
 62
     7
370
    40
100
AcDbLine
 10
235.852962927372
 20
147.1492154843722
 30
0.0
 11
115.7255395444798
 21
136.6394149132783
 31
0.0
  0
LINE
  5
223
330
B7
100
AcDbEntity
  8
STANDARD
  6
Continuous
 62
     7
370
    40
100
AcDbLine
 10
104.4858795444798
 20
127.4247549132783
 30
0.0
 11
116.4402195444798
 21
128.4706249132782
 31
0.0
  0
ELLIPSE
  5
224
330
B7
100
AcDbEntity
  8
STANDARD
  6
Continuous
 62
     7
100
AcDbEllipse
 10
115.9300595444798
 20
134.8504349132782
 30
0.0
 11
2.390867275419851
 21
0.2091737825981
 31
0.0
210
0.0
220
0.0
230
1.0
 40
0.6666670000000001
 41
1.570796326794897
 42
1.591721792798622
  0
LINE
  5
225
330
B7
100
AcDbEntity
  8
STANDARD
  6
Continuous
 62
     7
100
AcDbLine
 10
116.2896295444798
 20
130.1643749132782
 30
0.0
 11
116.3484095444799
 21
130.0687049132782
 31
0.0
  0
LINE
  5
226
330
B7
100
AcDbEntity
  8
STANDARD
  6
Continuous
 62
     7
370
    20
100
AcDbLine
 10
116.4402195444798
 20
128.4706249132782
 30
0.0
 11
115.7255395444798
 21
136.6394149132783
 31
0.0
  0
LINE
  5
227
330
B7
100
AcDbEntity
  8
STANDARD
  6
Continuous
 62
     7
370
    40
100
AcDbLine
 10
237.0654816290207
 20
148.5588568986723
 30
0.0
 11
102.8873269079379
 21
136.8197967891109
 31
0.0
  0
LINE
  5
228
330
B7
100
AcDbEntity
  8
STANDARD
  6
Continuous
 62
     7
370
    40
100
AcDbLine
 10
102.8873269079379
 20
136.8197967891109
 30
0.0
 11
102.9670769079379
 21
135.822946789111
 31
0.0
  0
TEXT
  5
229
330
B7
100
AcDbEntity
  8
34_Gruppe
  6
Continuous
 62
     7
100
AcDbText
 10
33.25164199587889
 20
41.34734781664292
 30
0.0
 40
3.177854776382446
  1
(*2) Wärmedämmung entsprechend druckfest,
 41
0.9804659138007177
  7
Style0
100
AcDbText
  0
TEXT
  5
22A
330
B7
100
AcDbEntity
  8
34_Gruppe
  6
Continuous
 62
     7
100
AcDbText
 10
33.25164199587889
 20
35.88679418342497
 30
0.0
 40
3.177854776382446
  1
2-lagig lt. ÖNORM B 3691
 41
0.9804659138007177
  7
Style0
100
AcDbText
  0
TEXT
  5
22B
330
B7
100
AcDbEntity
  8
34_Gruppe
  6
Continuous
 62
     7
100
AcDbText
 10
33.25164199587889
 20
30.69087085273631
 30
0.0
 40
3.177854776382446
  1
(*3) Ohne vorhandene bauphysikalische
 41
0.9804659138007177
  7
Style0
100
AcDbText
  0
TEXT
  5
22C
330
B7
100
AcDbEntity
  8
34_Gruppe
  6
Continuous
 62
     7
100
AcDbText
 10
33.25164199587889
 20
25.23031721951838
 30
0.0
 40
3.177854776382446
  1
Berechnung, Dampfsperre >1000m sd-Wert
 41
0.9804659138007177
  7
Style0
100
AcDbText
  0
TEXT
  5
22D
330
B7
100
AcDbEntity
  8
34_Gruppe
  6
Continuous
 62
     7
100
AcDbText
 10
33.25164199587889
 20
19.76976358630043
 30
0.0
 40
3.177854776382446
  1
lt. ÖNORM B 3691 erforderlich
 41
0.9804659138007177
  7
Style0
100
AcDbText
  0
TEXT
  5
22E
330
B7
100
AcDbEntity
  8
34_Gruppe
  6
Continuous
 62
     7
100
AcDbText
 10
33.25164199587889
 20
46.87403652082565
 30
0.0
 40
3.177854776382446
  1
(*1) Schutzlage lt. ÖNORM B 3691 erforderlich
 41
0.9804659138007177
  7
Style0
100
AcDbText
  0
TEXT
  5
22F
330
B7
100
AcDbEntity
  8
Folie _ 3
  6
Continuous
 62
     7
100
AcDbText
 10
159.0
 20
41.4571847116116
 30
0.0
 40
3.177854776382446
  1
Warmdach mit Schneefangrohrstütze-
 41
1.021345735900753
  7
Style0
100
AcDbText
  0
POLYLINE
  5
230
330
B7
100
AcDbEntity
  8
Folie _ 3
  6
Continuous
 62
     7
370
    50
100
AcDb2dPolyline
 66
     1
 10
0.0
 20
0.0
 30
0.0
  0
VERTEX
  5
231
330
230
100
AcDbEntity
  8
Folie _ 3
  6
Continuous
 62
     7
370
    50
100
AcDbVertex
100
AcDb2dVertex
 10
0.0
 20
210.0
 30
0.0
  0
VERTEX
  5
232
330
230
100
AcDbEntity
  8
Folie _ 3
  6
Continuous
 62
     7
370
    50
100
AcDbVertex
100
AcDb2dVertex
 10
0.0
 20
-0.0000000000001137
 30
0.0
  0
SEQEND
  5
233
330
230
100
AcDbEntity
  8
Folie _ 3
  6
Continuous
 62
     7
370
    50
  0
POLYLINE
  5
234
330
B7
100
AcDbEntity
  8
Folie _ 3
  6
Continuous
 62
     7
370
    50
100
AcDb2dPolyline
 66
     1
 10
0.0
 20
0.0
 30
0.0
  0
VERTEX
  5
235
330
234
100
AcDbEntity
  8
Folie _ 3
  6
Continuous
 62
     7
370
    50
100
AcDbVertex
100
AcDb2dVertex
 10
0.0
 20
-0.0000000000001137
 30
0.0
  0
VERTEX
  5
236
330
234
100
AcDbEntity
  8
Folie _ 3
  6
Continuous
 62
     7
370
    50
100
AcDbVertex
100
AcDb2dVertex
 10
297.0
 20
-0.0000000000001137
 30
0.0
  0
SEQEND
  5
237
330
234
100
AcDbEntity
  8
Folie _ 3
  6
Continuous
 62
     7
370
    50
  0
POLYLINE
  5
238
330
B7
100
AcDbEntity
  8
Folie _ 3
  6
Continuous
 62
     7
370
    50
100
AcDb2dPolyline
 66
     1
 10
0.0
 20
0.0
 30
0.0
  0
VERTEX
  5
239
330
238
100
AcDbEntity
  8
Folie _ 3
  6
Continuous
 62
     7
370
    50
100
AcDbVertex
100
AcDb2dVertex
 10
297.0
 20
-0.0000000000001137
 30
0.0
  0
VERTEX
  5
23A
330
238
100
AcDbEntity
  8
Folie _ 3
  6
Continuous
 62
     7
370
    50
100
AcDbVertex
100
AcDb2dVertex
 10
297.0
 20
210.0
 30
0.0
  0
SEQEND
  5
23B
330
238
100
AcDbEntity
  8
Folie _ 3
  6
Continuous
 62
     7
370
    50
  0
POLYLINE
  5
23C
330
B7
100
AcDbEntity
  8
Folie _ 3
  6
Continuous
 62
     7
370
    50
100
AcDb2dPolyline
 66
     1
 10
0.0
 20
0.0
 30
0.0
  0
VERTEX
  5
23D
330
23C
100
AcDbEntity
  8
Folie _ 3
  6
Continuous
 62
     7
370
    50
100
AcDbVertex
100
AcDb2dVertex
 10
297.0
 20
210.0
 30
0.0
  0
VERTEX
  5
23E
330
23C
100
AcDbEntity
  8
Folie _ 3
  6
Continuous
 62
     7
370
    50
100
AcDbVertex
100
AcDb2dVertex
 10
0.0
 20
210.0
 30
0.0
  0
SEQEND
  5
23F
330
23C
100
AcDbEntity
  8
Folie _ 3
  6
Continuous
 62
     7
370
    50
  0
POLYLINE
  5
240
330
B7
100
AcDbEntity
  8
Folie _ 3
  6
Continuous
 62
     7
370
    50
100
AcDb2dPolyline
 66
     1
 10
0.0
 20
0.0
 30
0.0
 70
     1
  0
VERTEX
  5
241
330
240
100
AcDbEntity
  8
Folie _ 3
  6
Continuous
 62
     7
370
    50
100
AcDbVertex
100
AcDb2dVertex
 10
25.0
 20
205.0
 30
0.0
  0
VERTEX
  5
242
330
240
100
AcDbEntity
  8
Folie _ 3
  6
Continuous
 62
     7
370
    50
100
AcDbVertex
100
AcDb2dVertex
 10
292.0
 20
205.0
 30
0.0
  0
VERTEX
  5
243
330
240
100
AcDbEntity
  8
Folie _ 3
  6
Continuous
 62
     7
370
    50
100
AcDbVertex
100
AcDb2dVertex
 10
292.0
 20
4.999999999999886
 30
0.0
  0
VERTEX
  5
244
330
240
100
AcDbEntity
  8
Folie _ 3
  6
Continuous
 62
     7
370
    50
100
AcDbVertex
100
AcDb2dVertex
 10
25.0
 20
4.999999999999886
 30
0.0
  0
SEQEND
  5
245
330
240
100
AcDbEntity
  8
Folie _ 3
  6
Continuous
 62
     7
370
    50
  0
POLYLINE
  5
246
330
B7
100
AcDbEntity
  8
Folie _ 3
  6
Continuous
 62
     7
370
    50
100
AcDb2dPolyline
 66
     1
 10
0.0
 20
0.0
 30
0.0
  0
VERTEX
  5
247
330
246
100
AcDbEntity
  8
Folie _ 3
  6
Continuous
 62
     7
370
    50
100
AcDbVertex
100
AcDb2dVertex
 10
157.0
 20
4.999999999999886
 30
0.0
  0
VERTEX
  5
248
330
246
100
AcDbEntity
  8
Folie _ 3
  6
Continuous
 62
     7
370
    50
100
AcDbVertex
100
AcDb2dVertex
 10
157.0
 20
49.99999999999989
 30
0.0
  0
VERTEX
  5
249
330
246
100
AcDbEntity
  8
Folie _ 3
  6
Continuous
 62
     7
370
    50
100
AcDbVertex
100
AcDb2dVertex
 10
292.0
 20
49.99999999999989
 30
0.0
  0
SEQEND
  5
24A
330
246
100
AcDbEntity
  8
Folie _ 3
  6
Continuous
 62
     7
370
    50
  0
LINE
  5
24B
330
B7
100
AcDbEntity
  8
Folie _ 3
  6
Continuous
 62
     7
100
AcDbLine
 10
157.0
 20
14.99999999999989
 30
0.0
 11
292.0
 21
14.99999999999989
 31
0.0
  0
LINE
  5
24C
330
B7
100
AcDbEntity
  8
Folie _ 3
  6
Continuous
 62
     7
100
AcDbLine
 10
157.0
 20
34.99999999999989
 30
0.0
 11
292.0
 21
34.99999999999989
 31
0.0
  0
LINE
  5
24D
330
B7
100
AcDbEntity
  8
Folie _ 3
  6
Continuous
 62
     7
100
AcDbLine
 10
184.0
 20
14.99999999999989
 30
0.0
 11
184.0
 21
4.999999999999886
 31
0.0
  0
LINE
  5
24E
330
B7
100
AcDbEntity
  8
Folie _ 3
  6
Continuous
 62
     7
100
AcDbLine
 10
211.0
 20
14.99999999999989
 30
0.0
 11
211.0
 21
4.999999999999886
 31
0.0
  0
LINE
  5
24F
330
B7
100
AcDbEntity
  8
Folie _ 3
  6
Continuous
 62
     7
100
AcDbLine
 10
238.0
 20
14.99999999999989
 30
0.0
 11
238.0
 21
4.999999999999886
 31
0.0
  0
LINE
  5
250
330
B7
100
AcDbEntity
  8
Folie _ 3
  6
Continuous
 62
     7
100
AcDbLine
 10
265.0
 20
14.99999999999989
 30
0.0
 11
265.0
 21
4.999999999999886
 31
0.0
  0
TEXT
  5
251
330
B7
100
AcDbEntity
  8
Folie _ 3
  6
Continuous
 62
     7
100
AcDbText
 10
159.0
 20
46.99999999999989
 30
0.0
 40
2.269896030426025
  1
PLANINHALT:
 41
0.9569915226000473
  7
Style0
100
AcDbText
  0
TEXT
  5
252
330
B7
100
AcDbEntity
  8
Folie _ 3
  6
Continuous
 62
     7
100
AcDbText
 10
159.0
 20
11.99999999999989
 30
0.0
 40
2.269896030426025
  1
MASSSTAB:
 41
1.016258694886636
  7
Style0
100
AcDbText
  0
TEXT
  5
253
330
B7
100
AcDbEntity
  8
Folie _ 3
  6
Continuous
 62
     7
100
AcDbText
 10
186.0
 20
11.99999999999989
 30
0.0
 40
2.269896030426025
  1
ERSTELLT:
 41
1.016258694886636
  7
Style0
100
AcDbText
  0
TEXT
  5
254
330
B7
100
AcDbEntity
  8
Folie _ 3
  6
Continuous
 62
     7
100
AcDbText
 10
213.0
 20
11.99999999999989
 30
0.0
 40
2.269896030426025
  1
BLATT NR.:
 41
1.016258694886636
  7
Style0
100
AcDbText
  0
TEXT
  5
255
330
B7
100
AcDbEntity
  8
Folie _ 3
  6
Continuous
 62
     7
100
AcDbText
 10
240.0
 20
11.99999999999989
 30
0.0
 40
2.269896030426025
  1
DETAIL NR.:
 41
1.016258694886636
  7
Style0
100
AcDbText
  0
TEXT
  5
256
330
B7
100
AcDbEntity
  8
Folie _ 3
  6
Continuous
 62
     7
100
AcDbText
 10
267.0
 20
11.99999999999989
 30
0.0
 40
2.269896030426025
  1
GEZEICHNET:
 41
1.016258694886636
  7
Style0
100
AcDbText
  0
TEXT
  5
257
330
B7
100
AcDbEntity
  8
Folie _ 3
  6
Continuous
 62
     7
100
AcDbText
 10
159.1274604630973
 20
32.40944652925617
 30
0.0
 40
0.9079585075378418
  1
Die oben dargestellte Detailzeichnung bezieht sich auf eine Regelkonstruktion, d.h. sie ist zu überprüfen,
 41
0.9399217426440335
  7
Style0
100
AcDbText
  0
TEXT
  5
258
330
B7
100
AcDbEntity
  8
Folie _ 3
  6
Continuous
 62
     7
100
AcDbText
 10
159.1274604630973
 20
30.49214549119395
 30
0.0
 40
0.9079585075378418
  1
objektgebunden anzupassen, abzustimmen und gegebenfalls zu ergänzen.
 41
0.9399217426440335
  7
Style0
100
AcDbText
  0
TEXT
  5
259
330
B7
100
AcDbEntity
  8
Folie _ 3
  6
Continuous
 62
     7
100
AcDbText
 10
159.1274604630973
 20
28.57484445313173
 30
0.0
 40
0.9079585075378418
  1
Die empfohlenen Anwendungsbereiche sind auf Grund der Erfahrungen und Normen ausgearbeitet.
 41
0.9399217426440335
  7
Style0
100
AcDbText
  0
TEXT
  5
25A
330
B7
100
AcDbEntity
  8
Folie _ 3
  6
Continuous
 62
     7
100
AcDbText
 10
159.1274604630973
 20
26.65754341506934
 30
0.0
 40
0.9079585075378418
  1
Eine Verbindlichkeit kann hieraus nicht abgeleitet werden. Technische Änderungen sind vorbehalten.
 41
0.9399217426440335
  7
Style0
100
AcDbText
  0
TEXT
  5
25B
330
B7
100
AcDbEntity
  8
Folie _ 3
  6
Continuous
 62
     7
100
AcDbText
 10
159.1274604630973
 20
24.74024237700695
 30
0.0
 40
0.9079585075378418
  1
Die vorliegende Detailzeichnung verliert bei Erscheinen einer Neuausgabe ihre Gültigkeit.
 41
0.9399217426440335
  7
Style0
100
AcDbText
  0
TEXT
  5
25C
330
B7
100
AcDbEntity
  8
Folie _ 3
  6
Continuous
 62
     7
100
AcDbText
 10
159.1274604630973
 20
22.82294133894493
 30
0.0
 40
0.9079585075378418
  1
Jede Haftung von COVERiT bei leichter Fahrlässigkeit sowie für Beratung ohne nachfolgende Warenlieferung
 41
0.9399217426440335
  7
Style0
100
AcDbText
  0
TEXT
  5
25D
330
B7
100
AcDbEntity
  8
Folie _ 3
  6
Continuous
 62
     7
100
AcDbText
 10
159.1274604630973
 20
20.90564030088251
 30
0.0
 40
0.9079585075378418
  1
von COVERiT und gegenüber Dritten (andere als COVERiT-Vertragspartner) ist ausgeschlossen.
 41
0.9399217426440335
  7
Style0
100
AcDbText
  0
TEXT
  5
25E
330
B7
100
AcDbEntity
  8
Folie _ 3
  6
Continuous
 62
     7
100
AcDbText
 10
159.1274604630973
 20
18.98833926282012
 30
0.0
 40
0.9079585075378418
  1
Verkauf und Lieferung von COVERiT erfolgt ausschließlich zu den allgemeinen Liefer-, Zahlungs- und Gewährleistungsbedingungen von COVERiT.
 41
0.9399217426440335
  7
Style0
100
AcDbText
  0
TEXT
  5
25F
330
B7
100
AcDbEntity
  8
Folie _ 3
  6
Continuous
 62
     7
100
AcDbText
 10
159.1274604630973
 20
17.0710382247579
 30
0.0
 40
0.9079585075378418
  1
Es gilt österreichisches Recht (ohne UN Kaufrecht). Gerichtsstand ist Wels.
 41
0.9399217426440335
  7
Style0
100
AcDbText
  0
TEXT
  5
260
330
B7
100
AcDbEntity
  8
Folie _ 3
  6
Continuous
 62
     7
100
AcDbText
 10
159.0
 20
6.000000000000085
 30
0.0
 40
3.177854776382446
  1
1:1
 41
0.647972360387026
  7
Style1
100
AcDbText
  0
TEXT
  5
261
330
B7
100
AcDbEntity
  8
Folie _ 3
  6
Continuous
 62
     7
100
AcDbText
 10
186.0
 20
6.000000000000085
 30
0.0
 40
3.177854776382446
  1
07/15
 41
0.647972360387026
  7
Style1
100
AcDbText
  0
TEXT
  5
262
330
B7
100
AcDbEntity
  8
Folie _ 3
  6
Continuous
 62
     7
100
AcDbText
 10
213.0
 20
6.000000000000085
 30
0.0
 40
3.177854776382446
  1
16
 41
0.647972360387026
  7
Style1
100
AcDbText
  0
TEXT
  5
263
330
B7
100
AcDbEntity
  8
Folie _ 3
  6
Continuous
 62
     7
100
AcDbText
 10
240.0
 20
6.000000000000085
 30
0.0
 40
3.177854776382446
  1
16
 41
0.647972360387026
  7
Style1
100
AcDbText
  0
TEXT
  5
264
330
B7
100
AcDbEntity
  8
Folie _ 3
  6
Continuous
 62
     7
100
AcDbText
 10
267.0
 20
6.000000000000085
 30
0.0
 40
3.177854776382446
  1
TR/AP
 41
1.081452562675454
  7
Style0
100
AcDbText
  0
LINE
  5
265
330
B7
100
AcDbEntity
  8
Folie _ 3
  6
Continuous
 62
     7
100
AcDbLine
 10
244.4801761815237
 20
34.99999999999989
 30
0.0
 11
244.4801761815237
 21
14.99999999999989
 31
0.0
  0
LINE
  5
266
330
B7
100
AcDbEntity
  8
STANDARD
  6
Continuous
 62
     7
370
    20
100
AcDbLine
 10
109.7227023860034
 20
136.4112729181022
 30
0.0
 11
115.7000746089443
 21
136.9318234241774
 31
0.0
  0
LINE
  5
267
330
B7
100
AcDbEntity
  8
STANDARD
  6
Continuous
 62
     7
370
    20
100
AcDbLine
 10
155.7725718227415
 20
128.3983875127855
 30
0.0
 11
155.7725718227415
 21
72.26510491327818
 31
0.0
  0
LINE
  5
268
330
B7
100
AcDbEntity
  8
STANDARD
  6
Continuous
 62
     7
370
    40
100
AcDbLine
 10
115.6996324742464
 20
136.9369003641317
 30
0.0
 11
102.9670769079379
 21
135.822946789111
 31
0.0
  0
LINE
  5
269
330
B7
100
AcDbEntity
  8
STANDARD
  6
Continuous
 62
     7
370
    20
100
AcDbLine
 10
126.5592002043912
 20
129.3559188455853
 30
0.0
 11
116.4402197096517
 21
128.4706230253639
 31
0.0
  0
LINE
  5
26A
330
B7
100
AcDbEntity
  8
STANDARD
  6
Continuous
 62
     7
370
    40
100
AcDbLine
 10
126.5592002043912
 20
129.3559188455853
 30
0.0
 11
141.5021218502066
 21
130.6632415628283
 31
0.0
  0
LINE
  5
26B
330
B7
100
AcDbEntity
  8
STANDARD
  6
Continuous
 62
     7
370
    40
100
AcDbLine
 10
172.2725718227415
 20
113.7808326728787
 30
0.0
 11
172.2725718227415
 21
129.8419500378095
 31
0.0
  0
LINE
  5
26C
330
B7
100
AcDbEntity
  8
STANDARD
 62
     7
100
AcDbLine
 10
109.6429972139604
 20
135.6012438535275
 30
0.0
 11
109.9418556415232
 21
135.6273903690624
 31
0.0
  0
LINE
  5
26D
330
B7
100
AcDbEntity
  8
STANDARD
 62
     7
100
AcDbLine
 10
109.6429972139604
 20
135.6012438535275
 30
0.0
 11
109.3827497260041
 21
136.2811491741514
 31
0.0
  0
LINE
  5
26E
330
B7
100
AcDbEntity
  8
STANDARD
 62
     7
100
AcDbLine
 10
109.9418556415232
 20
135.6273903690624
 30
0.0
 11
110.0800860569845
 21
136.342157710399
 31
0.0
  0
LINE
  5
26F
330
B7
100
AcDbEntity
  8
STANDARD
 62
     7
100
AcDbLine
 10
109.3827497260041
 20
136.2811491741514
 30
0.0
 11
109.3740342208261
 21
136.3807686500057
 31
0.0
  0
LINE
  5
270
330
B7
100
AcDbEntity
  8
STANDARD
 62
     7
100
AcDbLine
 10
110.0800860569845
 20
136.342157710399
 30
0.0
 11
110.0713705518063
 21
136.4417771862533
 31
0.0
  0
LINE
  5
271
330
B7
100
AcDbEntity
  8
STANDARD
 62
     7
100
AcDbLine
 10
109.3740342208261
 20
136.3807686500057
 30
0.0
 11
110.0713705518063
 21
136.4417771862533
 31
0.0
  0
LINE
  5
272
330
B7
100
AcDbEntity
  8
STANDARD
 62
     7
100
AcDbLine
 10
109.3827497260041
 20
136.2811491741514
 30
0.0
 11
110.0800860569845
 21
136.342157710399
 31
0.0
  0
LINE
  5
273
330
B7
100
AcDbEntity
  8
STANDARD
 62
     7
100
AcDbLine
 10
109.9016650541726
 20
132.6446332916134
 30
0.0
 11
109.6429972139602
 21
135.6012438535277
 31
0.0
  0
LINE
  5
274
330
B7
100
AcDbEntity
  8
STANDARD
 62
     7
100
AcDbLine
 10
110.2005234817352
 20
132.6707798071479
 30
0.0
 11
109.9418556415232
 21
135.6273903690624
 31
0.0
  0
LINE
  5
275
330
B7
100
AcDbEntity
  8
STANDARD
 62
     7
100
AcDbLine
 10
109.9016650541726
 20
132.6446332916133
 30
0.0
 11
110.2005234817358
 21
132.6707798071478
 31
0.0
  0
POLYLINE
  5
276
330
B7
100
AcDbEntity
  8
34_Gruppe
  6
Continuous
 62
     7
370
    20
100
AcDb2dPolyline
 66
     1
 10
0.0
 20
0.0
 30
0.0
  0
VERTEX
  5
277
330
276
100
AcDbEntity
  8
34_Gruppe
  6
Continuous
 62
     7
370
    20
100
AcDbVertex
100
AcDb2dVertex
 10
212.2030014065786
 20
135.3449833762182
 30
0.0
  0
VERTEX
  5
278
330
276
100
AcDbEntity
  8
34_Gruppe
  6
Continuous
 62
     7
370
    20
100
AcDbVertex
100
AcDb2dVertex
 10
214.2306624088147
 20
135.4283119105565
 30
0.0
  0
VERTEX
  5
279
330
276
100
AcDbEntity
  8
34_Gruppe
  6
Continuous
 62
     7
370
    20
100
AcDbVertex
100
AcDb2dVertex
 10
219.2754526020903
 20
136.0518253052351
 30
0.0
  0
VERTEX
  5
27A
330
276
100
AcDbEntity
  8
34_Gruppe
  6
Continuous
 62
     7
370
    20
100
AcDbVertex
100
AcDb2dVertex
 10
223.9234615442519
 20
135.5983610181958
 30
0.0
  0
VERTEX
  5
27B
330
276
100
AcDbEntity
  8
34_Gruppe
  6
Continuous
 62
     7
370
    20
100
AcDbVertex
100
AcDb2dVertex
 10
225.629436989265
 20
135.5655537980994
 30
0.0
  0
SEQEND
  5
27C
330
276
100
AcDbEntity
  8
34_Gruppe
  6
Continuous
 62
     7
370
    20
  0
POLYLINE
  5
27D
330
B7
100
AcDbEntity
  8
34_Gruppe
  6
Continuous
 62
     7
370
    20
100
AcDb2dPolyline
 66
     1
 10
0.0
 20
0.0
 30
0.0
  0
VERTEX
  5
27E
330
27D
100
AcDbEntity
  8
34_Gruppe
  6
Continuous
 62
     7
370
    20
100
AcDbVertex
100
AcDb2dVertex
 10
212.3213046985146
 20
134.5658333252642
 30
0.0
  0
VERTEX
  5
27F
330
27D
100
AcDbEntity
  8
34_Gruppe
  6
Continuous
 62
     7
370
    20
100
AcDbVertex
100
AcDb2dVertex
 10
214.3489657007507
 20
134.6491618596025
 30
0.0
  0
VERTEX
  5
280
330
27D
100
AcDbEntity
  8
34_Gruppe
  6
Continuous
 62
     7
370
    20
100
AcDbVertex
100
AcDb2dVertex
 10
219.3937558940263
 20
135.2726752542811
 30
0.0
  0
VERTEX
  5
281
330
27D
100
AcDbEntity
  8
34_Gruppe
  6
Continuous
 62
     7
370
    20
100
AcDbVertex
100
AcDb2dVertex
 10
224.041764836188
 20
134.8192109672418
 30
0.0
  0
VERTEX
  5
282
330
27D
100
AcDbEntity
  8
34_Gruppe
  6
Continuous
 62
     7
370
    20
100
AcDbVertex
100
AcDb2dVertex
 10
225.747740281201
 20
134.7864037471454
 30
0.0
  0
SEQEND
  5
283
330
27D
100
AcDbEntity
  8
34_Gruppe
  6
Continuous
 62
     7
370
    20
  0
POLYLINE
  5
284
330
B7
100
AcDbEntity
  8
34_Gruppe
  6
Continuous
 62
     7
370
    20
100
AcDb2dPolyline
 66
     1
 10
0.0
 20
0.0
 30
0.0
  0
VERTEX
  5
285
330
284
100
AcDbEntity
  8
34_Gruppe
  6
Continuous
 62
     7
370
    20
100
AcDbVertex
100
AcDb2dVertex
 10
213.1191352080014
 20
133.9732179271348
 30
0.0
  0
VERTEX
  5
286
330
284
100
AcDbEntity
  8
34_Gruppe
  6
Continuous
 62
     7
370
    20
100
AcDbVertex
100
AcDb2dVertex
 10
217.5960832031515
 20
134.1755652969885
 30
0.0
  0
VERTEX
  5
287
330
284
100
AcDbEntity
  8
34_Gruppe
  6
Continuous
 62
     7
370
    20
100
AcDbVertex
100
AcDb2dVertex
 10
218.2227484915138
 20
134.2875931230945
 30
0.0
  0
SEQEND
  5
288
330
284
100
AcDbEntity
  8
34_Gruppe
  6
Continuous
 62
     7
370
    20
  0
POLYLINE
  5
289
330
B7
100
AcDbEntity
  8
34_Gruppe
  6
Continuous
 62
     7
370
    20
100
AcDb2dPolyline
 66
     1
 10
0.0
 20
0.0
 30
0.0
  0
VERTEX
  5
28A
330
289
100
AcDbEntity
  8
34_Gruppe
  6
Continuous
 62
     7
370
    20
100
AcDbVertex
100
AcDb2dVertex
 10
224.2915253327288
 20
136.6121760453851
 30
0.0
  0
VERTEX
  5
28B
330
289
100
AcDbEntity
  8
34_Gruppe
  6
Continuous
 62
     7
370
    20
100
AcDbVertex
100
AcDb2dVertex
 10
226.319186334965
 20
136.6955045797233
 30
0.0
  0
VERTEX
  5
28C
330
289
100
AcDbEntity
  8
34_Gruppe
  6
Continuous
 62
     7
370
    20
100
AcDbVertex
100
AcDb2dVertex
 10
231.3639765282405
 20
137.3190179744018
 30
0.0
  0
VERTEX
  5
28D
330
289
100
AcDbEntity
  8
34_Gruppe
  6
Continuous
 62
     7
370
    20
100
AcDbVertex
100
AcDb2dVertex
 10
236.0119854704022
 20
136.8655536873626
 30
0.0
  0
VERTEX
  5
28E
330
289
100
AcDbEntity
  8
34_Gruppe
  6
Continuous
 62
     7
370
    20
100
AcDbVertex
100
AcDb2dVertex
 10
237.7179609154153
 20
136.8327464672662
 30
0.0
  0
SEQEND
  5
28F
330
289
100
AcDbEntity
  8
34_Gruppe
  6
Continuous
 62
     7
370
    20
  0
POLYLINE
  5
290
330
B7
100
AcDbEntity
  8
34_Gruppe
  6
Continuous
 62
     7
370
    20
100
AcDb2dPolyline
 66
     1
 10
0.0
 20
0.0
 30
0.0
  0
VERTEX
  5
291
330
290
100
AcDbEntity
  8
34_Gruppe
  6
Continuous
 62
     7
370
    20
100
AcDbVertex
100
AcDb2dVertex
 10
224.4098286246648
 20
135.8330259944308
 30
0.0
  0
VERTEX
  5
292
330
290
100
AcDbEntity
  8
34_Gruppe
  6
Continuous
 62
     7
370
    20
100
AcDbVertex
100
AcDb2dVertex
 10
226.437489626901
 20
135.9163545287691
 30
0.0
  0
VERTEX
  5
293
330
290
100
AcDbEntity
  8
34_Gruppe
  6
Continuous
 62
     7
370
    20
100
AcDbVertex
100
AcDb2dVertex
 10
231.4822798201765
 20
136.5398679234477
 30
0.0
  0
VERTEX
  5
294
330
290
100
AcDbEntity
  8
34_Gruppe
  6
Continuous
 62
     7
370
    20
100
AcDbVertex
100
AcDb2dVertex
 10
236.1302887623382
 20
136.0864036364084
 30
0.0
  0
VERTEX
  5
295
330
290
100
AcDbEntity
  8
34_Gruppe
  6
Continuous
 62
     7
370
    20
100
AcDbVertex
100
AcDb2dVertex
 10
237.8362642073513
 20
136.0535964163122
 30
0.0
  0
SEQEND
  5
296
330
290
100
AcDbEntity
  8
34_Gruppe
  6
Continuous
 62
     7
370
    20
  0
POLYLINE
  5
297
330
B7
100
AcDbEntity
  8
34_Gruppe
  6
Continuous
 62
     7
370
    20
100
AcDb2dPolyline
 66
     1
 10
0.0
 20
0.0
 30
0.0
  0
VERTEX
  5
298
330
297
100
AcDbEntity
  8
34_Gruppe
  6
Continuous
 62
     7
370
    20
100
AcDbVertex
100
AcDb2dVertex
 10
225.2076591341516
 20
135.2404105963016
 30
0.0
  0
VERTEX
  5
299
330
297
100
AcDbEntity
  8
34_Gruppe
  6
Continuous
 62
     7
370
    20
100
AcDbVertex
100
AcDb2dVertex
 10
229.6846071293018
 20
135.4427579661553
 30
0.0
  0
VERTEX
  5
29A
330
297
100
AcDbEntity
  8
34_Gruppe
  6
Continuous
 62
     7
370
    20
100
AcDbVertex
100
AcDb2dVertex
 10
230.3112724176641
 20
135.5547857922613
 30
0.0
  0
SEQEND
  5
29B
330
297
100
AcDbEntity
  8
34_Gruppe
  6
Continuous
 62
     7
370
    20
  0
POLYLINE
  5
29C
330
B7
100
AcDbEntity
  8
34_Gruppe
  6
Continuous
 62
     7
370
    20
100
AcDb2dPolyline
 66
     1
 10
0.0
 20
0.0
 30
0.0
  0
VERTEX
  5
29D
330
29C
100
AcDbEntity
  8
34_Gruppe
  6
Continuous
 62
     7
370
    20
100
AcDbVertex
100
AcDb2dVertex
 10
230.5604224905998
 20
135.5684262782823
 30
0.0
  0
VERTEX
  5
29E
330
29C
100
AcDbEntity
  8
34_Gruppe
  6
Continuous
 62
     7
370
    20
100
AcDbVertex
100
AcDb2dVertex
 10
235.0373704857499
 20
135.770773648136
 30
0.0
  0
VERTEX
  5
29F
330
29C
100
AcDbEntity
  8
34_Gruppe
  6
Continuous
 62
     7
370
    20
100
AcDbVertex
100
AcDb2dVertex
 10
235.6640357741122
 20
135.8828014742419
 30
0.0
  0
SEQEND
  5
2A0
330
29C
100
AcDbEntity
  8
34_Gruppe
  6
Continuous
 62
     7
370
    20
  0
POLYLINE
  5
2A1
330
B7
100
AcDbEntity
  8
34_Gruppe
  6
Continuous
 62
     7
370
    20
100
AcDb2dPolyline
 66
     1
 10
0.0
 20
0.0
 30
0.0
  0
VERTEX
  5
2A2
330
2A1
100
AcDbEntity
  8
34_Gruppe
  6
Continuous
 62
     7
370
    20
100
AcDbVertex
100
AcDb2dVertex
 10
147.1288944395743
 20
128.8876383518274
 30
0.0
  0
VERTEX
  5
2A3
330
2A1
100
AcDbEntity
  8
34_Gruppe
  6
Continuous
 62
     7
370
    20
100
AcDbVertex
100
AcDb2dVertex
 10
149.1565554418105
 20
128.9709668861657
 30
0.0
  0
VERTEX
  5
2A4
330
2A1
100
AcDbEntity
  8
34_Gruppe
  6
Continuous
 62
     7
370
    20
100
AcDbVertex
100
AcDb2dVertex
 10
154.201345635086
 20
129.5944802808443
 30
0.0
  0
VERTEX
  5
2A5
330
2A1
100
AcDbEntity
  8
34_Gruppe
  6
Continuous
 62
     7
370
    20
100
AcDbVertex
100
AcDb2dVertex
 10
158.8493545772477
 20
129.141015993805
 30
0.0
  0
VERTEX
  5
2A6
330
2A1
100
AcDbEntity
  8
34_Gruppe
  6
Continuous
 62
     7
370
    20
100
AcDbVertex
100
AcDb2dVertex
 10
160.5553300222608
 20
129.1082087737086
 30
0.0
  0
SEQEND
  5
2A7
330
2A1
100
AcDbEntity
  8
34_Gruppe
  6
Continuous
 62
     7
370
    20
  0
POLYLINE
  5
2A8
330
B7
100
AcDbEntity
  8
34_Gruppe
  6
Continuous
 62
     7
370
    20
100
AcDb2dPolyline
 66
     1
 10
0.0
 20
0.0
 30
0.0
  0
VERTEX
  5
2A9
330
2A8
100
AcDbEntity
  8
34_Gruppe
  6
Continuous
 62
     7
370
    20
100
AcDbVertex
100
AcDb2dVertex
 10
150.1401747859171
 20
129.7757294936488
 30
0.0
  0
VERTEX
  5
2AA
330
2A8
100
AcDbEntity
  8
34_Gruppe
  6
Continuous
 62
     7
370
    20
100
AcDbVertex
100
AcDb2dVertex
 10
154.6171227810672
 20
129.9780768635024
 30
0.0
  0
VERTEX
  5
2AB
330
2A8
100
AcDbEntity
  8
34_Gruppe
  6
Continuous
 62
     7
370
    20
100
AcDbVertex
100
AcDb2dVertex
 10
155.2437880694295
 20
130.0901046896084
 30
0.0
  0
SEQEND
  5
2AC
330
2A8
100
AcDbEntity
  8
34_Gruppe
  6
Continuous
 62
     7
370
    20
  0
POLYLINE
  5
2AD
330
B7
100
AcDbEntity
  8
34_Gruppe
  6
Continuous
 62
     7
370
    20
100
AcDb2dPolyline
 66
     1
 10
0.0
 20
0.0
 30
0.0
  0
VERTEX
  5
2AE
330
2AD
100
AcDbEntity
  8
34_Gruppe
  6
Continuous
 62
     7
370
    20
100
AcDbVertex
100
AcDb2dVertex
 10
151.133276906907
 20
128.6876660545697
 30
0.0
  0
VERTEX
  5
2AF
330
2AD
100
AcDbEntity
  8
34_Gruppe
  6
Continuous
 62
     7
370
    20
100
AcDbVertex
100
AcDb2dVertex
 10
155.6102249020571
 20
128.8900134244233
 30
0.0
  0
VERTEX
  5
2B0
330
2AD
100
AcDbEntity
  8
34_Gruppe
  6
Continuous
 62
     7
370
    20
100
AcDbVertex
100
AcDb2dVertex
 10
156.2368901904194
 20
129.0020412505293
 30
0.0
  0
SEQEND
  5
2B1
330
2AD
100
AcDbEntity
  8
34_Gruppe
  6
Continuous
 62
     7
370
    20
  0
POLYLINE
  5
2B2
330
B7
100
AcDbEntity
  8
34_Gruppe
  6
Continuous
 62
     7
370
    20
100
AcDb2dPolyline
 66
     1
 10
0.0
 20
0.0
 30
0.0
  0
VERTEX
  5
2B3
330
2B2
100
AcDbEntity
  8
34_Gruppe
  6
Continuous
 62
     7
370
    20
100
AcDbVertex
100
AcDb2dVertex
 10
105.0526067618754
 20
125.9705413004229
 30
0.0
  0
VERTEX
  5
2B4
330
2B2
100
AcDbEntity
  8
34_Gruppe
  6
Continuous
 62
     7
370
    20
100
AcDbVertex
100
AcDb2dVertex
 10
107.0802677641115
 20
126.0538698347611
 30
0.0
  0
VERTEX
  5
2B5
330
2B2
100
AcDbEntity
  8
34_Gruppe
  6
Continuous
 62
     7
370
    20
100
AcDbVertex
100
AcDb2dVertex
 10
112.1250579573871
 20
126.6773832294397
 30
0.0
  0
VERTEX
  5
2B6
330
2B2
100
AcDbEntity
  8
34_Gruppe
  6
Continuous
 62
     7
370
    20
100
AcDbVertex
100
AcDb2dVertex
 10
116.7730668995488
 20
126.2239189424004
 30
0.0
  0
VERTEX
  5
2B7
330
2B2
100
AcDbEntity
  8
34_Gruppe
  6
Continuous
 62
     7
370
    20
100
AcDbVertex
100
AcDb2dVertex
 10
118.4790423445618
 20
126.191111722304
 30
0.0
  0
SEQEND
  5
2B8
330
2B2
100
AcDbEntity
  8
34_Gruppe
  6
Continuous
 62
     7
370
    20
  0
POLYLINE
  5
2B9
330
B7
100
AcDbEntity
  8
34_Gruppe
  6
Continuous
 62
     7
370
    20
100
AcDb2dPolyline
 66
     1
 10
0.0
 20
0.0
 30
0.0
  0
VERTEX
  5
2BA
330
2B9
100
AcDbEntity
  8
34_Gruppe
  6
Continuous
 62
     7
370
    20
100
AcDbVertex
100
AcDb2dVertex
 10
105.1709100538114
 20
125.1913912494689
 30
0.0
  0
VERTEX
  5
2BB
330
2B9
100
AcDbEntity
  8
34_Gruppe
  6
Continuous
 62
     7
370
    20
100
AcDbVertex
100
AcDb2dVertex
 10
107.1985710560475
 20
125.2747197838071
 30
0.0
  0
VERTEX
  5
2BC
330
2B9
100
AcDbEntity
  8
34_Gruppe
  6
Continuous
 62
     7
370
    20
100
AcDbVertex
100
AcDb2dVertex
 10
112.2433612493231
 20
125.8982331784857
 30
0.0
  0
VERTEX
  5
2BD
330
2B9
100
AcDbEntity
  8
34_Gruppe
  6
Continuous
 62
     7
370
    20
100
AcDbVertex
100
AcDb2dVertex
 10
116.8913701914848
 20
125.4447688914464
 30
0.0
  0
VERTEX
  5
2BE
330
2B9
100
AcDbEntity
  8
34_Gruppe
  6
Continuous
 62
     7
370
    20
100
AcDbVertex
100
AcDb2dVertex
 10
118.5973456364978
 20
125.41196167135
 30
0.0
  0
SEQEND
  5
2BF
330
2B9
100
AcDbEntity
  8
34_Gruppe
  6
Continuous
 62
     7
370
    20
  0
POLYLINE
  5
2C0
330
B7
100
AcDbEntity
  8
34_Gruppe
  6
Continuous
 62
     7
370
    20
100
AcDb2dPolyline
 66
     1
 10
0.0
 20
0.0
 30
0.0
  0
VERTEX
  5
2C1
330
2C0
100
AcDbEntity
  8
34_Gruppe
  6
Continuous
 62
     7
370
    20
100
AcDbVertex
100
AcDb2dVertex
 10
105.9687405632982
 20
124.5987758513394
 30
0.0
  0
VERTEX
  5
2C2
330
2C0
100
AcDbEntity
  8
34_Gruppe
  6
Continuous
 62
     7
370
    20
100
AcDbVertex
100
AcDb2dVertex
 10
110.4456885584483
 20
124.8011232211931
 30
0.0
  0
VERTEX
  5
2C3
330
2C0
100
AcDbEntity
  8
34_Gruppe
  6
Continuous
 62
     7
370
    20
100
AcDbVertex
100
AcDb2dVertex
 10
111.0723538468106
 20
124.9131510472991
 30
0.0
  0
SEQEND
  5
2C4
330
2C0
100
AcDbEntity
  8
34_Gruppe
  6
Continuous
 62
     7
370
    20
  0
POLYLINE
  5
2C5
330
B7
100
AcDbEntity
  8
34_Gruppe
  6
Continuous
 62
     7
370
    20
100
AcDb2dPolyline
 66
     1
 10
0.0
 20
0.0
 30
0.0
  0
VERTEX
  5
2C6
330
2C5
100
AcDbEntity
  8
34_Gruppe
  6
Continuous
 62
     7
370
    20
100
AcDbVertex
100
AcDb2dVertex
 10
117.1411306880256
 20
127.2377339695897
 30
0.0
  0
VERTEX
  5
2C7
330
2C5
100
AcDbEntity
  8
34_Gruppe
  6
Continuous
 62
     7
370
    20
100
AcDbVertex
100
AcDb2dVertex
 10
119.1687916902618
 20
127.3210625039279
 30
0.0
  0
VERTEX
  5
2C8
330
2C5
100
AcDbEntity
  8
34_Gruppe
  6
Continuous
 62
     7
370
    20
100
AcDbVertex
100
AcDb2dVertex
 10
124.2135818835373
 20
127.9445758986065
 30
0.0
  0
VERTEX
  5
2C9
330
2C5
100
AcDbEntity
  8
34_Gruppe
  6
Continuous
 62
     7
370
    20
100
AcDbVertex
100
AcDb2dVertex
 10
128.861590825699
 20
127.4911116115672
 30
0.0
  0
VERTEX
  5
2CA
330
2C5
100
AcDbEntity
  8
34_Gruppe
  6
Continuous
 62
     7
370
    20
100
AcDbVertex
100
AcDb2dVertex
 10
130.5675662707121
 20
127.4583043914708
 30
0.0
  0
SEQEND
  5
2CB
330
2C5
100
AcDbEntity
  8
34_Gruppe
  6
Continuous
 62
     7
370
    20
  0
POLYLINE
  5
2CC
330
B7
100
AcDbEntity
  8
34_Gruppe
  6
Continuous
 62
     7
370
    20
100
AcDb2dPolyline
 66
     1
 10
0.0
 20
0.0
 30
0.0
  0
VERTEX
  5
2CD
330
2CC
100
AcDbEntity
  8
34_Gruppe
  6
Continuous
 62
     7
370
    20
100
AcDbVertex
100
AcDb2dVertex
 10
117.2594339799616
 20
126.4585839186355
 30
0.0
  0
VERTEX
  5
2CE
330
2CC
100
AcDbEntity
  8
34_Gruppe
  6
Continuous
 62
     7
370
    20
100
AcDbVertex
100
AcDb2dVertex
 10
119.2870949821978
 20
126.5419124529737
 30
0.0
  0
VERTEX
  5
2CF
330
2CC
100
AcDbEntity
  8
34_Gruppe
  6
Continuous
 62
     7
370
    20
100
AcDbVertex
100
AcDb2dVertex
 10
124.3318851754733
 20
127.1654258476523
 30
0.0
  0
VERTEX
  5
2D0
330
2CC
100
AcDbEntity
  8
34_Gruppe
  6
Continuous
 62
     7
370
    20
100
AcDbVertex
100
AcDb2dVertex
 10
128.979894117635
 20
126.711961560613
 30
0.0
  0
VERTEX
  5
2D1
330
2CC
100
AcDbEntity
  8
34_Gruppe
  6
Continuous
 62
     7
370
    20
100
AcDbVertex
100
AcDb2dVertex
 10
130.6858695626481
 20
126.6791543405168
 30
0.0
  0
SEQEND
  5
2D2
330
2CC
100
AcDbEntity
  8
34_Gruppe
  6
Continuous
 62
     7
370
    20
  0
POLYLINE
  5
2D3
330
B7
100
AcDbEntity
  8
34_Gruppe
  6
Continuous
 62
     7
370
    20
100
AcDb2dPolyline
 66
     1
 10
0.0
 20
0.0
 30
0.0
  0
VERTEX
  5
2D4
330
2D3
100
AcDbEntity
  8
34_Gruppe
  6
Continuous
 62
     7
370
    20
100
AcDbVertex
100
AcDb2dVertex
 10
118.0572644894484
 20
125.8659685205062
 30
0.0
  0
VERTEX
  5
2D5
330
2D3
100
AcDbEntity
  8
34_Gruppe
  6
Continuous
 62
     7
370
    20
100
AcDbVertex
100
AcDb2dVertex
 10
122.5342124845985
 20
126.0683158903599
 30
0.0
  0
VERTEX
  5
2D6
330
2D3
100
AcDbEntity
  8
34_Gruppe
  6
Continuous
 62
     7
370
    20
100
AcDbVertex
100
AcDb2dVertex
 10
123.1608777729609
 20
126.1803437164659
 30
0.0
  0
SEQEND
  5
2D7
330
2D3
100
AcDbEntity
  8
34_Gruppe
  6
Continuous
 62
     7
370
    20
  0
POLYLINE
  5
2D8
330
B7
100
AcDbEntity
  8
34_Gruppe
  6
Continuous
 62
     7
370
    20
100
AcDb2dPolyline
 66
     1
 10
0.0
 20
0.0
 30
0.0
  0
VERTEX
  5
2D9
330
2D8
100
AcDbEntity
  8
34_Gruppe
  6
Continuous
 62
     7
370
    20
100
AcDbVertex
100
AcDb2dVertex
 10
128.2341864867061
 20
127.9620482972641
 30
0.0
  0
VERTEX
  5
2DA
330
2D8
100
AcDbEntity
  8
34_Gruppe
  6
Continuous
 62
     7
370
    20
100
AcDbVertex
100
AcDb2dVertex
 10
132.7111344818562
 20
128.1643956671178
 30
0.0
  0
VERTEX
  5
2DB
330
2D8
100
AcDbEntity
  8
34_Gruppe
  6
Continuous
 62
     7
370
    20
100
AcDbVertex
100
AcDb2dVertex
 10
133.3377997702186
 20
128.2764234932238
 30
0.0
  0
SEQEND
  5
2DC
330
2D8
100
AcDbEntity
  8
34_Gruppe
  6
Continuous
 62
     7
370
    20
  0
POLYLINE
  5
2DD
330
B7
100
AcDbEntity
  8
34_Gruppe
  6
Continuous
 62
     7
370
    20
100
AcDb2dPolyline
 66
     1
 10
0.0
 20
0.0
 30
0.0
  0
VERTEX
  5
2DE
330
2DD
100
AcDbEntity
  8
34_Gruppe
  6
Continuous
 62
     7
370
    20
100
AcDbVertex
100
AcDb2dVertex
 10
129.9864830352459
 20
127.1562566966571
 30
0.0
  0
VERTEX
  5
2DF
330
2DD
100
AcDbEntity
  8
34_Gruppe
  6
Continuous
 62
     7
370
    20
100
AcDbVertex
100
AcDb2dVertex
 10
132.0141440374821
 20
127.2395852309954
 30
0.0
  0
VERTEX
  5
2E0
330
2DD
100
AcDbEntity
  8
34_Gruppe
  6
Continuous
 62
     7
370
    20
100
AcDbVertex
100
AcDb2dVertex
 10
137.0589342307576
 20
127.863098625674
 30
0.0
  0
VERTEX
  5
2E1
330
2DD
100
AcDbEntity
  8
34_Gruppe
  6
Continuous
 62
     7
370
    20
100
AcDbVertex
100
AcDb2dVertex
 10
141.7069431729193
 20
127.4096343386347
 30
0.0
  0
VERTEX
  5
2E2
330
2DD
100
AcDbEntity
  8
34_Gruppe
  6
Continuous
 62
     7
370
    20
100
AcDbVertex
100
AcDb2dVertex
 10
143.4129186179323
 20
127.3768271185383
 30
0.0
  0
SEQEND
  5
2E3
330
2DD
100
AcDbEntity
  8
34_Gruppe
  6
Continuous
 62
     7
370
    20
  0
POLYLINE
  5
2E4
330
B7
100
AcDbEntity
  8
34_Gruppe
  6
Continuous
 62
     7
370
    20
100
AcDb2dPolyline
 66
     1
 10
0.0
 20
0.0
 30
0.0
  0
VERTEX
  5
2E5
330
2E4
100
AcDbEntity
  8
34_Gruppe
  6
Continuous
 62
     7
370
    20
100
AcDbVertex
100
AcDb2dVertex
 10
123.4100278458966
 20
126.1939842024869
 30
0.0
  0
VERTEX
  5
2E6
330
2E4
100
AcDbEntity
  8
34_Gruppe
  6
Continuous
 62
     7
370
    20
100
AcDbVertex
100
AcDb2dVertex
 10
127.8869758410467
 20
126.3963315723406
 30
0.0
  0
VERTEX
  5
2E7
330
2E4
100
AcDbEntity
  8
34_Gruppe
  6
Continuous
 62
     7
370
    20
100
AcDbVertex
100
AcDb2dVertex
 10
128.513641129409
 20
126.5083593984465
 30
0.0
  0
SEQEND
  5
2E8
330
2E4
100
AcDbEntity
  8
34_Gruppe
  6
Continuous
 62
     7
370
    20
  0
POLYLINE
  5
2E9
330
B7
100
AcDbEntity
  8
34_Gruppe
  6
Continuous
 62
     7
370
    20
100
AcDb2dPolyline
 66
     1
 10
0.0
 20
0.0
 30
0.0
  0
VERTEX
  5
2EA
330
2E9
100
AcDbEntity
  8
34_Gruppe
  6
Continuous
 62
     7
370
    20
100
AcDbVertex
100
AcDb2dVertex
 10
131.4574004465281
 20
126.8634522700029
 30
0.0
  0
VERTEX
  5
2EB
330
2E9
100
AcDbEntity
  8
34_Gruppe
  6
Continuous
 62
     7
370
    20
100
AcDbVertex
100
AcDb2dVertex
 10
135.9343484416782
 20
127.0657996398566
 30
0.0
  0
VERTEX
  5
2EC
330
2E9
100
AcDbEntity
  8
34_Gruppe
  6
Continuous
 62
     7
370
    20
100
AcDbVertex
100
AcDb2dVertex
 10
136.5610137300406
 20
127.1778274659626
 30
0.0
  0
SEQEND
  5
2ED
330
2E9
100
AcDbEntity
  8
34_Gruppe
  6
Continuous
 62
     7
370
    20
  0
POLYLINE
  5
2EE
330
B7
100
AcDbEntity
  8
34_Gruppe
  6
Continuous
 62
     7
370
    20
100
AcDb2dPolyline
 66
     1
 10
0.0
 20
0.0
 30
0.0
  0
VERTEX
  5
2EF
330
2EE
100
AcDbEntity
  8
34_Gruppe
  6
Continuous
 62
     7
370
    20
100
AcDbVertex
100
AcDb2dVertex
 10
133.5168067262088
 20
128.3163360988361
 30
0.0
  0
VERTEX
  5
2F0
330
2EE
100
AcDbEntity
  8
34_Gruppe
  6
Continuous
 62
     7
370
    20
100
AcDbVertex
100
AcDb2dVertex
 10
135.5444677284449
 20
128.3996646331743
 30
0.0
  0
VERTEX
  5
2F1
330
2EE
100
AcDbEntity
  8
34_Gruppe
  6
Continuous
 62
     7
370
    20
100
AcDbVertex
100
AcDb2dVertex
 10
140.5892579217205
 20
129.0231780278529
 30
0.0
  0
VERTEX
  5
2F2
330
2EE
100
AcDbEntity
  8
34_Gruppe
  6
Continuous
 62
     7
370
    20
100
AcDbVertex
100
AcDb2dVertex
 10
145.2372668638822
 20
128.5697137408137
 30
0.0
  0
VERTEX
  5
2F3
330
2EE
100
AcDbEntity
  8
34_Gruppe
  6
Continuous
 62
     7
370
    20
100
AcDbVertex
100
AcDb2dVertex
 10
146.9432423088952
 20
128.5369065207171
 30
0.0
  0
SEQEND
  5
2F4
330
2EE
100
AcDbEntity
  8
34_Gruppe
  6
Continuous
 62
     7
370
    20
  0
POLYLINE
  5
2F5
330
B7
100
AcDbEntity
  8
34_Gruppe
  6
Continuous
 62
     7
370
    20
100
AcDb2dPolyline
 66
     1
 10
0.0
 20
0.0
 30
0.0
  0
VERTEX
  5
2F6
330
2F5
100
AcDbEntity
  8
34_Gruppe
  6
Continuous
 62
     7
370
    20
100
AcDbVertex
100
AcDb2dVertex
 10
139.7413982019018
 20
127.9777997443498
 30
0.0
  0
VERTEX
  5
2F7
330
2F5
100
AcDbEntity
  8
34_Gruppe
  6
Continuous
 62
     7
370
    20
100
AcDbVertex
100
AcDb2dVertex
 10
144.2183461970519
 20
128.1801471142035
 30
0.0
  0
VERTEX
  5
2F8
330
2F5
100
AcDbEntity
  8
34_Gruppe
  6
Continuous
 62
     7
370
    20
100
AcDbVertex
100
AcDb2dVertex
 10
144.8450114854142
 20
128.2921749403095
 30
0.0
  0
SEQEND
  5
2F9
330
2F5
100
AcDbEntity
  8
34_Gruppe
  6
Continuous
 62
     7
370
    20
  0
POLYLINE
  5
2FA
330
B7
100
AcDbEntity
  8
34_Gruppe
  6
Continuous
 62
     7
370
    20
100
AcDb2dPolyline
 66
     1
 10
0.0
 20
0.0
 30
0.0
  0
VERTEX
  5
2FB
330
2FA
100
AcDbEntity
  8
34_Gruppe
  6
Continuous
 62
     7
370
    20
100
AcDbVertex
100
AcDb2dVertex
 10
143.1565897648254
 20
129.2416210692816
 30
0.0
  0
VERTEX
  5
2FC
330
2FA
100
AcDbEntity
  8
34_Gruppe
  6
Continuous
 62
     7
370
    20
100
AcDbVertex
100
AcDb2dVertex
 10
147.6335377599755
 20
129.4439684391353
 30
0.0
  0
VERTEX
  5
2FD
330
2FA
100
AcDbEntity
  8
34_Gruppe
  6
Continuous
 62
     7
370
    20
100
AcDbVertex
100
AcDb2dVertex
 10
148.2602030483378
 20
129.5559962652413
 30
0.0
  0
SEQEND
  5
2FE
330
2FA
100
AcDbEntity
  8
34_Gruppe
  6
Continuous
 62
     7
370
    20
  0
POLYLINE
  5
2FF
330
B7
100
AcDbEntity
  8
34_Gruppe
  6
Continuous
 62
     7
370
    20
100
AcDb2dPolyline
 66
     1
 10
0.0
 20
0.0
 30
0.0
  0
VERTEX
  5
300
330
2FF
100
AcDbEntity
  8
34_Gruppe
  6
Continuous
 62
     7
370
    20
100
AcDbVertex
100
AcDb2dVertex
 10
146.27136242573
 20
127.9777997443498
 30
0.0
  0
VERTEX
  5
301
330
2FF
100
AcDbEntity
  8
34_Gruppe
  6
Continuous
 62
     7
370
    20
100
AcDbVertex
100
AcDb2dVertex
 10
150.7483104208801
 20
128.1801471142035
 30
0.0
  0
VERTEX
  5
302
330
2FF
100
AcDbEntity
  8
34_Gruppe
  6
Continuous
 62
     7
370
    20
100
AcDbVertex
100
AcDb2dVertex
 10
151.3749757092424
 20
128.2921749403095
 30
0.0
  0
SEQEND
  5
303
330
2FF
100
AcDbEntity
  8
34_Gruppe
  6
Continuous
 62
     7
370
    20
  0
POLYLINE
  5
304
330
B7
100
AcDbEntity
  8
34_Gruppe
  6
Continuous
 62
     7
370
    20
100
AcDb2dPolyline
 66
     1
 10
0.0
 20
0.0
 30
0.0
  0
VERTEX
  5
305
330
304
100
AcDbEntity
  8
34_Gruppe
  6
Continuous
 62
     7
370
    20
100
AcDbVertex
100
AcDb2dVertex
 10
114.4638584434151
 20
129.8452132819355
 30
0.0
  0
VERTEX
  5
306
330
304
100
AcDbEntity
  8
34_Gruppe
  6
Continuous
 62
     7
370
    20
100
AcDbVertex
100
AcDb2dVertex
 10
116.2910897780827
 20
130.1705757908003
 30
0.0
  0
SEQEND
  5
307
330
304
100
AcDbEntity
  8
34_Gruppe
  6
Continuous
 62
     7
370
    20
  0
POLYLINE
  5
308
330
B7
100
AcDbEntity
  8
34_Gruppe
  6
Continuous
 62
     7
370
    20
100
AcDb2dPolyline
 66
     1
 10
0.0
 20
0.0
 30
0.0
  0
VERTEX
  5
309
330
308
100
AcDbEntity
  8
34_Gruppe
  6
Continuous
 62
     7
370
    20
100
AcDbVertex
100
AcDb2dVertex
 10
114.2055512076708
 20
131.7449191119838
 30
0.0
  0
VERTEX
  5
30A
330
308
100
AcDbEntity
  8
34_Gruppe
  6
Continuous
 62
     7
370
    20
100
AcDbVertex
100
AcDb2dVertex
 10
116.1459236358318
 20
131.8312907329858
 30
0.0
  0
SEQEND
  5
30B
330
308
100
AcDbEntity
  8
34_Gruppe
  6
Continuous
 62
     7
370
    20
  0
POLYLINE
  5
30C
330
B7
100
AcDbEntity
  8
34_Gruppe
  6
Continuous
 62
     7
370
    20
100
AcDb2dPolyline
 66
     1
 10
0.0
 20
0.0
 30
0.0
  0
VERTEX
  5
30D
330
30C
100
AcDbEntity
  8
34_Gruppe
  6
Continuous
 62
     7
370
    20
100
AcDbVertex
100
AcDb2dVertex
 10
113.6227239780259
 20
136.0312887248095
 30
0.0
  0
VERTEX
  5
30E
330
30C
100
AcDbEntity
  8
34_Gruppe
  6
Continuous
 62
     7
370
    20
100
AcDbVertex
100
AcDb2dVertex
 10
115.7704374433251
 20
136.1268896984955
 30
0.0
  0
SEQEND
  5
30F
330
30C
100
AcDbEntity
  8
34_Gruppe
  6
Continuous
 62
     7
370
    20
  0
POLYLINE
  5
310
330
B7
100
AcDbEntity
  8
34_Gruppe
  6
Continuous
 62
     7
370
    20
100
AcDb2dPolyline
 66
     1
 10
0.0
 20
0.0
 30
0.0
  0
VERTEX
  5
311
330
310
100
AcDbEntity
  8
34_Gruppe
  6
Continuous
 62
     7
370
    20
100
AcDbVertex
100
AcDb2dVertex
 10
113.8466557371004
 20
134.3843953769665
 30
0.0
  0
VERTEX
  5
312
330
310
100
AcDbEntity
  8
34_Gruppe
  6
Continuous
 62
     7
370
    20
100
AcDbVertex
100
AcDb2dVertex
 10
115.8909332513904
 20
134.7484058053373
 30
0.0
  0
SEQEND
  5
313
330
310
100
AcDbEntity
  8
34_Gruppe
  6
Continuous
 62
     7
370
    20
  0
POLYLINE
  5
314
330
B7
100
AcDbEntity
  8
34_Gruppe
  6
Continuous
 62
     7
370
    20
100
AcDb2dPolyline
 66
     1
 10
0.0
 20
0.0
 30
0.0
  0
VERTEX
  5
315
330
314
100
AcDbEntity
  8
34_Gruppe
  6
Continuous
 62
     7
370
    20
100
AcDbVertex
100
AcDb2dVertex
 10
113.8979945958987
 20
134.0068266685797
 30
0.0
  0
VERTEX
  5
316
330
314
100
AcDbEntity
  8
34_Gruppe
  6
Continuous
 62
     7
370
    20
100
AcDbVertex
100
AcDb2dVertex
 10
115.9477804207234
 20
134.0980685981329
 30
0.0
  0
SEQEND
  5
317
330
314
100
AcDbEntity
  8
34_Gruppe
  6
Continuous
 62
     7
370
    20
  0
POLYLINE
  5
318
330
B7
100
AcDbEntity
  8
34_Gruppe
  6
Continuous
 62
     7
370
    20
100
AcDb2dPolyline
 66
     1
 10
0.0
 20
0.0
 30
0.0
  0
VERTEX
  5
319
330
318
100
AcDbEntity
  8
34_Gruppe
  6
Continuous
 62
     7
370
    20
100
AcDbVertex
100
AcDb2dVertex
 10
114.0410263658099
 20
132.9549076760686
 30
0.0
  0
VERTEX
  5
31A
330
318
100
AcDbEntity
  8
34_Gruppe
  6
Continuous
 62
     7
370
    20
100
AcDbVertex
100
AcDb2dVertex
 10
116.0399285770889
 20
133.0438846279707
 30
0.0
  0
SEQEND
  5
31B
330
318
100
AcDbEntity
  8
34_Gruppe
  6
Continuous
 62
     7
370
    20
  0
POLYLINE
  5
31C
330
B7
100
AcDbEntity
  8
34_Gruppe
  6
Continuous
 62
     7
370
    20
100
AcDb2dPolyline
 66
     1
 10
0.0
 20
0.0
 30
0.0
  0
VERTEX
  5
31D
330
31C
100
AcDbEntity
  8
34_Gruppe
  6
Continuous
 62
     7
370
    20
100
AcDbVertex
100
AcDb2dVertex
 10
106.1855584950037
 20
135.7010246080102
 30
0.0
  0
VERTEX
  5
31E
330
31C
100
AcDbEntity
  8
34_Gruppe
  6
Continuous
 62
     7
370
    20
100
AcDbVertex
100
AcDb2dVertex
 10
110.2084116048603
 20
135.8800935017489
 30
0.0
  0
VERTEX
  5
31F
330
31C
100
AcDbEntity
  8
34_Gruppe
  6
Continuous
 62
     7
370
    20
100
AcDbVertex
100
AcDb2dVertex
 10
113.2626806256721
 20
136.4239461669833
 30
0.0
  0
SEQEND
  5
320
330
31C
100
AcDbEntity
  8
34_Gruppe
  6
Continuous
 62
     7
370
    20
  0
POLYLINE
  5
321
330
B7
100
AcDbEntity
  8
34_Gruppe
  6
Continuous
 62
     7
370
    20
100
AcDb2dPolyline
 66
     1
 10
0.0
 20
0.0
 30
0.0
  0
VERTEX
  5
322
330
321
100
AcDbEntity
  8
34_Gruppe
  6
Continuous
 62
     7
370
    20
100
AcDbVertex
100
AcDb2dVertex
 10
107.5856801914562
 20
134.8420438125109
 30
0.0
  0
VERTEX
  5
323
330
321
100
AcDbEntity
  8
34_Gruppe
  6
Continuous
 62
     7
370
    20
100
AcDbVertex
100
AcDb2dVertex
 10
114.5128023849682
 20
135.1503901712043
 30
0.0
  0
VERTEX
  5
324
330
321
100
AcDbEntity
  8
34_Gruppe
  6
Continuous
 62
     7
370
    20
100
AcDbVertex
100
AcDb2dVertex
 10
115.139544079084
 20
135.2619897514758
 30
0.0
  0
SEQEND
  5
325
330
321
100
AcDbEntity
  8
34_Gruppe
  6
Continuous
 62
     7
370
    20
  0
POLYLINE
  5
326
330
B7
100
AcDbEntity
  8
34_Gruppe
  6
Continuous
 62
     7
370
    20
100
AcDb2dPolyline
 66
     1
 10
0.0
 20
0.0
 30
0.0
  0
VERTEX
  5
327
330
326
100
AcDbEntity
  8
34_Gruppe
  6
Continuous
 62
     7
370
    20
100
AcDbVertex
100
AcDb2dVertex
 10
104.2559630708183
 20
133.9675200997029
 30
0.0
  0
VERTEX
  5
328
330
326
100
AcDbEntity
  8
34_Gruppe
  6
Continuous
 62
     7
370
    20
100
AcDbVertex
100
AcDb2dVertex
 10
111.1830852643303
 20
134.2758664583964
 30
0.0
  0
VERTEX
  5
329
330
326
100
AcDbEntity
  8
34_Gruppe
  6
Continuous
 62
     7
370
    20
100
AcDbVertex
100
AcDb2dVertex
 10
111.8098269584463
 20
134.3874660386678
 30
0.0
  0
SEQEND
  5
32A
330
326
100
AcDbEntity
  8
34_Gruppe
  6
Continuous
 62
     7
370
    20
  0
POLYLINE
  5
32B
330
B7
100
AcDbEntity
  8
34_Gruppe
  6
Continuous
 62
     7
370
    20
100
AcDb2dPolyline
 66
     1
 10
0.0
 20
0.0
 30
0.0
  0
VERTEX
  5
32C
330
32B
100
AcDbEntity
  8
34_Gruppe
  6
Continuous
 62
     7
370
    20
100
AcDbVertex
100
AcDb2dVertex
 10
104.1070534574186
 20
131.7925677300289
 30
0.0
  0
VERTEX
  5
32D
330
32B
100
AcDbEntity
  8
34_Gruppe
  6
Continuous
 62
     7
370
    20
100
AcDbVertex
100
AcDb2dVertex
 10
109.2063106618401
 20
133.1387944588881
 30
0.0
  0
VERTEX
  5
32E
330
32B
100
AcDbEntity
  8
34_Gruppe
  6
Continuous
 62
     7
370
    20
100
AcDbVertex
100
AcDb2dVertex
 10
113.8730354833033
 20
133.3157024202011
 30
0.0
  0
VERTEX
  5
32F
330
32B
100
AcDbEntity
  8
34_Gruppe
  6
Continuous
 62
     7
370
    20
100
AcDbVertex
100
AcDb2dVertex
 10
115.5678760690475
 20
133.5130445636769
 30
0.0
  0
SEQEND
  5
330
330
32B
100
AcDbEntity
  8
34_Gruppe
  6
Continuous
 62
     7
370
    20
  0
POLYLINE
  5
331
330
B7
100
AcDbEntity
  8
34_Gruppe
  6
Continuous
 62
     7
370
    20
100
AcDb2dPolyline
 66
     1
 10
0.0
 20
0.0
 30
0.0
  0
VERTEX
  5
332
330
331
100
AcDbEntity
  8
34_Gruppe
  6
Continuous
 62
     7
370
    20
100
AcDbVertex
100
AcDb2dVertex
 10
108.3425274167033
 20
130.5385927776648
 30
0.0
  0
VERTEX
  5
333
330
331
100
AcDbEntity
  8
34_Gruppe
  6
Continuous
 62
     7
370
    20
100
AcDbVertex
100
AcDb2dVertex
 10
115.2696496102153
 20
130.8469391363582
 30
0.0
  0
VERTEX
  5
334
330
331
100
AcDbEntity
  8
34_Gruppe
  6
Continuous
 62
     7
370
    20
100
AcDbVertex
100
AcDb2dVertex
 10
115.8963913043312
 20
130.9585387166297
 30
0.0
  0
SEQEND
  5
335
330
331
100
AcDbEntity
  8
34_Gruppe
  6
Continuous
 62
     7
370
    20
  0
POLYLINE
  5
336
330
B7
100
AcDbEntity
  8
34_Gruppe
  6
Continuous
 62
     7
370
    20
100
AcDb2dPolyline
 66
     1
 10
0.0
 20
0.0
 30
0.0
  0
VERTEX
  5
337
330
336
100
AcDbEntity
  8
34_Gruppe
  6
Continuous
 62
     7
370
    20
100
AcDbVertex
100
AcDb2dVertex
 10
105.0128102960654
 20
129.6640690648568
 30
0.0
  0
VERTEX
  5
338
330
336
100
AcDbEntity
  8
34_Gruppe
  6
Continuous
 62
     7
370
    20
100
AcDbVertex
100
AcDb2dVertex
 10
111.9399324895774
 20
129.9724154235502
 30
0.0
  0
VERTEX
  5
339
330
336
100
AcDbEntity
  8
34_Gruppe
  6
Continuous
 62
     7
370
    20
100
AcDbVertex
100
AcDb2dVertex
 10
112.5666741836934
 20
130.0840150038217
 30
0.0
  0
SEQEND
  5
33A
330
336
100
AcDbEntity
  8
34_Gruppe
  6
Continuous
 62
     7
370
    20
  0
POLYLINE
  5
33B
330
B7
100
AcDbEntity
  8
34_Gruppe
  6
Continuous
 62
     7
370
    20
100
AcDb2dPolyline
 66
     1
 10
0.0
 20
0.0
 30
0.0
  0
VERTEX
  5
33C
330
33B
100
AcDbEntity
  8
34_Gruppe
  6
Continuous
 62
     7
370
    20
100
AcDbVertex
100
AcDb2dVertex
 10
104.7372574373239
 20
130.738646894848
 30
0.0
  0
VERTEX
  5
33D
330
33B
100
AcDbEntity
  8
34_Gruppe
  6
Continuous
 62
     7
370
    20
100
AcDbVertex
100
AcDb2dVertex
 10
109.8365146417451
 20
132.0848736237072
 30
0.0
  0
VERTEX
  5
33E
330
33B
100
AcDbEntity
  8
34_Gruppe
  6
Continuous
 62
     7
370
    20
100
AcDbVertex
100
AcDb2dVertex
 10
114.5032394632082
 20
132.2617815850201
 30
0.0
  0
VERTEX
  5
33F
330
33B
100
AcDbEntity
  8
34_Gruppe
  6
Continuous
 62
     7
370
    20
100
AcDbVertex
100
AcDb2dVertex
 10
116.0921220385662
 20
132.4467862962534
 30
0.0
  0
SEQEND
  5
340
330
33B
100
AcDbEntity
  8
34_Gruppe
  6
Continuous
 62
     7
370
    20
  0
POLYLINE
  5
341
330
B7
100
AcDbEntity
  8
34_Gruppe
  6
Continuous
 62
     7
370
    20
100
AcDb2dPolyline
 66
     1
 10
0.0
 20
0.0
 30
0.0
  0
VERTEX
  5
342
330
341
100
AcDbEntity
  8
34_Gruppe
  6
Continuous
 62
     7
370
    20
100
AcDbVertex
100
AcDb2dVertex
 10
104.8498189523904
 20
127.6480625288226
 30
0.0
  0
VERTEX
  5
343
330
341
100
AcDbEntity
  8
34_Gruppe
  6
Continuous
 62
     7
370
    20
100
AcDbVertex
100
AcDb2dVertex
 10
109.9490761568115
 20
128.9942892576819
 30
0.0
  0
VERTEX
  5
344
330
341
100
AcDbEntity
  8
34_Gruppe
  6
Continuous
 62
     7
370
    20
100
AcDbVertex
100
AcDb2dVertex
 10
114.6158009782746
 20
129.1711972189947
 30
0.0
  0
VERTEX
  5
345
330
341
100
AcDbEntity
  8
34_Gruppe
  6
Continuous
 62
     7
370
    20
100
AcDbVertex
100
AcDb2dVertex
 10
116.3106415640192
 20
129.3685393624704
 30
0.0
  0
SEQEND
  5
346
330
341
100
AcDbEntity
  8
34_Gruppe
  6
Continuous
 62
     7
370
    20
  0
POLYLINE
  5
347
330
B7
100
AcDbEntity
  8
34_Gruppe
  6
Continuous
 62
     7
370
    20
100
AcDb2dPolyline
 66
     1
 10
0.0
 20
0.0
 30
0.0
  0
VERTEX
  5
348
330
347
100
AcDbEntity
  8
34_Gruppe
  6
Continuous
 62
     7
370
    20
100
AcDbVertex
100
AcDb2dVertex
 10
111.3477174227244
 20
128.7389583956994
 30
0.0
  0
VERTEX
  5
349
330
347
100
AcDbEntity
  8
34_Gruppe
  6
Continuous
 62
     7
370
    20
100
AcDbVertex
100
AcDb2dVertex
 10
116.3965851654699
 20
128.9636981852556
 30
0.0
  0
SEQEND
  5
34A
330
347
100
AcDbEntity
  8
34_Gruppe
  6
Continuous
 62
     7
370
    20
  0
LINE
  5
34B
330
B7
100
AcDbEntity
  8
STANDARD
 62
     7
100
AcDbLine
 10
127.2251500484761
 20
138.7483152105538
 30
0.0
 11
127.5240084760388
 21
138.7744617260886
 31
0.0
  0
LINE
  5
34C
330
B7
100
AcDbEntity
  8
STANDARD
 62
     7
100
AcDbLine
 10
127.2251500484761
 20
138.7483152105538
 30
0.0
 11
126.9649025605197
 21
139.4282205311775
 31
0.0
  0
LINE
  5
34D
330
B7
100
AcDbEntity
  8
STANDARD
 62
     7
100
AcDbLine
 10
127.5240084760388
 20
138.7744617260886
 30
0.0
 11
127.6622388915001
 21
139.4892290674252
 31
0.0
  0
LINE
  5
34E
330
B7
100
AcDbEntity
  8
STANDARD
 62
     7
100
AcDbLine
 10
126.9649025605197
 20
139.4282205311775
 30
0.0
 11
126.9561870553416
 21
139.527840007032
 31
0.0
  0
LINE
  5
34F
330
B7
100
AcDbEntity
  8
STANDARD
 62
     7
100
AcDbLine
 10
127.6622388915001
 20
139.4892290674252
 30
0.0
 11
127.6535233863218
 21
139.5888485432796
 31
0.0
  0
LINE
  5
350
330
B7
100
AcDbEntity
  8
STANDARD
 62
     7
100
AcDbLine
 10
126.9561870553416
 20
139.527840007032
 30
0.0
 11
127.6535233863218
 21
139.5888485432796
 31
0.0
  0
LINE
  5
351
330
B7
100
AcDbEntity
  8
STANDARD
 62
     7
100
AcDbLine
 10
126.9649025605197
 20
139.4282205311775
 30
0.0
 11
127.6622388915001
 21
139.4892290674252
 31
0.0
  0
LINE
  5
352
330
B7
100
AcDbEntity
  8
STANDARD
 62
     7
100
AcDbLine
 10
127.4838178886883
 20
135.7917046486396
 30
0.0
 11
127.2251500484757
 21
138.7483152105539
 31
0.0
  0
LINE
  5
353
330
B7
100
AcDbEntity
  8
STANDARD
 62
     7
100
AcDbLine
 10
127.782676316251
 20
135.8178511641741
 30
0.0
 11
127.5240084760388
 21
138.7744617260886
 31
0.0
  0
LINE
  5
354
330
B7
100
AcDbEntity
  8
STANDARD
 62
     7
100
AcDbLine
 10
127.4838178886883
 20
135.7917046486394
 30
0.0
 11
127.7826763162513
 21
135.8178511641739
 31
0.0
  0
LINE
  5
355
330
B7
100
AcDbEntity
  8
STANDARD
 62
     7
100
AcDbLine
 10
139.2153326299365
 20
139.7973196057991
 30
0.0
 11
138.9164742358129
 21
139.7711727080517
 31
0.0
  0
LINE
  5
356
330
B7
100
AcDbEntity
  8
STANDARD
 62
     7
100
AcDbLine
 10
139.2153326299365
 20
139.7973196057991
 30
0.0
 11
139.3535621312749
 21
140.5120871239195
 31
0.0
  0
LINE
  5
357
330
B7
100
AcDbEntity
  8
STANDARD
 62
     7
100
AcDbLine
 10
138.9164742358129
 20
139.7711727080517
 30
0.0
 11
138.6562258783195
 21
140.4510776958419
 31
0.0
  0
LINE
  5
358
330
B7
100
AcDbEntity
  8
STANDARD
 62
     7
100
AcDbLine
 10
139.3535621312749
 20
140.5120871239195
 30
0.0
 11
139.3448464986923
 21
140.6117065886273
 31
0.0
  0
LINE
  5
359
330
B7
100
AcDbEntity
  8
STANDARD
 62
     7
100
AcDbLine
 10
138.6562258783195
 20
140.4510776958419
 30
0.0
 11
138.6475102457369
 21
140.5506971605499
 31
0.0
  0
LINE
  5
35A
330
B7
100
AcDbEntity
  8
STANDARD
 62
     7
100
AcDbLine
 10
139.3448464986923
 20
140.6117065886273
 30
0.0
 11
138.6475102457369
 21
140.5506971605499
 31
0.0
  0
LINE
  5
35B
330
B7
100
AcDbEntity
  8
STANDARD
 62
     7
100
AcDbLine
 10
139.3535621312749
 20
140.5120871239195
 30
0.0
 11
138.6562258783195
 21
140.4510776958419
 31
0.0
  0
LINE
  5
35C
330
B7
100
AcDbEntity
  8
STANDARD
 62
     7
100
AcDbLine
 10
139.4740042513862
 20
136.8407093747002
 30
0.0
 11
139.2153326299367
 21
139.7973196057993
 31
0.0
  0
LINE
  5
35D
330
B7
100
AcDbEntity
  8
STANDARD
 62
     7
100
AcDbLine
 10
139.1751458572628
 20
136.8145624769525
 30
0.0
 11
138.9164742358129
 21
139.7711727080517
 31
0.0
  0
LINE
  5
35E
330
B7
100
AcDbEntity
  8
STANDARD
 62
     7
100
AcDbLine
 10
139.4740042513862
 20
136.8407093747001
 30
0.0
 11
139.1751458572624
 21
136.8145624769523
 31
0.0
  0
LINE
  5
35F
330
B7
100
AcDbEntity
  8
STANDARD
  6
Continuous
 62
     7
100
AcDbLine
 10
104.4556912908591
 20
131.2149541041195
 30
0.0
 11
104.4296247750008
 21
131.5138195199026
 31
0.0
  0
LINE
  5
360
330
B7
100
AcDbEntity
  8
STANDARD
  6
Continuous
 62
     7
100
AcDbLine
 10
104.4556912908591
 20
131.2149541041195
 30
0.0
 11
103.7757163312719
 21
130.9548886232615
 31
0.0
  0
LINE
  5
361
330
B7
100
AcDbEntity
  8
STANDARD
  6
Continuous
 62
     7
100
AcDbLine
 10
104.4296247750008
 20
131.5138195199026
 30
0.0
 11
103.7148944609351
 21
131.652241260088
 31
0.0
  0
LINE
  5
362
330
B7
100
AcDbEntity
  8
STANDARD
  6
Continuous
 62
     7
100
AcDbLine
 10
103.7757163312719
 20
130.9548886232615
 30
0.0
 11
103.676094526011
 21
130.946199784642
 31
0.0
  0
LINE
  5
363
330
B7
100
AcDbEntity
  8
STANDARD
  6
Continuous
 62
     7
100
AcDbLine
 10
103.7148944609351
 20
131.652241260088
 30
0.0
 11
103.6152726556742
 21
131.6435524214685
 31
0.0
  0
LINE
  5
364
330
B7
100
AcDbEntity
  8
STANDARD
  6
Continuous
 62
     7
100
AcDbLine
 10
108.7105585179143
 20
131.5860561393268
 30
0.0
 11
104.4556912908591
 21
131.2149541041195
 31
0.0
  0
LINE
  5
365
330
B7
100
AcDbEntity
  8
STANDARD
  6
Continuous
 62
     7
100
AcDbLine
 10
108.6844920020556
 20
131.8849215551098
 30
0.0
 11
104.4296247750008
 21
131.5138195199026
 31
0.0
  0
LINE
  5
366
330
B7
100
AcDbEntity
  8
STANDARD
  6
Continuous
 62
     7
100
AcDbLine
 10
108.7105585179143
 20
131.5860561393268
 30
0.0
 11
108.6844920020556
 21
131.8849215551098
 31
0.0
  0
LINE
  5
367
330
B7
100
AcDbEntity
  8
STANDARD
  6
Continuous
 62
     7
100
AcDbLine
 10
103.8452270402278
 20
130.157914181174
 30
0.0
 11
103.7456052349671
 21
130.1492253425546
 31
0.0
  0
LINE
  5
368
330
B7
100
AcDbEntity
  8
STANDARD
  6
Continuous
 62
     7
100
AcDbLine
 10
103.645383751979
 20
132.449215702175
 30
0.0
 11
103.5457619467181
 21
132.4405268635557
 31
0.0
  0
LINE
  5
369
330
B7
100
AcDbEntity
  8
STANDARD
  6
Continuous
 62
     7
100
AcDbLine
 10
103.8452270402278
 20
130.157914181174
 30
0.0
 11
103.645383751979
 21
132.449215702175
 31
0.0
  0
LINE
  5
36A
330
B7
100
AcDbEntity
  8
STANDARD
  6
Continuous
 62
     7
100
AcDbLine
 10
103.7456052349671
 20
130.1492253425546
 30
0.0
 11
103.5457619467181
 21
132.4405268635557
 31
0.0
  0
ENDBLK
  5
36D
330
B7
100
AcDbEntity
  8
0
100
AcDbBlockEnd
  0
ENDSEC
  0
SECTION
  2
ENTITIES
  0
INSERT
  5
B0
330
1F
100
AcDbEntity
  8
00_Allgemein
  6
Continuous
 62
     7
370
     0
100
AcDbBlockReference
  2
printlayout(id_1)
 10
0.0
 20
0.0
 30
0.0
  0
INSERT
  5
36B
330
1F
100
AcDbEntity
  8
34_Gruppe
  6
Continuous
 62
     7
370
     0
100
AcDbBlockReference
  2
dokument alle 2d details_asc(id_4)
 10
0.0
 20
0.0
 30
0.0
  0
IMAGE
  5
36F
330
1F
100
AcDbEntity
  8
37_Bilder
  6
Continuous
 62
     7
370
     0
160
               140
310
8C00000001000000840000000600000005000000663F38DD7DC76E40607D7E0819A431400000000000000000B31F9CDEEF237240607D7E0819A431400000000000000000B31F9CDEEF237240B03E3F74D92D40400000000000000000663F38DD7DC76E40B03E3F74D92D40400000000000000000663F38DD7DC76E40607D7E
310
0819A431400000000000000000
100
AcDbRasterImage
 90
        0
 10
246.2341142748439
 20
17.64100697601441
 30
0.0
 11
0.0279263627105558
 21
0.0
 31
0.0
 12
0.0
 22
0.02792635995477608
 32
0.0
 13
1576.0
 23
527.0
340
36E
 70
     3
280
     0
281
    50
282
    50
283
     0
360
370
 71
     1
 91
        2
 14
-0.5
 24
-0.5
 14
1575.5
 24
526.5
290
     0
  0
ENDSEC
  0
SECTION
  2
OBJECTS
  0
DICTIONARY
  5
C
330
0
100
AcDbDictionary
281
     1
  3
ACAD_GROUP
350
D
  3
ACAD_IMAGE_DICT
350
B4
  3
ACAD_LAYOUT
350
1A
  3
ACAD_MATERIAL
350
3B
  3
ACAD_MLEADERSTYLE
350
372
  3
ACAD_MLINESTYLE
350
17
  3
ACAD_PLOTSETTINGS
350
19
  3
ACAD_PLOTSTYLENAME
350
E
  3
ACAD_TABLESTYLE
350
371
  3
ACAD_VISUALSTYLE
350
2A
  0
IMAGEDEF_REACTOR
  5
370
330
36F
100
AcDbRasterImageDefReactor
 90
        2
330
36F
  0
DICTIONARY
  5
D
102
{ACAD_REACTORS
330
C
102
}
330
C
100
AcDbDictionary
281
     1
  0
DICTIONARY
  5
B4
102
{ACAD_REACTORS
330
C
102
}
330
C
100
AcDbDictionary
281
     1
  3
Image0
350
B5
  3
Image1
350
36E
  0
DICTIONARY
  5
1A
102
{ACAD_REACTORS
330
C
102
}
330
C
100
AcDbDictionary
281
     1
  3
Layout1
350
1E
  3
Layout2
350
26
  3
Model
350
22
  0
DICTIONARY
  5
3B
102
{ACAD_REACTORS
330
C
102
}
330
C
100
AcDbDictionary
281
     1
  3
ByBlock
350
3D
  3
ByLayer
350
3C
  3
Global
350
3E
  0
DICTIONARY
  5
372
102
{ACAD_REACTORS
330
C
102
}
330
C
100
AcDbDictionary
281
     1
  0
DICTIONARY
  5
17
102
{ACAD_REACTORS
330
C
102
}
330
C
100
AcDbDictionary
281
     1
  3
Standard
350
18
  0
DICTIONARY
  5
19
102
{ACAD_REACTORS
330
C
102
}
330
C
100
AcDbDictionary
281
     1
  0
ACDBDICTIONARYWDFLT
  5
E
102
{ACAD_REACTORS
330
C
102
}
330
C
100
AcDbDictionary
281
     1
  3
Normal
350
F
100
AcDbDictionaryWithDefault
340
F
  0
DICTIONARY
  5
371
102
{ACAD_REACTORS
330
C
102
}
330
C
100
AcDbDictionary
281
     1
  0
DICTIONARY
  5
2A
102
{ACAD_REACTORS
330
C
102
}
330
C
100
AcDbDictionary
281
     1
  3
2dWireframe
350
2F
  3
3D Hidden
350
31
  3
3dWireframe
350
30
  3
Basic
350
32
  3
Brighten
350
36
  3
ColorChange
350
3A
  3
Conceptual
350
34
  3
Dim
350
35
  3
Facepattern
350
39
  3
Flat
350
2B
  3
FlatWithEdges
350
2C
  3
Gouraud
350
2D
  3
GouraudWithEdges
350
2E
  3
Linepattern
350
38
  3
Realistic
350
33
  3
Thicken
350
37
  0
IMAGEDEF
  5
B5
102
{ACAD_REACTORS
330
B4
102
}
330
B4
100
AcDbRasterImageDef
 90
        0
  1
__ID14_Coverit+www.bmp
 10
1576.0
 20
527.0
 11
0.0006345177664974619
 21
0.0006345177664974619
280
     1
281
     1
  0
IMAGEDEF
  5
36E
102
{ACAD_REACTORS
330
B4
330
370
102
}
330
B4
100
AcDbRasterImageDef
 90
        0
  1
__ID14_Coverit+www.bmp
 10
1576.0
 20
527.0
 11
0.0006345177664974619
 21
0.0006345177664974619
280
     1
281
     1
  0
LAYOUT
  5
1E
102
{ACAD_REACTORS
330
1A
102
}
330
1A
100
AcDbPlotSettings
  1

  2
none_device
  4

  6

 40
0.0
 41
0.0
 42
0.0
 43
0.0
 44
0.0
 45
0.0
 46
0.0
 47
0.0
 48
0.0
 49
0.0
140
0.0
141
0.0
142
1.0
143
1.0
 70
   688
 72
     0
 73
     0
 74
     5
  7

 75
    16
 76
     0
 77
     2
 78
   300
147
1.0
148
0.0
149
0.0
100
AcDbLayout
  1
Layout1
 70
     1
 71
     1
 10
0.0
 20
0.0
 11
12.0
 21
9.0
 12
0.0
 22
0.0
 32
0.0
 14
1.000000000000000E+20
 24
1.000000000000000E+20
 34
1.000000000000000E+20
 15
-1.000000000000000E+20
 25
-1.000000000000000E+20
 35
-1.000000000000000E+20
146
0.0
 13
0.0
 23
0.0
 33
0.0
 16
1.0
 26
0.0
 36
0.0
 17
0.0
 27
1.0
 37
0.0
 76
     0
330
1B
  0
LAYOUT
  5
26
102
{ACAD_REACTORS
330
1A
102
}
330
1A
100
AcDbPlotSettings
  1

  2
none_device
  4

  6

 40
0.0
 41
0.0
 42
0.0
 43
0.0
 44
0.0
 45
0.0
 46
0.0
 47
0.0
 48
0.0
 49
0.0
140
0.0
141
0.0
142
1.0
143
1.0
 70
   688
 72
     0
 73
     0
 74
     5
  7

 75
    16
 76
     0
 77
     2
 78
   300
147
1.0
148
0.0
149
0.0
100
AcDbLayout
  1
Layout2
 70
     1
 71
     2
 10
0.0
 20
0.0
 11
0.0
 21
0.0
 12
0.0
 22
0.0
 32
0.0
 14
0.0
 24
0.0
 34
0.0
 15
0.0
 25
0.0
 35
0.0
146
0.0
 13
0.0
 23
0.0
 33
0.0
 16
1.0
 26
0.0
 36
0.0
 17
0.0
 27
1.0
 37
0.0
 76
     0
330
23
  0
LAYOUT
  5
22
102
{ACAD_REACTORS
330
1A
102
}
330
1A
100
AcDbPlotSettings
  1

  2
none_device
  4

  6

 40
0.0
 41
0.0
 42
0.0
 43
0.0
 44
0.0
 45
0.0
 46
0.0
 47
0.0
 48
0.0
 49
0.0
140
0.0
141
0.0
142
1.0
143
1.0
 70
  1712
 72
     0
 73
     0
 74
     0
  7

 75
     0
 76
     0
 77
     2
 78
   300
147
1.0
148
0.0
149
0.0
100
AcDbLayout
  1
Model
 70
     1
 71
     0
 10
0.0
 20
0.0
 11
12.0
 21
9.0
 12
0.0
 22
0.0
 32
0.0
 14
0.0
 24
-0.0000000000001137
 34
0.0
 15
297.0
 25
210.0
 35
0.0
146
0.0
 13
0.0
 23
0.0
 33
0.0
 16
1.0
 26
0.0
 36
0.0
 17
0.0
 27
1.0
 37
0.0
 76
     0
330
1F
331
29
  0
MATERIAL
  5
3D
102
{ACAD_REACTORS
330
3B
102
}
330
3B
100
AcDbMaterial
  1
ByBlock
 72
     1
 94
      127
  0
MATERIAL
  5
3C
102
{ACAD_REACTORS
330
3B
102
}
330
3B
100
AcDbMaterial
  1
ByLayer
 72
     1
 94
      127
  0
MATERIAL
  5
3E
102
{ACAD_REACTORS
330
3B
102
}
330
3B
100
AcDbMaterial
  1
Global
 72
     1
 94
      127
  0
MLINESTYLE
  5
18
102
{ACAD_REACTORS
330
17
102
}
330
17
100
AcDbMlineStyle
  2
Standard
 70
     0
  3

 62
   256
 51
90.0
 52
90.0
 71
     2
 49
0.5
 62
   256
  6
BYLAYER
 49
-0.5
 62
   256
  6
BYLAYER
  0
ACDBPLACEHOLDER
  5
F
102
{ACAD_REACTORS
330
E
102
}
330
E
  0
VISUALSTYLE
  5
2F
102
{ACAD_REACTORS
330
2A
102
}
330
2A
100
AcDbVisualStyle
  2
2dWireframe
 70
     4
177
     2
291
     0
 71
     0
176
     1
 72
     2
176
     1
 73
     0
176
     1
 90
        0
176
     1
 40
-0.6
176
     1
 41
-30.0
176
     1
 62
     5
 63
     7
421
 16777215
176
     1
 74
     1
176
     1
 91
        4
176
     1
 64
     7
176
     1
 65
   257
176
     1
 75
     1
176
     1
175
     1
176
     1
 42
1.0
176
     1
 92
        0
176
     1
 66
   257
176
     1
 43
1.0
176
     1
 76
     1
176
     1
 77
     6
176
     1
 78
     2
176
     1
 67
     7
176
     1
 79
     5
176
     1
170
     0
176
     1
171
     0
176
     1
290
     0
176
     1
 93
        1
176
     1
 44
0.0
176
     1
173
     0
176
     1
  0
VISUALSTYLE
  5
31
102
{ACAD_REACTORS
330
2A
102
}
330
2A
100
AcDbVisualStyle
  2
3D Hidden
 70
     6
177
     2
291
     0
 71
     1
176
     1
 72
     2
176
     1
 73
     2
176
     1
 90
        0
176
     1
 40
-0.6
176
     1
 41
-30.0
176
     1
 62
     5
 63
     7
421
 16777215
176
     1
 74
     2
176
     1
 91
        2
176
     1
 64
     7
176
     1
 65
   257
176
     1
 75
     2
176
     1
175
     1
176
     1
 42
40.0
176
     1
 92
        0
176
     1
 66
   257
176
     1
 43
1.0
176
     1
 76
     1
176
     1
 77
     6
176
     1
 78
     2
176
     1
 67
     7
176
     1
 79
     3
176
     1
170
     0
176
     1
171
     0
176
     1
290
     0
176
     1
 93
        1
176
     1
 44
0.0
176
     1
173
     0
176
     1
  0
VISUALSTYLE
  5
30
102
{ACAD_REACTORS
330
2A
102
}
330
2A
100
AcDbVisualStyle
  2
3dWireframe
 70
     5
177
     2
291
     0
 71
     0
176
     1
 72
     2
176
     1
 73
     0
176
     1
 90
        0
176
     1
 40
-0.6
176
     1
 41
-30.0
176
     1
 62
     5
 63
     7
421
 16777215
176
     1
 74
     1
176
     1
 91
        4
176
     1
 64
     7
176
     1
 65
   257
176
     1
 75
     1
176
     1
175
     1
176
     1
 42
1.0
176
     1
 92
        0
176
     1
 66
   257
176
     1
 43
1.0
176
     1
 76
     1
176
     1
 77
     6
176
     1
 78
     2
176
     1
 67
     7
176
     1
 79
     5
176
     1
170
     0
176
     1
171
     0
176
     1
290
     0
176
     1
 93
        1
176
     1
 44
0.0
176
     1
173
     0
176
     1
  0
VISUALSTYLE
  5
32
102
{ACAD_REACTORS
330
2A
102
}
330
2A
100
AcDbVisualStyle
  2
Basic
 70
     7
177
     2
291
     1
 71
     1
176
     1
 72
     0
176
     1
 73
     1
176
     1
 90
        0
176
     1
 40
-0.6
176
     1
 41
-30.0
176
     1
 62
     5
 63
     7
421
 16777215
176
     1
 74
     0
176
     1
 91
        4
176
     1
 64
     7
176
     1
 65
   257
176
     1
 75
     1
176
     1
175
     1
176
     1
 42
1.0
176
     1
 92
        8
176
     1
 66
     7
176
     1
 43
1.0
176
     1
 76
     1
176
     1
 77
     6
176
     1
 78
     2
176
     1
 67
     7
176
     1
 79
     5
176
     1
170
     0
176
     1
171
     0
176
     1
290
     0
176
     1
 93
        1
176
     1
 44
0.0
176
     1
173
     0
176
     1
  0
VISUALSTYLE
  5
36
102
{ACAD_REACTORS
330
2A
102
}
330
2A
100
AcDbVisualStyle
  2
Brighten
 70
    12
177
     2
291
     1
 71
     2
176
     1
 72
     2
176
     1
 73
     0
176
     1
 90
        0
176
     1
 40
-0.6
176
     1
 41
-30.0
176
     1
 62
     5
 63
     7
421
 16777215
176
     1
 74
     1
176
     1
 91
        4
176
     1
 64
     7
176
     1
 65
   257
176
     1
 75
     1
176
     1
175
     1
176
     1
 42
1.0
176
     1
 92
        8
176
     1
 66
     7
176
     1
 43
1.0
176
     1
 76
     1
176
     1
 77
     6
176
     1
 78
     2
176
     1
 67
     7
176
     1
 79
     5
176
     1
170
     0
176
     1
171
     0
176
     1
290
     0
176
     1
 93
        1
176
     1
 44
50.0
176
     1
173
     0
176
     1
  0
VISUALSTYLE
  5
3A
102
{ACAD_REACTORS
330
2A
102
}
330
2A
100
AcDbVisualStyle
  2
ColorChange
 70
    16
177
     2
291
     1
 71
     2
176
     1
 72
     2
176
     1
 73
     3
176
     1
 90
        0
176
     1
 40
-0.6
176
     1
 41
-30.0
176
     1
 62
     5
 63
     8
421
  8421504
176
     1
 74
     1
176
     1
 91
        4
176
     1
 64
     7
176
     1
 65
   257
176
     1
 75
     1
176
     1
175
     1
176
     1
 42
1.0
176
     1
 92
        8
176
     1
 66
     8
424
  8421504
176
     1
 43
1.0
176
     1
 76
     1
176
     1
 77
     6
176
     1
 78
     2
176
     1
 67
     7
176
     1
 79
     5
176
     1
170
     0
176
     1
171
     0
176
     1
290
     0
176
     1
 93
        1
176
     1
 44
0.0
176
     1
173
     0
176
     1
  0
VISUALSTYLE
  5
34
102
{ACAD_REACTORS
330
2A
102
}
330
2A
100
AcDbVisualStyle
  2
Conceptual
 70
     9
177
     2
291
     0
 71
     3
176
     1
 72
     2
176
     1
 73
     0
176
     1
 90
        0
176
     1
 40
-0.6
176
     1
 41
-30.0
176
     1
 62
     5
 63
     7
421
 16777215
176
     1
 74
     2
176
     1
 91
        2
176
     1
 64
     7
176
     1
 65
   257
176
     1
 75
     1
176
     1
175
     1
176
     1
 42
40.0
176
     1
 92
        8
176
     1
 66
     7
176
     1
 43
1.0
176
     1
 76
     1
176
     1
 77
     6
176
     1
 78
     2
176
     1
 67
     7
176
     1
 79
     3
176
     1
170
     0
176
     1
171
     0
176
     1
290
     0
176
     1
 93
        1
176
     1
 44
0.0
176
     1
173
     0
176
     1
  0
VISUALSTYLE
  5
35
102
{ACAD_REACTORS
330
2A
102
}
330
2A
100
AcDbVisualStyle
  2
Dim
 70
    11
177
     2
291
     1
 71
     2
176
     1
 72
     2
176
     1
 73
     0
176
     1
 90
        0
176
     1
 40
-0.6
176
     1
 41
-30.0
176
     1
 62
     5
 63
     7
421
 16777215
176
     1
 74
     1
176
     1
 91
        4
176
     1
 64
     7
176
     1
 65
   257
176
     1
 75
     1
176
     1
175
     1
176
     1
 42
1.0
176
     1
 92
        8
176
     1
 66
     7
176
     1
 43
1.0
176
     1
 76
     1
176
     1
 77
     6
176
     1
 78
     2
176
     1
 67
     7
176
     1
 79
     5
176
     1
170
     0
176
     1
171
     0
176
     1
290
     0
176
     1
 93
        1
176
     1
 44
-50.0
176
     1
173
     0
176
     1
  0
VISUALSTYLE
  5
39
102
{ACAD_REACTORS
330
2A
102
}
330
2A
100
AcDbVisualStyle
  2
Facepattern
 70
    15
177
     2
291
     1
 71
     2
176
     1
 72
     2
176
     1
 73
     0
176
     1
 90
        0
176
     1
 40
-0.6
176
     1
 41
-30.0
176
     1
 62
     5
 63
     7
421
 16777215
176
     1
 74
     1
176
     1
 91
        4
176
     1
 64
     7
176
     1
 65
   257
176
     1
 75
     1
176
     1
175
     1
176
     1
 42
1.0
176
     1
 92
        8
176
     1
 66
     7
176
     1
 43
1.0
176
     1
 76
     1
176
     1
 77
     6
176
     1
 78
     2
176
     1
 67
     7
176
     1
 79
     5
176
     1
170
     0
176
     1
171
     0
176
     1
290
     0
176
     1
 93
        1
176
     1
 44
0.0
176
     1
173
     0
176
     1
  0
VISUALSTYLE
  5
2B
102
{ACAD_REACTORS
330
2A
102
}
330
2A
100
AcDbVisualStyle
  2
Flat
 70
     0
177
     2
291
     1
 71
     2
176
     1
 72
     1
176
     1
 73
     1
176
     1
 90
        2
176
     1
 40
-0.6
176
     1
 41
30.0
176
     1
 62
     5
 63
     7
421
 16777215
176
     1
 74
     0
176
     1
 91
        4
176
     1
 64
     7
176
     1
 65
   257
176
     1
 75
     1
176
     1
175
     1
176
     1
 42
1.0
176
     1
 92
        8
176
     1
 66
     7
176
     1
 43
1.0
176
     1
 76
     1
176
     1
 77
     6
176
     1
 78
     2
176
     1
 67
     7
176
     1
 79
     5
176
     1
170
     0
176
     1
171
     0
176
     1
290
     0
176
     1
 93
       13
176
     1
 44
0.0
176
     1
173
     0
176
     1
  0
VISUALSTYLE
  5
2C
102
{ACAD_REACTORS
330
2A
102
}
330
2A
100
AcDbVisualStyle
  2
FlatWithEdges
 70
     1
177
     2
291
     1
 71
     2
176
     1
 72
     1
176
     1
 73
     1
176
     1
 90
        2
176
     1
 40
-0.6
176
     1
 41
30.0
176
     1
 62
     5
 63
     7
421
 16777215
176
     1
 74
     1
176
     1
 91
        4
176
     1
 64
     7
176
     1
 65
   257
176
     1
 75
     1
176
     1
175
     1
176
     1
 42
1.0
176
     1
 92
        0
176
     1
 66
   257
176
     1
 43
1.0
176
     1
 76
     1
176
     1
 77
     6
176
     1
 78
     2
176
     1
 67
     7
176
     1
 79
     5
176
     1
170
     0
176
     1
171
     0
176
     1
290
     0
176
     1
 93
       13
176
     1
 44
0.0
176
     1
173
     0
176
     1
  0
VISUALSTYLE
  5
2D
102
{ACAD_REACTORS
330
2A
102
}
330
2A
100
AcDbVisualStyle
  2
Gouraud
 70
     2
177
     2
291
     1
 71
     2
176
     1
 72
     2
176
     1
 73
     1
176
     1
 90
        2
176
     1
 40
-0.6
176
     1
 41
30.0
176
     1
 62
     5
 63
     7
421
 16777215
176
     1
 74
     0
176
     1
 91
        4
176
     1
 64
     7
176
     1
 65
   257
176
     1
 75
     1
176
     1
175
     1
176
     1
 42
1.0
176
     1
 92
        0
176
     1
 66
     7
176
     1
 43
1.0
176
     1
 76
     1
176
     1
 77
     6
176
     1
 78
     2
176
     1
 67
     7
176
     1
 79
     5
176
     1
170
     0
176
     1
171
     0
176
     1
290
     0
176
     1
 93
       13
176
     1
 44
0.0
176
     1
173
     0
176
     1
  0
VISUALSTYLE
  5
2E
102
{ACAD_REACTORS
330
2A
102
}
330
2A
100
AcDbVisualStyle
  2
GouraudWithEdges
 70
     3
177
     2
291
     1
 71
     2
176
     1
 72
     2
176
     1
 73
     1
176
     1
 90
        2
176
     1
 40
-0.6
176
     1
 41
30.0
176
     1
 62
     5
 63
     7
421
 16777215
176
     1
 74
     1
176
     1
 91
        4
176
     1
 64
     7
176
     1
 65
   257
176
     1
 75
     1
176
     1
175
     1
176
     1
 42
1.0
176
     1
 92
        0
176
     1
 66
   257
176
     1
 43
1.0
176
     1
 76
     1
176
     1
 77
     6
176
     1
 78
     2
176
     1
 67
     7
176
     1
 79
     5
176
     1
170
     0
176
     1
171
     0
176
     1
290
     0
176
     1
 93
       13
176
     1
 44
0.0
176
     1
173
     0
176
     1
  0
VISUALSTYLE
  5
38
102
{ACAD_REACTORS
330
2A
102
}
330
2A
100
AcDbVisualStyle
  2
Linepattern
 70
    14
177
     2
291
     1
 71
     2
176
     1
 72
     2
176
     1
 73
     0
176
     1
 90
        0
176
     1
 40
-0.6
176
     1
 41
-30.0
176
     1
 62
     5
 63
     7
421
 16777215
176
     1
 74
     1
176
     1
 91
        4
176
     1
 64
     7
176
     1
 65
   257
176
     1
 75
     7
176
     1
175
     7
176
     1
 42
1.0
176
     1
 92
        8
176
     1
 66
     7
176
     1
 43
1.0
176
     1
 76
     1
176
     1
 77
     6
176
     1
 78
     2
176
     1
 67
     7
176
     1
 79
     5
176
     1
170
     0
176
     1
171
     0
176
     1
290
     0
176
     1
 93
        1
176
     1
 44
0.0
176
     1
173
     0
176
     1
  0
VISUALSTYLE
  5
33
102
{ACAD_REACTORS
330
2A
102
}
330
2A
100
AcDbVisualStyle
  2
Realistic
 70
     8
177
     2
291
     0
 71
     2
176
     1
 72
     2
176
     1
 73
     0
176
     1
 90
        0
176
     1
 40
-0.6
176
     1
 41
-30.0
176
     1
 62
     5
 63
     7
421
 16777215
176
     1
 74
     1
176
     1
 91
        0
176
     1
 64
     7
176
     1
 65
   257
176
     1
 75
     1
176
     1
175
     1
176
     1
 42
1.0
176
     1
 92
        8
176
     1
 66
     8
424
  7895160
176
     1
 43
1.0
176
     1
 76
     1
176
     1
 77
     6
176
     1
 78
     2
176
     1
 67
     7
176
     1
 79
     5
176
     1
170
     0
176
     1
171
     0
176
     1
290
     0
176
     1
 93
       13
176
     1
 44
0.0
176
     1
173
     0
176
     1
  0
VISUALSTYLE
  5
37
102
{ACAD_REACTORS
330
2A
102
}
330
2A
100
AcDbVisualStyle
  2
Thicken
 70
    13
177
     2
291
     1
 71
     2
176
     1
 72
     2
176
     1
 73
     0
176
     1
 90
        0
176
     1
 40
-0.6
176
     1
 41
-30.0
176
     1
 62
     5
 63
     7
421
 16777215
176
     1
 74
     1
176
     1
 91
        4
176
     1
 64
     7
176
     1
 65
   257
176
     1
 75
     1
176
     1
175
     1
176
     1
 42
1.0
176
     1
 92
       12
176
     1
 66
     7
176
     1
 43
1.0
176
     1
 76
     1
176
     1
 77
     6
176
     1
 78
     2
176
     1
 67
     7
176
     1
 79
     5
176
     1
170
     0
176
     1
171
     0
176
     1
290
     0
176
     1
 93
        1
176
     1
 44
0.0
176
     1
173
     0
176
     1
  0
ENDSEC
  0
EOF
