  0
SECTION
  2
HEADER
  9
$ACADVER
  1
AC1024
  9
$ACADMAINTVER
 70
     6
  9
$DWGCODEPAGE
  3
ANSI_1252
  9
$COMMENTS
  1
File was created by ARCHline.XP2011
  9
$INSBASE
 10
0.0
 20
0.0
 30
0.0
  9
$EXTMIN
 10
-0.0000000000000568
 20
-0.0000000000001137
 30
0.0
  9
$EXTMAX
 10
297.0
 20
210.0
 30
0.0
  9
$LIMMIN
 10
0.0
 20
0.0
  9
$LIMMAX
 10
12.0
 20
9.0
  9
$ORTHOMODE
 70
     0
  9
$REGENMODE
 70
     1
  9
$FILLMODE
 70
     1
  9
$QTEXTMODE
 70
     0
  9
$MIRRTEXT
 70
     1
  9
$LTSCALE
 40
1.0
  9
$ATTMODE
 70
     1
  9
$TEXTSIZE
 40
0.2
  9
$TRACEWID
 40
0.05
  9
$TEXTSTYLE
  7
Standard
  9
$CLAYER
  8
0
  9
$CELTYPE
  6
ByLayer
  9
$CECOLOR
 62
   256
  9
$CELTSCALE
 40
1.0
  9
$DISPSILH
 70
     0
  9
$DIMSCALE
 40
1.0
  9
$DIMASZ
 40
0.18
  9
$DIMEXO
 40
0.0625
  9
$DIMDLI
 40
0.38
  9
$DIMRND
 40
0.0
  9
$DIMDLE
 40
0.0
  9
$DIMEXE
 40
0.18
  9
$DIMTP
 40
0.0
  9
$DIMTM
 40
0.0
  9
$DIMTXT
 40
0.18
  9
$DIMCEN
 40
0.09
  9
$DIMTSZ
 40
0.0
  9
$DIMTOL
 70
     0
  9
$DIMLIM
 70
     0
  9
$DIMTIH
 70
     1
  9
$DIMTOH
 70
     1
  9
$DIMSE1
 70
     0
  9
$DIMSE2
 70
     0
  9
$DIMTAD
 70
     0
  9
$DIMZIN
 70
     0
  9
$DIMBLK
  1

  9
$DIMASO
 70
     1
  9
$DIMSHO
 70
     1
  9
$DIMPOST
  1

  9
$DIMAPOST
  1

  9
$DIMALT
 70
     0
  9
$DIMALTD
 70
     2
  9
$DIMALTF
 40
25.4
  9
$DIMLFAC
 40
1.0
  9
$DIMTOFL
 70
     0
  9
$DIMTVP
 40
0.0
  9
$DIMTIX
 70
     0
  9
$DIMSOXD
 70
     0
  9
$DIMSAH
 70
     0
  9
$DIMBLK1
  1

  9
$DIMBLK2
  1

  9
$DIMSTYLE
  2
Standard
  9
$DIMCLRD
 70
     0
  9
$DIMCLRE
 70
     0
  9
$DIMCLRT
 70
     0
  9
$DIMTFAC
 40
1.0
  9
$DIMGAP
 40
0.09
  9
$DIMJUST
 70
     0
  9
$DIMSD1
 70
     0
  9
$DIMSD2
 70
     0
  9
$DIMTOLJ
 70
     1
  9
$DIMTZIN
 70
     0
  9
$DIMALTZ
 70
     0
  9
$DIMALTTZ
 70
     0
  9
$DIMUPT
 70
     0
  9
$DIMDEC
 70
     4
  9
$DIMTDEC
 70
     4
  9
$DIMALTU
 70
     2
  9
$DIMALTTD
 70
     2
  9
$DIMTXSTY
  7
Standard
  9
$DIMAUNIT
 70
     0
  9
$DIMADEC
 70
     0
  9
$DIMALTRND
 40
0.0
  9
$DIMAZIN
 70
     0
  9
$DIMDSEP
 70
    46
  9
$DIMATFIT
 70
     3
  9
$DIMFRAC
 70
     0
  9
$DIMLDRBLK
  1

  9
$DIMLUNIT
 70
     2
  9
$DIMLWD
 70
    -2
  9
$DIMLWE
 70
    -2
  9
$DIMTMOVE
 70
     0
  9
$DIMFXL
 40
1.0
  9
$DIMFXLON
 70
     0
  9
$DIMJOGANG
 40
0.7853981633974483
  9
$DIMTFILL
 70
     0
  9
$DIMTFILLCLR
 70
     0
  9
$DIMARCSYM
 70
     0
  9
$DIMLTYPE
  6

  9
$DIMLTEX1
  6

  9
$DIMLTEX2
  6

  9
$DIMTXTDIRECTION
 70
     0
  9
$LUNITS
 70
     2
  9
$LUPREC
 70
     4
  9
$SKETCHINC
 40
0.1
  9
$FILLETRAD
 40
0.5
  9
$AUNITS
 70
     0
  9
$AUPREC
 70
     0
  9
$MENU
  1
.
  9
$ELEVATION
 40
0.0
  9
$PELEVATION
 40
0.0
  9
$THICKNESS
 40
0.0
  9
$LIMCHECK
 70
     0
  9
$CHAMFERA
 40
0.5
  9
$CHAMFERB
 40
0.5
  9
$CHAMFERC
 40
1.0
  9
$CHAMFERD
 40
0.0
  9
$SKPOLY
 70
     0
  9
$TDCREATE
 40
2457528.471663935
  9
$TDUCREATE
 40
2457528.388330602
  9
$TDUPDATE
 40
2457528.471667894
  9
$TDUUPDATE
 40
2457528.38833456
  9
$TDINDWG
 40
0.0000000116
  9
$TDUSRTIMER
 40
0.0000000116
  9
$USRTIMER
 70
     1
  9
$ANGBASE
 50
0.0
  9
$ANGDIR
 70
     0
  9
$PDMODE
 70
     0
  9
$PDSIZE
 40
0.0
  9
$PLINEWID
 40
0.0
  9
$SPLFRAME
 70
     0
  9
$SPLINETYPE
 70
     6
  9
$SPLINESEGS
 70
     8
  9
$HANDSEED
  5
2C3
  9
$SURFTAB1
 70
     6
  9
$SURFTAB2
 70
     6
  9
$SURFTYPE
 70
     6
  9
$SURFU
 70
     6
  9
$SURFV
 70
     6
  9
$UCSBASE
  2

  9
$UCSNAME
  2

  9
$UCSORG
 10
0.0
 20
0.0
 30
0.0
  9
$UCSXDIR
 10
1.0
 20
0.0
 30
0.0
  9
$UCSYDIR
 10
0.0
 20
1.0
 30
0.0
  9
$UCSORTHOREF
  2

  9
$UCSORTHOVIEW
 70
     0
  9
$UCSORGTOP
 10
0.0
 20
0.0
 30
0.0
  9
$UCSORGBOTTOM
 10
0.0
 20
0.0
 30
0.0
  9
$UCSORGLEFT
 10
0.0
 20
0.0
 30
0.0
  9
$UCSORGRIGHT
 10
0.0
 20
0.0
 30
0.0
  9
$UCSORGFRONT
 10
0.0
 20
0.0
 30
0.0
  9
$UCSORGBACK
 10
0.0
 20
0.0
 30
0.0
  9
$PUCSBASE
  2

  9
$PUCSNAME
  2

  9
$PUCSORG
 10
0.0
 20
0.0
 30
0.0
  9
$PUCSXDIR
 10
1.0
 20
0.0
 30
0.0
  9
$PUCSYDIR
 10
0.0
 20
1.0
 30
0.0
  9
$PUCSORTHOREF
  2

  9
$PUCSORTHOVIEW
 70
     0
  9
$PUCSORGTOP
 10
0.0
 20
0.0
 30
0.0
  9
$PUCSORGBOTTOM
 10
0.0
 20
0.0
 30
0.0
  9
$PUCSORGLEFT
 10
0.0
 20
0.0
 30
0.0
  9
$PUCSORGRIGHT
 10
0.0
 20
0.0
 30
0.0
  9
$PUCSORGFRONT
 10
0.0
 20
0.0
 30
0.0
  9
$PUCSORGBACK
 10
0.0
 20
0.0
 30
0.0
  9
$USERI1
 70
     0
  9
$USERI2
 70
     0
  9
$USERI3
 70
     0
  9
$USERI4
 70
     0
  9
$USERI5
 70
     0
  9
$USERR1
 40
0.0
  9
$USERR2
 40
0.0
  9
$USERR3
 40
0.0
  9
$USERR4
 40
0.0
  9
$USERR5
 40
0.0
  9
$WORLDVIEW
 70
     1
  9
$SHADEDGE
 70
     3
  9
$SHADEDIF
 70
    70
  9
$TILEMODE
 70
     1
  9
$MAXACTVP
 70
    64
  9
$PINSBASE
 10
0.0
 20
0.0
 30
0.0
  9
$PLIMCHECK
 70
     0
  9
$PEXTMIN
 10
1.000000000000000E+20
 20
1.000000000000000E+20
 30
1.000000000000000E+20
  9
$PEXTMAX
 10
-1.000000000000000E+20
 20
-1.000000000000000E+20
 30
-1.000000000000000E+20
  9
$PLIMMIN
 10
0.0
 20
0.0
  9
$PLIMMAX
 10
12.0
 20
9.0
  9
$UNITMODE
 70
     0
  9
$VISRETAIN
 70
     1
  9
$PLINEGEN
 70
     0
  9
$PSLTSCALE
 70
     1
  9
$TREEDEPTH
 70
  3020
  9
$CMLSTYLE
  2
Standard
  9
$CMLJUST
 70
     0
  9
$CMLSCALE
 40
1.0
  9
$PROXYGRAPHICS
 70
     1
  9
$MEASUREMENT
 70
     0
  9
$CELWEIGHT
370
    -1
  9
$ENDCAPS
280
     0
  9
$JOINSTYLE
280
     0
  9
$LWDISPLAY
290
     0
  9
$INSUNITS
 70
     1
  9
$HYPERLINKBASE
  1

  9
$STYLESHEET
  1

  9
$XEDIT
290
     1
  9
$CEPSNTYPE
380
     0
  9
$PSTYLEMODE
290
     1
  9
$FINGERPRINTGUID
  2
{7E115CCB-89DF-4A8F-B667-92EC447F238C}
  9
$VERSIONGUID
  2
{FAEB1C32-E019-11D5-929B-00C0DF256EC4}
  9
$EXTNAMES
290
     1
  9
$PSVPSCALE
 40
0.0
  9
$OLESTARTUP
290
     0
  9
$SORTENTS
280
   127
  9
$INDEXCTL
280
     0
  9
$HIDETEXT
280
     1
  9
$XCLIPFRAME
280
     2
  9
$HALOGAP
280
     0
  9
$OBSCOLOR
 70
   257
  9
$OBSLTYPE
280
     0
  9
$INTERSECTIONDISPLAY
280
     0
  9
$INTERSECTIONCOLOR
 70
   257
  9
$DIMASSOC
280
     2
  9
$PROJECTNAME
  1

  9
$CAMERADISPLAY
290
     0
  9
$LENSLENGTH
 40
50.0
  9
$CAMERAHEIGHT
 40
0.0
  9
$STEPSPERSEC
 40
2.0
  9
$STEPSIZE
 40
6.0
  9
$3DDWFPREC
 40
2.0
  9
$PSOLWIDTH
 40
0.25
  9
$PSOLHEIGHT
 40
4.0
  9
$LOFTANG1
 40
1.570796326794897
  9
$LOFTANG2
 40
1.570796326794897
  9
$LOFTMAG1
 40
0.0
  9
$LOFTMAG2
 40
0.0
  9
$LOFTPARAM
 70
     7
  9
$LOFTNORMALS
280
     1
  9
$LATITUDE
 40
37.795
  9
$LONGITUDE
 40
-122.394
  9
$NORTHDIRECTION
 40
0.0
  9
$TIMEZONE
 70
 -8000
  9
$LIGHTGLYPHDISPLAY
280
     1
  9
$TILEMODELIGHTSYNCH
280
     1
  9
$SOLIDHIST
280
     1
  9
$SHOWHIST
280
     1
  9
$DWFFRAME
280
     2
  9
$DGNFRAME
280
     2
  9
$REALWORLDSCALE
290
     1
  9
$INTERFERECOLOR
 62
   256
  9
$CSHADOW
280
     0
  9
$SHADOWPLANELOCATION
 40
0.0
  0
ENDSEC
  0
SECTION
  2
CLASSES
  0
CLASS
  1
ACDBDICTIONARYWDFLT
  2
AcDbDictionaryWithDefault
  3
ObjectDBX Classes
 90
        0
 91
        4
280
     0
281
     0
  0
CLASS
  1
VISUALSTYLE
  2
AcDbVisualStyle
  3
ObjectDBX Classes
 90
     4095
 91
        4
280
     0
281
     0
  0
CLASS
  1
MATERIAL
  2
AcDbMaterial
  3
ObjectDBX Classes
 90
     1153
 91
        4
280
     0
281
     0
  0
CLASS
  1
IMAGEDEF
  2
AcDbRasterImageDef
  3
ISM
 90
        0
 91
        4
280
     0
281
     0
  0
CLASS
  1
IMAGE
  2
AcDbRasterImage
  3
ISM
 90
      127
 91
        5
280
     0
281
     1
  0
CLASS
  1
IMAGEDEF_REACTOR
  2
AcDbRasterImageDefReactor
  3
ISM
 90
        1
 91
        4
280
     0
281
     0
  0
ENDSEC
  0
SECTION
  2
TABLES
  0
TABLE
  2
VPORT
  5
8
330
0
100
AcDbSymbolTable
 70
     1
  0
VPORT
  5
29
330
8
100
AcDbSymbolTableRecord
100
AcDbViewportTableRecord
  2
*Active
 70
     0
 10
0.0
 20
0.0
 11
1.0
 21
1.0
 12
10.42990654205607
 22
4.5
 13
0.0
 23
0.0
 14
0.5
 24
0.5
 15
0.5
 25
0.5
 16
0.0
 26
0.0
 36
1.0
 17
0.0
 27
0.0
 37
0.0
 40
9.0
 41
1.972972972850329
 42
50.0
 43
0.0
 44
0.0
 50
0.0
 51
0.0
 71
     0
 72
   100
 73
     1
 74
     3
 75
     0
 76
     0
 77
     0
 78
     0
281
     0
 65
     1
110
0.0
120
0.0
130
0.0
111
1.0
121
0.0
131
0.0
112
0.0
122
1.0
132
0.0
 79
     0
146
0.0
 60
     3
 61
     5
292
     1
282
     1
141
0.0
142
0.0
 63
   250
  0
ENDTAB
  0
TABLE
  2
LTYPE
  5
5
330
0
100
AcDbSymbolTable
 70
    92
  0
LTYPE
  5
14
330
5
100
AcDbSymbolTableRecord
100
AcDbLinetypeTableRecord
  2
ByBlock
 70
     0
  3

 72
    65
 73
     0
 40
0.0
  0
LTYPE
  5
15
330
5
100
AcDbSymbolTableRecord
100
AcDbLinetypeTableRecord
  2
ByLayer
 70
     0
  3

 72
    65
 73
     0
 40
0.0
  0
LTYPE
  5
16
330
5
100
AcDbSymbolTableRecord
100
AcDbLinetypeTableRecord
  2
Continuous
 70
     0
  3
Solid line
 72
    65
 73
     0
 40
0.0
  0
LTYPE
  5
3F
330
5
100
AcDbSymbolTableRecord
100
AcDbLinetypeTableRecord
  2
HIDDEN
 70
     0
  3
_ _ _ _ _ _ _ _ _ _ _ _ _ _ _ _ _ _ _ _ _ _ _
 72
    65
 73
     2
 40
0.375
 49
0.25
 74
     0
 49
-0.125
 74
     0
  0
LTYPE
  5
40
330
5
100
AcDbSymbolTableRecord
100
AcDbLinetypeTableRecord
  2
CENTER
 70
     0
  3
____ _ ____ _ ____ _ ____ _ ____ _ ____ _ ____
 72
    65
 73
     4
 40
2.0
 49
1.25
 74
     0
 49
-0.25
 74
     0
 49
0.25
 74
     0
 49
-0.25
 74
     0
  0
LTYPE
  5
41
330
5
100
AcDbSymbolTableRecord
100
AcDbLinetypeTableRecord
  2
DASHED
 70
     0
  3
__ __ __ __ __ __ __ __ __ __ __ __ __ __ __
 72
    65
 73
     2
 40
1.5
 49
1.25
 74
     0
 49
-0.25
 74
     0
  0
LTYPE
  5
42
330
5
100
AcDbSymbolTableRecord
100
AcDbLinetypeTableRecord
  2
Gepunktete
 70
     0
  3

 72
    65
 73
     2
 40
1.560000061988831
 49
0.3600000143051147
 74
     0
 49
-1.200000047683716
 74
     0
  0
LTYPE
  5
43
330
5
100
AcDbSymbolTableRecord
100
AcDbLinetypeTableRecord
  2
Strichpunktierte
 70
     0
  3

 72
    65
 73
     4
 40
4.920000046491623
 49
3.0
 74
     0
 49
-0.7200000286102295
 74
     0
 49
0.4799999892711639
 74
     0
 49
-0.7200000286102295
 74
     0
  0
LTYPE
  5
44
330
5
100
AcDbSymbolTableRecord
100
AcDbLinetypeTableRecord
  2
Strichellinie
 70
     0
  3

 72
    65
 73
     2
 40
2.399999976158142
 49
1.799999952316284
 74
     0
 49
-0.6000000238418579
 74
     0
  0
LTYPE
  5
45
330
5
100
AcDbSymbolTableRecord
100
AcDbLinetypeTableRecord
  2
2Punkt
 70
     0
  3

 72
    65
 73
     6
 40
6.120000123977661
 49
3.0
 74
     0
 49
-0.7200000286102295
 74
     0
 49
0.4800000190734863
 74
     0
 49
-0.7200000286102295
 74
     0
 49
0.4800000190734863
 74
     0
 49
-0.7200000286102295
 74
     0
  0
LTYPE
  5
46
330
5
100
AcDbSymbolTableRecord
100
AcDbLinetypeTableRecord
  2
2Punkt-2Abstand
 70
     0
  3

 72
    65
 73
     6
 40
8.28000020980835
 49
3.0
 74
     0
 49
-1.440000057220459
 74
     0
 49
0.4800000190734863
 74
     0
 49
-1.440000057220459
 74
     0
 49
0.4800000190734863
 74
     0
 49
-1.440000057220459
 74
     0
  0
LTYPE
  5
47
330
5
100
AcDbSymbolTableRecord
100
AcDbLinetypeTableRecord
  2
2Punkt-3Abstand
 70
     0
  3

 72
    65
 73
     6
 40
11.26800036430359
 49
3.0
 74
     0
 49
-2.436000108718872
 74
     0
 49
0.4800000190734863
 74
     0
 49
-2.436000108718872
 74
     0
 49
0.4800000190734863
 74
     0
 49
-2.436000108718872
 74
     0
  0
LTYPE
  5
48
330
5
100
AcDbSymbolTableRecord
100
AcDbLinetypeTableRecord
  2
Gepunktete Var.2
 70
     0
  3

 72
    65
 73
     2
 40
3.120000004768372
 49
0.3600000143051147
 74
     0
 49
-2.759999990463257
 74
     0
  0
LTYPE
  5
49
330
5
100
AcDbSymbolTableRecord
100
AcDbLinetypeTableRecord
  2
Gepunktete Var.3
 70
     0
  3

 72
    65
 73
     2
 40
4.679999709129333
 49
0.3600000143051147
 74
     0
 49
-4.319999694824219
 74
     0
  0
LTYPE
  5
4A
330
5
100
AcDbSymbolTableRecord
100
AcDbLinetypeTableRecord
  2
Gepunktete Var.4
 70
     0
  3

 72
    65
 73
     4
 40
4.319999814033508
 49
0.3600000143051147
 74
     0
 49
-1.199999928474426
 74
     0
 49
0.3600000143051147
 74
     0
 49
-2.399999856948853
 74
     0
  0
LTYPE
  5
4B
330
5
100
AcDbSymbolTableRecord
100
AcDbLinetypeTableRecord
  2
Gepunktete Var.5
 70
     0
  3

 72
    65
 73
     4
 40
4.319999814033508
 49
0.3600000143051147
 74
     0
 49
-1.199999928474426
 74
     0
 49
0.3600000143051147
 74
     0
 49
-2.399999856948853
 74
     0
  0
LTYPE
  5
4C
330
5
100
AcDbSymbolTableRecord
100
AcDbLinetypeTableRecord
  2
Gepunktete Var.6
 70
     0
  3

 72
    65
 73
     6
 40
7.079999685287476
 49
0.3600000143051147
 74
     0
 49
-1.199999928474426
 74
     0
 49
0.3600000143051147
 74
     0
 49
-2.399999856948853
 74
     0
 49
0.3600000143051147
 74
     0
 49
-2.399999856948853
 74
     0
  0
LTYPE
  5
4D
330
5
100
AcDbSymbolTableRecord
100
AcDbLinetypeTableRecord
  2
Strichlierte Var.2
 70
     0
  3

 72
    65
 73
     2
 40
3.599999904632568
 49
1.799999952316284
 74
     0
 49
-1.799999952316284
 74
     0
  0
LTYPE
  5
4E
330
5
100
AcDbSymbolTableRecord
100
AcDbLinetypeTableRecord
  2
Strichlierte Var.3
 70
     0
  3

 72
    65
 73
     2
 40
5.399999856948853
 49
1.799999952316284
 74
     0
 49
-3.599999904632568
 74
     0
  0
LTYPE
  5
4F
330
5
100
AcDbSymbolTableRecord
100
AcDbLinetypeTableRecord
  2
Strichlierte Var.4
 70
     0
  3

 72
    65
 73
     2
 40
4.199999868869781
 49
3.599999904632568
 74
     0
 49
-0.5999999642372131
 74
     0
  0
LTYPE
  5
50
330
5
100
AcDbSymbolTableRecord
100
AcDbLinetypeTableRecord
  2
Strichlierte Var.5
 70
     0
  3

 72
    65
 73
     2
 40
5.399999856948853
 49
3.599999904632568
 74
     0
 49
-1.799999952316284
 74
     0
  0
LTYPE
  5
51
330
5
100
AcDbSymbolTableRecord
100
AcDbLinetypeTableRecord
  2
Strichlierte Var.6
 70
     0
  3

 72
    65
 73
     2
 40
7.199999809265137
 49
3.599999904632568
 74
     0
 49
-3.599999904632568
 74
     0
  0
LTYPE
  5
52
330
5
100
AcDbSymbolTableRecord
100
AcDbLinetypeTableRecord
  2
Strich-2Abstand
 70
     0
  3

 72
    65
 73
     4
 40
8.999999761581421
 49
1.799999952316284
 74
     0
 49
-1.799999952316284
 74
     0
 49
3.599999904632568
 74
     0
 49
-1.799999952316284
 74
     0
  0
LTYPE
  5
53
330
5
100
AcDbSymbolTableRecord
100
AcDbLinetypeTableRecord
  2
Strich-3Abstand
 70
     0
  3

 72
    65
 73
     6
 40
7.919999837875366
 49
0.3600000143051147
 74
     0
 49
-1.799999952316284
 74
     0
 49
0.3600000143051147
 74
     0
 49
-1.799999952316284
 74
     0
 49
1.799999952316284
 74
     0
 49
-1.799999952316284
 74
     0
  0
LTYPE
  5
54
330
5
100
AcDbSymbolTableRecord
100
AcDbLinetypeTableRecord
  2
Strich-4Abstand
 70
     0
  3

 72
    65
 73
     6
 40
9.359999775886536
 49
1.799999952316284
 74
     0
 49
-1.799999952316284
 74
     0
 49
1.799999952316284
 74
     0
 49
-1.799999952316284
 74
     0
 49
0.3600000143051147
 74
     0
 49
-1.799999952316284
 74
     0
  0
LTYPE
  5
55
330
5
100
AcDbSymbolTableRecord
100
AcDbLinetypeTableRecord
  2
Punktlinie
 70
     0
  3

 72
    65
 73
     6
 40
20.10000000149012
 49
0.0500000007450581
 74
     0
 49
-0.0500000007450581
 74
     0
 49
5.0
 74
     0
 49
-5.0
 74
     0
 49
5.0
 74
     0
 49
-5.0
 74
     0
  0
LTYPE
  5
56
330
5
100
AcDbSymbolTableRecord
100
AcDbLinetypeTableRecord
  2
Punkt-Strichlinie
 70
     0
  3

 72
    65
 73
     6
 40
3.550000000745058
 49
1.0
 74
     0
 49
-0.5
 74
     0
 49
1.0
 74
     0
 49
-0.5
 74
     0
 49
0.0500000007450581
 74
     0
 49
-0.5
 74
     0
  0
LTYPE
  5
57
330
5
100
AcDbSymbolTableRecord
100
AcDbLinetypeTableRecord
  2
Doppelpunkt-Strichlinie
 70
     0
  3

 72
    65
 73
     6
 40
1.350000001490116
 49
0.5
 74
     0
 49
-0.25
 74
     0
 49
0.0500000007450581
 74
     0
 49
-0.25
 74
     0
 49
0.0500000007450581
 74
     0
 49
-0.25
 74
     0
  0
LTYPE
  5
58
330
5
100
AcDbSymbolTableRecord
100
AcDbLinetypeTableRecord
  2
Eigene Linie 27
 70
     0
  3

 72
    65
 73
     6
 40
2.600000001490116
 49
1.0
 74
     0
 49
-0.5
 74
     0
 49
0.0500000007450581
 74
     0
 49
-0.5
 74
     0
 49
0.0500000007450581
 74
     0
 49
-0.5
 74
     0
  0
LTYPE
  5
59
330
5
100
AcDbSymbolTableRecord
100
AcDbLinetypeTableRecord
  2
Eigene Linie 28
 70
     0
  3

 72
    65
 73
     6
 40
1.800000000745058
 49
0.5
 74
     0
 49
-0.25
 74
     0
 49
0.5
 74
     0
 49
-0.25
 74
     0
 49
0.0500000007450581
 74
     0
 49
-0.25
 74
     0
  0
LTYPE
  5
5A
330
5
100
AcDbSymbolTableRecord
100
AcDbLinetypeTableRecord
  2
Eigene Linie 29
 70
     0
  3

 72
    65
 73
     6
 40
0.9250000007450581
 49
0.25
 74
     0
 49
-0.125
 74
     0
 49
0.25
 74
     0
 49
-0.125
 74
     0
 49
0.0500000007450581
 74
     0
 49
-0.125
 74
     0
  0
LTYPE
  5
5B
330
5
100
AcDbSymbolTableRecord
100
AcDbLinetypeTableRecord
  2
Eigene Linie 30
 70
     0
  3

 72
    65
 73
     2
 40
0.3000000007450581
 49
0.0500000007450581
 74
     0
 49
-0.25
 74
     0
  0
LTYPE
  5
5C
330
5
100
AcDbSymbolTableRecord
100
AcDbLinetypeTableRecord
  2
Eigene Linie 31
 70
     0
  3

 72
    65
 73
     2
 40
0.1750000007450581
 49
0.0500000007450581
 74
     0
 49
-0.125
 74
     0
  0
LTYPE
  5
5D
330
5
100
AcDbSymbolTableRecord
100
AcDbLinetypeTableRecord
  2
Eigene Linie 32
 70
     0
  3

 72
    65
 73
     2
 40
0.5500000007450581
 49
0.0500000007450581
 74
     0
 49
-0.5
 74
     0
  0
LTYPE
  5
5E
330
5
100
AcDbSymbolTableRecord
100
AcDbLinetypeTableRecord
  2
Eigene Linie 33
 70
     0
  3

 72
    65
 73
     4
 40
1.050000000745058
 49
0.5
 74
     0
 49
-0.25
 74
     0
 49
0.0500000007450581
 74
     0
 49
-0.25
 74
     0
  0
LTYPE
  5
5F
330
5
100
AcDbSymbolTableRecord
100
AcDbLinetypeTableRecord
  2
Eigene Linie 34
 70
     0
  3

 72
    65
 73
     4
 40
0.5500000007450581
 49
0.25
 74
     0
 49
-0.125
 74
     0
 49
0.0500000007450581
 74
     0
 49
-0.125
 74
     0
  0
LTYPE
  5
60
330
5
100
AcDbSymbolTableRecord
100
AcDbLinetypeTableRecord
  2
Eigene Linie 35
 70
     0
  3

 72
    65
 73
     4
 40
2.050000000745058
 49
1.0
 74
     0
 49
-0.5
 74
     0
 49
0.0500000007450581
 74
     0
 49
-0.5
 74
     0
  0
LTYPE
  5
61
330
5
100
AcDbSymbolTableRecord
100
AcDbLinetypeTableRecord
  2
Eigene Linie 36
 70
     0
  3

 72
    65
 73
     2
 40
0.75
 49
0.5
 74
     0
 49
-0.25
 74
     0
  0
LTYPE
  5
62
330
5
100
AcDbSymbolTableRecord
100
AcDbLinetypeTableRecord
  2
Eigene Linie 37
 70
     0
  3

 72
    65
 73
     2
 40
0.375
 49
0.25
 74
     0
 49
-0.125
 74
     0
  0
LTYPE
  5
63
330
5
100
AcDbSymbolTableRecord
100
AcDbLinetypeTableRecord
  2
Eigene Linie 38
 70
     0
  3

 72
    65
 73
     2
 40
1.5
 49
1.0
 74
     0
 49
-0.5
 74
     0
  0
LTYPE
  5
64
330
5
100
AcDbSymbolTableRecord
100
AcDbLinetypeTableRecord
  2
Eigene Linie 39
 70
     0
  3

 72
    65
 73
     6
 40
2.5
 49
1.25
 74
     0
 49
-0.25
 74
     0
 49
0.25
 74
     0
 49
-0.25
 74
     0
 49
0.25
 74
     0
 49
-0.25
 74
     0
  0
LTYPE
  5
65
330
5
100
AcDbSymbolTableRecord
100
AcDbLinetypeTableRecord
  2
Eigene Linie 40
 70
     0
  3

 72
    65
 73
     6
 40
1.25
 49
0.625
 74
     0
 49
-0.125
 74
     0
 49
0.125
 74
     0
 49
-0.125
 74
     0
 49
0.125
 74
     0
 49
-0.125
 74
     0
  0
LTYPE
  5
66
330
5
100
AcDbSymbolTableRecord
100
AcDbLinetypeTableRecord
  2
Eigene Linie 41
 70
     0
  3

 72
    65
 73
     6
 40
5.0
 49
2.5
 74
     0
 49
-0.5
 74
     0
 49
0.5
 74
     0
 49
-0.5
 74
     0
 49
0.5
 74
     0
 49
-0.5
 74
     0
  0
LTYPE
  5
67
330
5
100
AcDbSymbolTableRecord
100
AcDbLinetypeTableRecord
  2
Eigene Linie 42
 70
     0
  3

 72
    65
 73
     2
 40
0.300000011920929
 49
0.1500000059604645
 74
     0
 49
-0.1500000059604645
 74
     0
  0
LTYPE
  5
68
330
5
100
AcDbSymbolTableRecord
100
AcDbLinetypeTableRecord
  2
Eigene Linie 43
 70
     0
  3

 72
    65
 73
     2
 40
0.1399999968707561
 49
0.0799999982118607
 74
     0
 49
-0.0599999986588955
 74
     0
  0
LTYPE
  5
69
330
5
100
AcDbSymbolTableRecord
100
AcDbLinetypeTableRecord
  2
Eigene Linie 44
 70
     0
  3

 72
    65
 73
     2
 40
0.3000000007450581
 49
0.0500000007450581
 74
     0
 49
-0.25
 74
     0
  0
LTYPE
  5
6A
330
5
100
AcDbSymbolTableRecord
100
AcDbLinetypeTableRecord
  2
Eigene Linie 45
 70
     0
  3

 72
    65
 73
     2
 40
0.5500000007450581
 49
0.0500000007450581
 74
     0
 49
-0.5
 74
     0
  0
LTYPE
  5
6B
330
5
100
AcDbSymbolTableRecord
100
AcDbLinetypeTableRecord
  2
User line type56
 70
     0
  3

 72
    65
 73
     2
 40
5.399999856948853
 49
3.599999904632568
 74
     0
 49
-1.799999952316284
 74
     0
  0
LTYPE
  5
6C
330
5
100
AcDbSymbolTableRecord
100
AcDbLinetypeTableRecord
  2
User line type57
 70
     0
  3

 72
    65
 73
     2
 40
7.199999809265137
 49
3.599999904632568
 74
     0
 49
-3.599999904632568
 74
     0
  0
LTYPE
  5
6D
330
5
100
AcDbSymbolTableRecord
100
AcDbLinetypeTableRecord
  2
User line type58
 70
     0
  3

 72
    65
 73
     4
 40
8.999999761581421
 49
1.799999952316284
 74
     0
 49
-1.799999952316284
 74
     0
 49
3.599999904632568
 74
     0
 49
-1.799999952316284
 74
     0
  0
LTYPE
  5
6E
330
5
100
AcDbSymbolTableRecord
100
AcDbLinetypeTableRecord
  2
User line type59
 70
     0
  3

 72
    65
 73
     6
 40
7.919999837875366
 49
0.3600000143051147
 74
     0
 49
-1.799999952316284
 74
     0
 49
0.3600000143051147
 74
     0
 49
-1.799999952316284
 74
     0
 49
1.799999952316284
 74
     0
 49
-1.799999952316284
 74
     0
  0
LTYPE
  5
6F
330
5
100
AcDbSymbolTableRecord
100
AcDbLinetypeTableRecord
  2
User line type60
 70
     0
  3

 72
    65
 73
     6
 40
9.359999775886536
 49
1.799999952316284
 74
     0
 49
-1.799999952316284
 74
     0
 49
1.799999952316284
 74
     0
 49
-1.799999952316284
 74
     0
 49
0.3600000143051147
 74
     0
 49
-1.799999952316284
 74
     0
  0
LTYPE
  5
70
330
5
100
AcDbSymbolTableRecord
100
AcDbLinetypeTableRecord
  2
User line type61
 70
     0
  3

 72
    65
 73
     6
 40
20.10000000149012
 49
0.0500000007450581
 74
     0
 49
-0.0500000007450581
 74
     0
 49
5.0
 74
     0
 49
-5.0
 74
     0
 49
5.0
 74
     0
 49
-5.0
 74
     0
  0
LTYPE
  5
71
330
5
100
AcDbSymbolTableRecord
100
AcDbLinetypeTableRecord
  2
User line type62
 70
     0
  3

 72
    65
 73
     6
 40
3.550000000745058
 49
1.0
 74
     0
 49
-0.5
 74
     0
 49
1.0
 74
     0
 49
-0.5
 74
     0
 49
0.0500000007450581
 74
     0
 49
-0.5
 74
     0
  0
LTYPE
  5
72
330
5
100
AcDbSymbolTableRecord
100
AcDbLinetypeTableRecord
  2
User line type63
 70
     0
  3

 72
    65
 73
     6
 40
1.350000001490116
 49
0.5
 74
     0
 49
-0.25
 74
     0
 49
0.0500000007450581
 74
     0
 49
-0.25
 74
     0
 49
0.0500000007450581
 74
     0
 49
-0.25
 74
     0
  0
LTYPE
  5
73
330
5
100
AcDbSymbolTableRecord
100
AcDbLinetypeTableRecord
  2
User line type64
 70
     0
  3

 72
    65
 73
     6
 40
2.600000001490116
 49
1.0
 74
     0
 49
-0.5
 74
     0
 49
0.0500000007450581
 74
     0
 49
-0.5
 74
     0
 49
0.0500000007450581
 74
     0
 49
-0.5
 74
     0
  0
LTYPE
  5
74
330
5
100
AcDbSymbolTableRecord
100
AcDbLinetypeTableRecord
  2
User line type65
 70
     0
  3

 72
    65
 73
     6
 40
1.800000000745058
 49
0.5
 74
     0
 49
-0.25
 74
     0
 49
0.5
 74
     0
 49
-0.25
 74
     0
 49
0.0500000007450581
 74
     0
 49
-0.25
 74
     0
  0
LTYPE
  5
75
330
5
100
AcDbSymbolTableRecord
100
AcDbLinetypeTableRecord
  2
User line type66
 70
     0
  3

 72
    65
 73
     6
 40
0.9250000007450581
 49
0.25
 74
     0
 49
-0.125
 74
     0
 49
0.25
 74
     0
 49
-0.125
 74
     0
 49
0.0500000007450581
 74
     0
 49
-0.125
 74
     0
  0
LTYPE
  5
76
330
5
100
AcDbSymbolTableRecord
100
AcDbLinetypeTableRecord
  2
User line type67
 70
     0
  3

 72
    65
 73
     2
 40
0.3000000007450581
 49
0.0500000007450581
 74
     0
 49
-0.25
 74
     0
  0
LTYPE
  5
77
330
5
100
AcDbSymbolTableRecord
100
AcDbLinetypeTableRecord
  2
User line type68
 70
     0
  3

 72
    65
 73
     2
 40
0.1750000007450581
 49
0.0500000007450581
 74
     0
 49
-0.125
 74
     0
  0
LTYPE
  5
78
330
5
100
AcDbSymbolTableRecord
100
AcDbLinetypeTableRecord
  2
User line type69
 70
     0
  3

 72
    65
 73
     2
 40
0.5500000007450581
 49
0.0500000007450581
 74
     0
 49
-0.5
 74
     0
  0
LTYPE
  5
79
330
5
100
AcDbSymbolTableRecord
100
AcDbLinetypeTableRecord
  2
User line type70
 70
     0
  3

 72
    65
 73
     4
 40
1.050000000745058
 49
0.5
 74
     0
 49
-0.25
 74
     0
 49
0.0500000007450581
 74
     0
 49
-0.25
 74
     0
  0
LTYPE
  5
7A
330
5
100
AcDbSymbolTableRecord
100
AcDbLinetypeTableRecord
  2
User line type71
 70
     0
  3

 72
    65
 73
     4
 40
0.5500000007450581
 49
0.25
 74
     0
 49
-0.125
 74
     0
 49
0.0500000007450581
 74
     0
 49
-0.125
 74
     0
  0
LTYPE
  5
7B
330
5
100
AcDbSymbolTableRecord
100
AcDbLinetypeTableRecord
  2
User line type72
 70
     0
  3

 72
    65
 73
     4
 40
2.050000000745058
 49
1.0
 74
     0
 49
-0.5
 74
     0
 49
0.0500000007450581
 74
     0
 49
-0.5
 74
     0
  0
LTYPE
  5
7C
330
5
100
AcDbSymbolTableRecord
100
AcDbLinetypeTableRecord
  2
User line type73
 70
     0
  3

 72
    65
 73
     2
 40
0.75
 49
0.5
 74
     0
 49
-0.25
 74
     0
  0
LTYPE
  5
7D
330
5
100
AcDbSymbolTableRecord
100
AcDbLinetypeTableRecord
  2
User line type74
 70
     0
  3

 72
    65
 73
     2
 40
0.375
 49
0.25
 74
     0
 49
-0.125
 74
     0
  0
LTYPE
  5
7E
330
5
100
AcDbSymbolTableRecord
100
AcDbLinetypeTableRecord
  2
User line type75
 70
     0
  3

 72
    65
 73
     2
 40
1.5
 49
1.0
 74
     0
 49
-0.5
 74
     0
  0
LTYPE
  5
7F
330
5
100
AcDbSymbolTableRecord
100
AcDbLinetypeTableRecord
  2
User line type76
 70
     0
  3

 72
    65
 73
     6
 40
2.5
 49
1.25
 74
     0
 49
-0.25
 74
     0
 49
0.25
 74
     0
 49
-0.25
 74
     0
 49
0.25
 74
     0
 49
-0.25
 74
     0
  0
LTYPE
  5
80
330
5
100
AcDbSymbolTableRecord
100
AcDbLinetypeTableRecord
  2
User line type77
 70
     0
  3

 72
    65
 73
     6
 40
1.25
 49
0.625
 74
     0
 49
-0.125
 74
     0
 49
0.125
 74
     0
 49
-0.125
 74
     0
 49
0.125
 74
     0
 49
-0.125
 74
     0
  0
LTYPE
  5
81
330
5
100
AcDbSymbolTableRecord
100
AcDbLinetypeTableRecord
  2
User line type78
 70
     0
  3

 72
    65
 73
     6
 40
5.0
 49
2.5
 74
     0
 49
-0.5
 74
     0
 49
0.5
 74
     0
 49
-0.5
 74
     0
 49
0.5
 74
     0
 49
-0.5
 74
     0
  0
LTYPE
  5
82
330
5
100
AcDbSymbolTableRecord
100
AcDbLinetypeTableRecord
  2
User line type79
 70
     0
  3

 72
    65
 73
     2
 40
0.300000011920929
 49
0.1500000059604645
 74
     0
 49
-0.1500000059604645
 74
     0
  0
LTYPE
  5
83
330
5
100
AcDbSymbolTableRecord
100
AcDbLinetypeTableRecord
  2
User line type80
 70
     0
  3

 72
    65
 73
     2
 40
0.1399999968707561
 49
0.0799999982118607
 74
     0
 49
-0.0599999986588955
 74
     0
  0
LTYPE
  5
84
330
5
100
AcDbSymbolTableRecord
100
AcDbLinetypeTableRecord
  2
User line type81
 70
     0
  3

 72
    65
 73
     2
 40
0.3000000007450581
 49
0.0500000007450581
 74
     0
 49
-0.25
 74
     0
  0
LTYPE
  5
85
330
5
100
AcDbSymbolTableRecord
100
AcDbLinetypeTableRecord
  2
User line type82
 70
     0
  3

 72
    65
 73
     2
 40
0.5500000007450581
 49
0.0500000007450581
 74
     0
 49
-0.5
 74
     0
  0
LTYPE
  5
86
330
5
100
AcDbSymbolTableRecord
100
AcDbLinetypeTableRecord
  2
User line type83
 70
     0
  3

 72
    65
 73
     6
 40
31.84999952465296
 49
12.69999980926514
 74
     0
 49
-6.349999904632568
 74
     0
 49
0.0500000007450581
 74
     0
 49
-6.349999904632568
 74
     0
 49
0.0500000007450581
 74
     0
 49
-6.349999904632568
 74
     0
  0
LTYPE
  5
87
330
5
100
AcDbSymbolTableRecord
100
AcDbLinetypeTableRecord
  2
User line type84
 70
     0
  3

 72
    65
 73
     4
 40
50.79999971389771
 49
31.75
 74
     0
 49
-6.349999904632568
 74
     0
 49
6.349999904632568
 74
     0
 49
-6.349999904632568
 74
     0
  0
LTYPE
  5
88
330
5
100
AcDbSymbolTableRecord
100
AcDbLinetypeTableRecord
  2
User line type85
 70
     0
  3

 72
    65
 73
     2
 40
6.399999905377626
 49
0.0500000007450581
 74
     0
 49
-6.349999904632568
 74
     0
  0
LTYPE
  5
89
330
5
100
AcDbSymbolTableRecord
100
AcDbLinetypeTableRecord
  2
User line type86
 70
     0
  3

 72
    65
 73
     4
 40
25.44999961927533
 49
12.69999980926514
 74
     0
 49
-6.349999904632568
 74
     0
 49
0.0500000007450581
 74
     0
 49
-6.349999904632568
 74
     0
  0
LTYPE
  5
8A
330
5
100
AcDbSymbolTableRecord
100
AcDbLinetypeTableRecord
  2
User line type87
 70
     0
  3

 72
    65
 73
     2
 40
9.524999856948853
 49
6.349999904632568
 74
     0
 49
-3.174999952316284
 74
     0
  0
LTYPE
  5
8B
330
5
100
AcDbSymbolTableRecord
100
AcDbLinetypeTableRecord
  2
User line type88
 70
     0
  3

 72
    65
 73
     2
 40
0.0050000002374873
 49
0.0040000001899898
 74
     0
 49
-0.0010000000474975
 74
     0
  0
LTYPE
  5
8C
330
5
100
AcDbSymbolTableRecord
100
AcDbLinetypeTableRecord
  2
User line type89
 70
     0
  3

 72
    65
 73
     4
 40
0.0550000009825453
 49
0.0040000001899898
 74
     0
 49
-0.0005000000237487
 74
     0
 49
0.0500000007450581
 74
     0
 49
-0.0005000000237487
 74
     0
  0
LTYPE
  5
8D
330
5
100
AcDbSymbolTableRecord
100
AcDbLinetypeTableRecord
  2
DOT
 70
     0
  3

 72
    65
 73
     3
 40
0.5499949939548969
 49
0.0500000007450581
 74
     0
 49
-0.25
 74
     0
 49
0.2499949932098389
 74
     0
  0
LTYPE
  5
8E
330
5
100
AcDbSymbolTableRecord
100
AcDbLinetypeTableRecord
  2
User line type91
 70
     0
  3

 72
    65
 73
     2
 40
4.0
 49
2.0
 74
     0
 49
-2.0
 74
     0
  0
LTYPE
  5
8F
330
5
100
AcDbSymbolTableRecord
100
AcDbLinetypeTableRecord
  2
User line type92
 70
     0
  3

 72
    65
 73
     2
 40
4.0
 49
2.0
 74
     0
 49
-2.0
 74
     0
  0
LTYPE
  5
90
330
5
100
AcDbSymbolTableRecord
100
AcDbLinetypeTableRecord
  2
User line type93
 70
     0
  3

 72
    65
 73
     4
 40
1.050000000745058
 49
0.5
 74
     0
 49
-0.25
 74
     0
 49
0.0500000007450581
 74
     0
 49
-0.25
 74
     0
  0
LTYPE
  5
91
330
5
100
AcDbSymbolTableRecord
100
AcDbLinetypeTableRecord
  2
User line type94
 70
     0
  3

 72
    65
 73
     2
 40
0.75
 49
0.5
 74
     0
 49
-0.25
 74
     0
  0
LTYPE
  5
92
330
5
100
AcDbSymbolTableRecord
100
AcDbLinetypeTableRecord
  2
User line type95
 70
     0
  3

 72
    65
 73
     6
 40
17.60000000149012
 49
10.0
 74
     0
 49
-2.5
 74
     0
 49
0.0500000007450581
 74
     0
 49
-2.5
 74
     0
 49
0.0500000007450581
 74
     0
 49
-2.5
 74
     0
  0
LTYPE
  5
93
330
5
100
AcDbSymbolTableRecord
100
AcDbLinetypeTableRecord
  2
User line type96
 70
     0
  3

 72
    65
 73
     2
 40
0.375
 49
0.25
 74
     0
 49
-0.125
 74
     0
  0
LTYPE
  5
94
330
5
100
AcDbSymbolTableRecord
100
AcDbLinetypeTableRecord
  2
User line type97
 70
     0
  3

 72
    65
 73
     4
 40
1.100000001490116
 49
0.5
 74
     0
 49
-0.25
 74
     0
 49
0.1000000014901161
 74
     0
 49
-0.25
 74
     0
  0
LTYPE
  5
95
330
5
100
AcDbSymbolTableRecord
100
AcDbLinetypeTableRecord
  2
User line type98
 70
     0
  3

 72
    65
 73
     2
 40
0.75
 49
0.5
 74
     0
 49
-0.25
 74
     0
  0
LTYPE
  5
96
330
5
100
AcDbSymbolTableRecord
100
AcDbLinetypeTableRecord
  2
User line type99
 70
     0
  3

 72
    65
 73
     4
 40
1.050000000745058
 49
0.5
 74
     0
 49
-0.25
 74
     0
 49
0.0500000007450581
 74
     0
 49
-0.25
 74
     0
  0
LTYPE
  5
97
330
5
100
AcDbSymbolTableRecord
100
AcDbLinetypeTableRecord
  2
User line type100
 70
     0
  3

 72
    65
 73
     6
 40
1.350000001490116
 49
0.5
 74
     0
 49
-0.25
 74
     0
 49
0.0500000007450581
 74
     0
 49
-0.25
 74
     0
 49
0.0500000007450581
 74
     0
 49
-0.25
 74
     0
  0
LTYPE
  5
98
330
5
100
AcDbSymbolTableRecord
100
AcDbLinetypeTableRecord
  2
User line type101
 70
     0
  3

 72
    65
 73
     4
 40
1.050000000745058
 49
0.5
 74
     0
 49
-0.25
 74
     0
 49
0.0500000007450581
 74
     0
 49
-0.25
 74
     0
  0
LTYPE
  5
99
330
5
100
AcDbSymbolTableRecord
100
AcDbLinetypeTableRecord
  2
User line type102
 70
     0
  3

 72
    65
 73
     2
 40
0.375
 49
0.25
 74
     0
 49
-0.125
 74
     0
  0
ENDTAB
  0
TABLE
  2
LAYER
  5
2
330
0
100
AcDbSymbolTable
 70
     9
  0
LAYER
  5
10
330
2
100
AcDbSymbolTableRecord
100
AcDbLayerTableRecord
  2
0
 70
     0
 62
     7
  6
Continuous
370
    -3
390
F
347
3E
  0
LAYER
  5
9A
330
2
100
AcDbSymbolTableRecord
100
AcDbLayerTableRecord
  2
00_Allgemein
 70
     0
 62
     7
  6
Continuous
370
     0
390
F
347
3E
  0
LAYER
  5
9B
330
2
100
AcDbSymbolTableRecord
100
AcDbLayerTableRecord
  2
37_Bilder
 70
     0
 62
     7
  6
Continuous
370
     0
390
F
347
3E
  0
LAYER
  5
9C
330
2
100
AcDbSymbolTableRecord
100
AcDbLayerTableRecord
  2
34_Gruppe
 70
     0
 62
     7
  6
Continuous
370
     0
390
F
347
3E
  0
LAYER
  5
9D
330
2
100
AcDbSymbolTableRecord
100
AcDbLayerTableRecord
  2
12_Linie
 70
     0
 62
     7
  6
Continuous
370
     0
390
F
347
3E
  0
LAYER
  5
9E
330
2
100
AcDbSymbolTableRecord
100
AcDbLayerTableRecord
  2
18_Schraffur
 70
     0
 62
     7
  6
Continuous
370
     0
390
F
347
3E
  0
LAYER
  5
9F
330
2
100
AcDbSymbolTableRecord
100
AcDbLayerTableRecord
  2
Folie _ 3
 70
     0
 62
     7
  6
Continuous
370
     0
390
F
347
3E
  0
LAYER
  5
A0
330
2
100
AcDbSymbolTableRecord
100
AcDbLayerTableRecord
  2
Schraff_Dämmung
 70
     0
 62
     7
  6
Continuous
370
     0
390
F
347
3E
  0
LAYER
  5
A1
330
2
100
AcDbSymbolTableRecord
100
AcDbLayerTableRecord
  2
STANDARD
 70
     0
 62
     7
  6
Continuous
370
     0
390
F
347
3E
  0
ENDTAB
  0
TABLE
  2
STYLE
  5
3
330
0
100
AcDbSymbolTable
 70
     3
  0
STYLE
  5
11
330
3
100
AcDbSymbolTableRecord
100
AcDbTextStyleTableRecord
  2
Standard
 70
     0
 40
0.0
 41
1.0
 50
0.0
 71
     0
 42
0.2
  3
txt
  4

  0
STYLE
  5
B2
330
3
100
AcDbSymbolTableRecord
100
AcDbTextStyleTableRecord
  2
Style0
 70
     0
 40
0.0
 41
1.0
 50
0.0
 71
     0
 42
0.2
  3
arial.ttf
  4

1001
ACAD
1000
Arial
1071
        0
  0
STYLE
  5
B5
330
3
100
AcDbSymbolTableRecord
100
AcDbTextStyleTableRecord
  2
Style1
 70
     0
 40
0.0
 41
1.0
 50
0.0
 71
     0
 42
0.2
  3
ariblk.ttf
  4

1001
ACAD
1000
Arial Black
1071
        0
  0
ENDTAB
  0
TABLE
  2
VIEW
  5
6
330
0
100
AcDbSymbolTable
 70
     0
  0
ENDTAB
  0
TABLE
  2
UCS
  5
7
330
0
100
AcDbSymbolTable
 70
     0
  0
ENDTAB
  0
TABLE
  2
APPID
  5
9
330
0
100
AcDbSymbolTable
 70
     1
  0
APPID
  5
12
330
9
100
AcDbSymbolTableRecord
100
AcDbRegAppTableRecord
  2
ACAD
 70
     0
  0
ENDTAB
  0
TABLE
  2
DIMSTYLE
  5
A
330
0
100
AcDbSymbolTable
 70
     1
100
AcDbDimStyleTable
  0
DIMSTYLE
105
27
330
A
100
AcDbSymbolTableRecord
100
AcDbDimStyleTableRecord
  2
Standard
 70
     0
178
     0
340
11
  0
ENDTAB
  0
TABLE
  2
BLOCK_RECORD
  5
1
330
0
100
AcDbSymbolTable
 70
     3
  0
BLOCK_RECORD
  5
1F
330
1
100
AcDbSymbolTableRecord
100
AcDbBlockTableRecord
  2
*Model_Space
340
22
 70
     0
280
     1
281
     0
  0
BLOCK_RECORD
  5
1B
330
1
100
AcDbSymbolTableRecord
100
AcDbBlockTableRecord
  2
*Paper_Space
340
1E
 70
     0
280
     1
281
     0
  0
BLOCK_RECORD
  5
23
330
1
100
AcDbSymbolTableRecord
100
AcDbBlockTableRecord
  2
*Paper_Space0
340
26
 70
     0
280
     1
281
     0
  0
BLOCK_RECORD
  5
A2
330
1
100
AcDbSymbolTableRecord
100
AcDbBlockTableRecord
  2
printlayout(id_1)
340
0
102
{BLKREFS
331
AF
102
}
 70
     0
280
     1
281
     0
  0
BLOCK_RECORD
  5
B6
330
1
100
AcDbSymbolTableRecord
100
AcDbBlockTableRecord
  2
dokument alle 2d details_asc(id_4)
340
0
102
{BLKREFS
331
2BB
102
}
 70
     0
280
     1
281
     0
  0
ENDTAB
  0
ENDSEC
  0
SECTION
  2
BLOCKS
  0
BLOCK
  5
20
330
1F
100
AcDbEntity
  8
0
100
AcDbBlockBegin
  2
*Model_Space
 70
     0
 10
0.0
 20
0.0
 30
0.0
  3
*Model_Space
  1

  0
ENDBLK
  5
21
330
1F
100
AcDbEntity
  8
0
100
AcDbBlockEnd
  0
BLOCK
  5
1C
330
1B
100
AcDbEntity
 67
     1
  8
0
100
AcDbBlockBegin
  2
*Paper_Space
 70
     0
 10
0.0
 20
0.0
 30
0.0
  3
*Paper_Space
  1

  0
ENDBLK
  5
1D
330
1B
100
AcDbEntity
 67
     1
  8
0
100
AcDbBlockEnd
  0
BLOCK
  5
24
330
23
100
AcDbEntity
  8
0
100
AcDbBlockBegin
  2
*Paper_Space0
 70
     0
 10
0.0
 20
0.0
 30
0.0
  3
*Paper_Space0
  1

  0
ENDBLK
  5
25
330
23
100
AcDbEntity
  8
0
100
AcDbBlockEnd
  0
BLOCK
  5
B0
330
A2
100
AcDbEntity
  8
0
100
AcDbBlockBegin
  2
printlayout(id_1)
 70
     0
 10
0.0
 20
0.0
 30
0.0
  3
printlayout(id_1)
  1

  0
POLYLINE
  5
A3
330
A2
100
AcDbEntity
  8
00_Allgemein
  6
Continuous
 62
     7
370
     0
100
AcDb2dPolyline
 66
     1
 10
0.0
 20
0.0
 30
0.0
 70
     1
  0
VERTEX
  5
A4
330
A3
100
AcDbEntity
  8
00_Allgemein
  6
Continuous
 62
     7
370
     0
100
AcDbVertex
100
AcDb2dVertex
 10
0.0
 20
0.0
 30
0.0
  0
VERTEX
  5
A5
330
A3
100
AcDbEntity
  8
00_Allgemein
  6
Continuous
 62
     7
370
     0
100
AcDbVertex
100
AcDb2dVertex
 10
297.0
 20
0.0
 30
0.0
  0
VERTEX
  5
A6
330
A3
100
AcDbEntity
  8
00_Allgemein
  6
Continuous
 62
     7
370
     0
100
AcDbVertex
100
AcDb2dVertex
 10
297.0
 20
210.0
 30
0.0
  0
VERTEX
  5
A7
330
A3
100
AcDbEntity
  8
00_Allgemein
  6
Continuous
 62
     7
370
     0
100
AcDbVertex
100
AcDb2dVertex
 10
0.0
 20
210.0
 30
0.0
  0
SEQEND
  5
A8
330
A3
100
AcDbEntity
  8
00_Allgemein
  6
Continuous
 62
     7
370
     0
  0
POLYLINE
  5
A9
330
A2
100
AcDbEntity
  8
00_Allgemein
  6
Strichpunktierte
 62
     5
420
      255
 48
5.0
370
     0
100
AcDb2dPolyline
 66
     1
 10
0.0
 20
0.0
 30
0.0
 70
     1
  0
VERTEX
  5
AA
330
A9
100
AcDbEntity
  8
00_Allgemein
  6
Strichpunktierte
 62
     5
420
      255
370
     0
100
AcDbVertex
100
AcDb2dVertex
 10
3.0
 20
3.0
 30
0.0
  0
VERTEX
  5
AB
330
A9
100
AcDbEntity
  8
00_Allgemein
  6
Strichpunktierte
 62
     5
420
      255
370
     0
100
AcDbVertex
100
AcDb2dVertex
 10
294.0
 20
3.0
 30
0.0
  0
VERTEX
  5
AC
330
A9
100
AcDbEntity
  8
00_Allgemein
  6
Strichpunktierte
 62
     5
420
      255
370
     0
100
AcDbVertex
100
AcDb2dVertex
 10
294.0
 20
207.0
 30
0.0
  0
VERTEX
  5
AD
330
A9
100
AcDbEntity
  8
00_Allgemein
  6
Strichpunktierte
 62
     5
420
      255
370
     0
100
AcDbVertex
100
AcDb2dVertex
 10
3.0
 20
207.0
 30
0.0
  0
SEQEND
  5
AE
330
A9
100
AcDbEntity
  8
00_Allgemein
  6
Strichpunktierte
 62
     5
420
      255
 48
5.0
370
     0
  0
ENDBLK
  5
B1
330
A2
100
AcDbEntity
  8
0
100
AcDbBlockEnd
  0
BLOCK
  5
2BC
330
B6
100
AcDbEntity
  8
0
100
AcDbBlockBegin
  2
dokument alle 2d details_asc(id_4)
 70
     0
 10
0.0
 20
0.0
 30
0.0
  3
dokument alle 2d details_asc(id_4)
  1

  0
HATCH
  5
B7
330
B6
100
AcDbEntity
  8
Schraff_Dämmung
 62
   253
100
AcDbHatch
 10
0.0
 20
0.0
 30
0.0
210
0.0
220
0.0
230
1.0
  2
SOLID
 70
     1
 71
     0
 91
        3
 92
        0
 93
       12
 72
     1
 10
100.7410143803787
 20
134.0553751369773
 11
100.7410143803787
 21
134.1553751369773
 72
     1
 10
100.7410143803787
 20
134.1553751369773
 11
86.59829569698368
 21
134.1553751369773
 72
     2
 10
86.59829569698368
 20
133.3553751369773
 40
0.8
 50
90.0
 51
180.0
 73
     1
 72
     1
 10
85.79829569698369
 20
133.3553751369773
 11
85.79829569698369
 21
125.5996743333572
 72
     2
 10
86.09125091454945
 20
125.6519134104661
 40
0.2975763442818989
 50
190.1105782533417
 51
346.4606898266389
 73
     1
 72
     1
 10
86.38055747134104
 20
125.5822470852181
 11
86.92106095221371
 21
128.1638760346576
 72
     1
 10
86.92106095221371
 20
128.1638760346576
 11
86.61455872525994
 21
128.1638760346576
 72
     1
 10
86.61455872525994
 20
128.1638760346576
 11
86.09829569698368
 21
125.6980151369773
 72
     1
 10
86.09829569698368
 20
125.6980151369773
 11
86.09829569698368
 21
133.3553751369773
 72
     2
 10
86.59829569698368
 20
133.3553751369773
 40
0.5
 50
180.0
 51
270.0
 73
     0
 72
     1
 10
86.59829569698368
 20
133.8553751369773
 11
100.7981572375215
 21
133.8553751369773
 72
     1
 10
100.7981572375215
 20
133.8553751369773
 11
100.7410143803787
 21
134.0553751369773
 97
        0
 92
        0
 93
        6
 72
     1
 10
121.6847794425606
 20
134.0553751369773
 11
121.6847794425606
 21
134.1553751369773
 72
     1
 10
121.6847794425606
 20
134.1553751369773
 11
101.4410143803787
 21
134.1553751369773
 72
     1
 10
101.4410143803787
 20
134.1553751369773
 11
101.4410143803787
 21
134.0553751369773
 72
     1
 10
101.4410143803787
 20
134.0553751369773
 11
101.3838715232359
 21
133.8553751369773
 72
     1
 10
101.3838715232359
 20
133.8553751369773
 11
121.7419222997034
 21
133.8553751369773
 72
     1
 10
121.7419222997034
 20
133.8553751369773
 11
121.6847794425606
 21
134.0553751369773
 97
        0
 92
        0
 93
        5
 72
     1
 10
127.9114156969837
 20
134.1553751369773
 11
122.3847794425606
 21
134.1553751369773
 72
     1
 10
122.3847794425606
 20
134.1553751369773
 11
122.3847794425606
 21
134.0553751369773
 72
     1
 10
122.3847794425606
 20
134.0553751369773
 11
122.3276365854177
 21
133.8553751369773
 72
     1
 10
122.3276365854177
 20
133.8553751369773
 11
127.9114156969837
 21
133.8553751369773
 72
     1
 10
127.9114156969837
 20
133.8553751369773
 11
127.9114156969837
 21
134.1553751369773
 97
        0
 75
     0
 76
     1
 98
        0
  0
LINE
  5
B8
330
B6
100
AcDbEntity
  8
STANDARD
  6
Continuous
 62
     7
370
    20
100
AcDbLine
 10
86.61455872525994
 20
128.1638760346576
 30
0.0
 11
86.92106095221371
 21
128.1638760346576
 31
0.0
  0
TEXT
  5
B9
330
B6
100
AcDbEntity
  8
Folie _ 3
  6
Continuous
 62
     7
100
AcDbText
 10
159.0000000000001
 20
36.46095733192396
 30
0.0
 40
3.177854776382446
  1
NOVOtan EPDM Rollenware vlieskaschiert
 41
1.021345735900753
  7
Style0
100
AcDbText
  0
LINE
  5
BA
330
B6
100
AcDbEntity
  8
12_Linie
 62
     7
370
    20
100
AcDbLine
 10
98.52490326586131
 20
133.7553751369772
 30
0.0
 11
98.5249032658614
 21
133.8553751369773
 31
0.0
  0
LINE
  5
BB
330
B6
100
AcDbEntity
  8
12_Linie
 62
     7
370
    20
100
AcDbLine
 10
98.5249032658614
 20
133.8553751369773
 30
0.0
 11
93.9445333947353
 21
133.8553751369773
 31
0.0
  0
LINE
  5
BC
330
B6
100
AcDbEntity
  8
12_Linie
 62
     7
370
    20
100
AcDbLine
 10
93.9445333947353
 20
133.8553751369773
 30
0.0
 11
89.48078791549989
 21
121.6973063260621
 31
0.0
  0
LINE
  5
BD
330
B6
100
AcDbEntity
  8
12_Linie
 62
     7
370
    20
100
AcDbLine
 10
89.48078791549989
 20
121.6973063260621
 30
0.0
 11
89.57466109732877
 21
121.6628414782704
 31
0.0
  0
LINE
  5
BE
330
B6
100
AcDbEntity
  8
12_Linie
 62
     7
370
    20
100
AcDbLine
 10
98.52490326586131
 20
133.7553751369772
 30
0.0
 11
94.00804409116309
 21
133.7553751369774
 31
0.0
  0
LINE
  5
BF
330
B6
100
AcDbEntity
  8
12_Linie
 62
     7
370
    20
100
AcDbLine
 10
94.01651771170883
 20
133.7612907776469
 30
0.0
 11
89.57466109732877
 21
121.6628414782704
 31
0.0
  0
LINE
  5
C0
330
B6
100
AcDbEntity
  8
STANDARD
  6
Continuous
 62
     7
370
    40
100
AcDbLine
 10
97.26574594762951
 20
134.1553751369773
 30
0.0
 11
202.6242349468315
 21
134.1553751369773
 31
0.0
  0
IMAGE
  5
C1
330
B6
100
AcDbEntity
  8
37_Bilder
  6
Continuous
 62
     7
370
     0
160
               140
310
8C00000001000000840000000600000005000000643F38DD7DC76E40607D7E0819A431400000000000000000B21F9CDEEF237240607D7E0819A431400000000000000000B21F9CDEEF237240B03E3F74D92D40400000000000000000643F38DD7DC76E40B03E3F74D92D40400000000000000000643F38DD7DC76E40607D7E
310
0819A431400000000000000000
100
AcDbRasterImage
 90
        0
 10
246.2341142748438
 20
17.64100697601441
 30
0.0
 11
0.0279263627105558
 21
0.0
 31
0.0
 12
0.0
 22
0.02792635995477608
 32
0.0
 13
1576.0
 23
527.0
340
B4
 70
     3
280
     0
281
    50
282
    50
283
     0
360
0
 71
     1
 91
        2
 14
-0.5
 24
-0.5
 14
1575.5
 24
526.5
290
     0
  0
LINE
  5
C2
330
B6
100
AcDbEntity
  8
12_Linie
 62
     7
370
    20
100
AcDbLine
 10
136.7791715776951
 20
125.8553751369773
 30
0.0
 11
134.5622326075173
 21
134.1553751369773
 31
0.0
  0
LINE
  5
C3
330
B6
100
AcDbEntity
  8
12_Linie
 62
     7
370
    20
100
AcDbLine
 10
132.3452936373394
 20
125.8553751369773
 30
0.0
 11
134.5622326075171
 21
134.1553751369773
 31
0.0
  0
LINE
  5
C4
330
B6
100
AcDbEntity
  8
12_Linie
 62
     7
370
    20
100
AcDbLine
 10
136.7791715776951
 20
125.8553751369773
 30
0.0
 11
138.9961105478728
 21
134.1553751369773
 31
0.0
  0
LINE
  5
C5
330
B6
100
AcDbEntity
  8
12_Linie
 62
     7
370
    20
100
AcDbLine
 10
141.2130495180508
 20
125.8553751369773
 30
0.0
 11
138.9961105478728
 21
134.1553751369773
 31
0.0
  0
LINE
  5
C6
330
B6
100
AcDbEntity
  8
12_Linie
 62
     7
370
    20
100
AcDbLine
 10
145.6469274584063
 20
125.8553751369773
 30
0.0
 11
143.4299884882285
 21
134.1553751369773
 31
0.0
  0
LINE
  5
C7
330
B6
100
AcDbEntity
  8
12_Linie
 62
     7
370
    20
100
AcDbLine
 10
127.9114156969837
 20
125.8553751369773
 30
0.0
 11
130.1283546671614
 21
134.1553751369773
 31
0.0
  0
LINE
  5
C8
330
B6
100
AcDbEntity
  8
12_Linie
 62
     7
370
    20
100
AcDbLine
 10
132.3452936373394
 20
125.8553751369773
 30
0.0
 11
130.1283546671614
 21
134.1553751369773
 31
0.0
  0
LINE
  5
C9
330
B6
100
AcDbEntity
  8
12_Linie
 62
     7
370
    20
100
AcDbLine
 10
141.2130495180508
 20
125.8553751369773
 30
0.0
 11
143.4299884882285
 21
134.1553751369773
 31
0.0
  0
LINE
  5
CA
330
B6
100
AcDbEntity
  8
12_Linie
 62
     7
370
    20
100
AcDbLine
 10
154.5146833391177
 20
125.8553751369773
 30
0.0
 11
156.7316223092957
 21
134.1553751369773
 31
0.0
  0
LINE
  5
CB
330
B6
100
AcDbEntity
  8
12_Linie
 62
     7
370
    20
100
AcDbLine
 10
158.9485612794734
 20
125.8553751369773
 30
0.0
 11
156.7316223092957
 21
134.1553751369773
 31
0.0
  0
LINE
  5
CC
330
B6
100
AcDbEntity
  8
12_Linie
 62
     7
370
    20
100
AcDbLine
 10
154.5146833391177
 20
125.8553751369773
 30
0.0
 11
152.29774436894
 21
134.1553751369773
 31
0.0
  0
LINE
  5
CD
330
B6
100
AcDbEntity
  8
12_Linie
 62
     7
370
    20
100
AcDbLine
 10
150.0808053987622
 20
125.8553751369773
 30
0.0
 11
152.29774436894
 21
134.1553751369773
 31
0.0
  0
LINE
  5
CE
330
B6
100
AcDbEntity
  8
12_Linie
 62
     7
370
    20
100
AcDbLine
 10
145.6469274584063
 20
125.8553751369773
 30
0.0
 11
147.8638664285843
 21
134.1553751369773
 31
0.0
  0
LINE
  5
CF
330
B6
100
AcDbEntity
  8
12_Linie
 62
     7
370
    20
100
AcDbLine
 10
163.3824392198291
 20
125.8553751369773
 30
0.0
 11
161.1655002496514
 21
134.1553751369773
 31
0.0
  0
LINE
  5
D0
330
B6
100
AcDbEntity
  8
12_Linie
 62
     7
370
    20
100
AcDbLine
 10
158.9485612794734
 20
125.8553751369773
 30
0.0
 11
161.1655002496512
 21
134.1553751369773
 31
0.0
  0
LINE
  5
D1
330
B6
100
AcDbEntity
  8
12_Linie
 62
     7
370
    20
100
AcDbLine
 10
150.080805398762
 20
125.8553751369773
 30
0.0
 11
147.8638664285843
 21
134.1553751369773
 31
0.0
  0
LINE
  5
D2
330
B6
100
AcDbEntity
  8
12_Linie
 62
     7
370
    20
100
AcDbLine
 10
167.8163171601848
 20
125.8553751369773
 30
0.0
 11
170.0332561303626
 21
134.1553751369773
 31
0.0
  0
LINE
  5
D3
330
B6
100
AcDbEntity
  8
12_Linie
 62
     7
370
    20
100
AcDbLine
 10
163.3824392198291
 20
125.8553751369773
 30
0.0
 11
165.5993781900069
 21
134.1553751369773
 31
0.0
  0
LINE
  5
D4
330
B6
100
AcDbEntity
  8
12_Linie
 62
     7
370
    20
100
AcDbLine
 10
167.8163171601847
 20
125.8553751369773
 30
0.0
 11
165.5993781900069
 21
134.1553751369773
 31
0.0
  0
LINE
  5
D5
330
B6
100
AcDbEntity
  8
12_Linie
 62
     7
370
    20
100
AcDbLine
 10
185.5518289216075
 20
125.8553751369773
 30
0.0
 11
183.3348899514297
 21
134.1553751369773
 31
0.0
  0
LINE
  5
D6
330
B6
100
AcDbEntity
  8
12_Linie
 62
     7
370
    20
100
AcDbLine
 10
181.1179509812518
 20
125.8553751369773
 30
0.0
 11
183.3348899514295
 21
134.1553751369773
 31
0.0
  0
LINE
  5
D7
330
B6
100
AcDbEntity
  8
12_Linie
 62
     7
370
    20
100
AcDbLine
 10
185.5518289216075
 20
125.8553751369773
 30
0.0
 11
187.7687678917852
 21
134.1553751369773
 31
0.0
  0
LINE
  5
D8
330
B6
100
AcDbEntity
  8
12_Linie
 62
     7
370
    20
100
AcDbLine
 10
189.9857068619632
 20
125.8553751369773
 30
0.0
 11
187.7687678917854
 21
134.1553751369773
 31
0.0
  0
LINE
  5
D9
330
B6
100
AcDbEntity
  8
12_Linie
 62
     7
370
    20
100
AcDbLine
 10
176.6840730408961
 20
125.8553751369773
 30
0.0
 11
178.901012011074
 21
134.1553751369773
 31
0.0
  0
LINE
  5
DA
330
B6
100
AcDbEntity
  8
12_Linie
 62
     7
370
    20
100
AcDbLine
 10
181.1179509812518
 20
125.8553751369773
 30
0.0
 11
178.901012011074
 21
134.1553751369773
 31
0.0
  0
LINE
  5
DB
330
B6
100
AcDbEntity
  8
12_Linie
 62
     7
370
    20
100
AcDbLine
 10
189.9857068619632
 20
125.8553751369773
 30
0.0
 11
192.2026458321409
 21
134.1553751369773
 31
0.0
  0
LINE
  5
DC
330
B6
100
AcDbEntity
  8
12_Linie
 62
     7
370
    20
100
AcDbLine
 10
172.2501951005405
 20
125.8553751369773
 30
0.0
 11
170.0332561303626
 21
134.1553751369773
 31
0.0
  0
LINE
  5
DD
330
B6
100
AcDbEntity
  8
12_Linie
 62
     7
370
    20
100
AcDbLine
 10
176.6840730408961
 20
125.8553751369773
 30
0.0
 11
174.4671340707183
 21
134.1553751369773
 31
0.0
  0
LINE
  5
DE
330
B6
100
AcDbEntity
  8
12_Linie
 62
     7
370
    20
100
AcDbLine
 10
172.2501951005405
 20
125.8553751369773
 30
0.0
 11
174.4671340707183
 21
134.1553751369773
 31
0.0
  0
LINE
  5
DF
330
B6
100
AcDbEntity
  8
12_Linie
 62
     7
370
    20
100
AcDbLine
 10
198.8534627426746
 20
125.8553751369773
 30
0.0
 11
201.0704017128523
 21
134.1553751369773
 31
0.0
  0
LINE
  5
E0
330
B6
100
AcDbEntity
  8
12_Linie
 62
     7
370
    20
100
AcDbLine
 10
198.8534627426746
 20
125.8553751369773
 30
0.0
 11
196.6365237724968
 21
134.1553751369773
 31
0.0
  0
LINE
  5
E1
330
B6
100
AcDbEntity
  8
12_Linie
 62
     7
370
    20
100
AcDbLine
 10
194.4195848023189
 20
125.8553751369773
 30
0.0
 11
196.6365237724966
 21
134.1553751369773
 31
0.0
  0
LINE
  5
E2
330
B6
100
AcDbEntity
  8
12_Linie
 62
     7
370
    20
100
AcDbLine
 10
194.4195848023189
 20
125.8553751369773
 30
0.0
 11
192.2026458321409
 21
134.1553751369773
 31
0.0
  0
LINE
  5
E3
330
B6
100
AcDbEntity
  8
STANDARD
 62
     7
100
AcDbLine
 10
121.8847794425607
 20
133.3553751369773
 30
0.0
 11
122.1847794425606
 21
133.3553751369774
 31
0.0
  0
LINE
  5
E4
330
B6
100
AcDbEntity
  8
STANDARD
 62
     7
100
AcDbLine
 10
121.8847794425607
 20
133.3553751369773
 30
0.0
 11
121.6847794425606
 21
134.0553751369773
 31
0.0
  0
LINE
  5
E5
330
B6
100
AcDbEntity
  8
STANDARD
 62
     7
100
AcDbLine
 10
122.1847794425606
 20
133.3553751369774
 30
0.0
 11
122.3847794425607
 21
134.0553751369774
 31
0.0
  0
LINE
  5
E6
330
B6
100
AcDbEntity
  8
STANDARD
 62
     7
100
AcDbLine
 10
121.6847794425606
 20
134.0553751369773
 30
0.0
 11
121.6847794425607
 21
134.1553751369773
 31
0.0
  0
LINE
  5
E7
330
B6
100
AcDbEntity
  8
STANDARD
 62
     7
100
AcDbLine
 10
122.3847794425607
 20
134.0553751369774
 30
0.0
 11
122.3847794425607
 21
134.1553751369775
 31
0.0
  0
LINE
  5
E8
330
B6
100
AcDbEntity
  8
STANDARD
 62
     7
100
AcDbLine
 10
121.6847794425607
 20
134.1553751369773
 30
0.0
 11
122.3847794425607
 21
134.1553751369775
 31
0.0
  0
LINE
  5
E9
330
B6
100
AcDbEntity
  8
STANDARD
 62
     7
100
AcDbLine
 10
121.6847794425606
 20
134.0553751369773
 30
0.0
 11
122.3847794425607
 21
134.0553751369774
 31
0.0
  0
LINE
  5
EA
330
B6
100
AcDbEntity
  8
STANDARD
 62
     7
100
AcDbLine
 10
121.8847794425606
 20
130.3874709831371
 30
0.0
 11
121.8847794425606
 21
133.3553751369774
 31
0.0
  0
LINE
  5
EB
330
B6
100
AcDbEntity
  8
STANDARD
 62
     7
100
AcDbLine
 10
122.1847794425604
 20
130.3874709831369
 30
0.0
 11
122.1847794425606
 21
133.3553751369774
 31
0.0
  0
LINE
  5
EC
330
B6
100
AcDbEntity
  8
STANDARD
 62
     7
100
AcDbLine
 10
121.8847794425606
 20
130.3874709831369
 30
0.0
 11
122.1847794425607
 21
130.3874709831367
 31
0.0
  0
LINE
  5
ED
330
B6
100
AcDbEntity
  8
STANDARD
 62
     7
370
    20
100
AcDbLine
 10
118.5082256969837
 20
125.0553751369773
 30
0.0
 11
118.8082256969837
 21
125.0553751369773
 31
0.0
  0
LINE
  5
EE
330
B6
100
AcDbEntity
  8
STANDARD
 62
     7
370
    20
100
AcDbLine
 10
118.5082256969837
 20
125.0553751369773
 30
0.0
 11
118.3082256969837
 21
125.7553751369773
 31
0.0
  0
LINE
  5
EF
330
B6
100
AcDbEntity
  8
STANDARD
 62
     7
370
    20
100
AcDbLine
 10
118.8082256969837
 20
125.0553751369773
 30
0.0
 11
119.0082256969837
 21
125.7553751369773
 31
0.0
  0
LINE
  5
F0
330
B6
100
AcDbEntity
  8
STANDARD
 62
     7
370
    20
100
AcDbLine
 10
118.3082256969837
 20
125.7553751369773
 30
0.0
 11
118.3082256969837
 21
125.8553751369773
 31
0.0
  0
LINE
  5
F1
330
B6
100
AcDbEntity
  8
STANDARD
 62
     7
370
    20
100
AcDbLine
 10
119.0082256969837
 20
125.7553751369773
 30
0.0
 11
119.0082256969837
 21
125.8553751369773
 31
0.0
  0
LINE
  5
F2
330
B6
100
AcDbEntity
  8
STANDARD
 62
     7
370
    20
100
AcDbLine
 10
118.3082256969837
 20
125.8553751369773
 30
0.0
 11
119.0082256969837
 21
125.8553751369773
 31
0.0
  0
LINE
  5
F3
330
B6
100
AcDbEntity
  8
STANDARD
 62
     7
370
    20
100
AcDbLine
 10
118.3082256969837
 20
125.7553751369773
 30
0.0
 11
119.0082256969837
 21
125.7553751369773
 31
0.0
  0
LINE
  5
F4
330
B6
100
AcDbEntity
  8
STANDARD
 62
     7
370
    20
100
AcDbLine
 10
118.5082256969837
 20
112.2699551369773
 30
0.0
 11
118.5082256969837
 21
125.0553751369773
 31
0.0
  0
LINE
  5
F5
330
B6
100
AcDbEntity
  8
STANDARD
 62
     7
370
    20
100
AcDbLine
 10
118.8082256969837
 20
112.2699551369773
 30
0.0
 11
118.8082256969837
 21
125.0553751369773
 31
0.0
  0
LINE
  5
F6
330
B6
100
AcDbEntity
  8
STANDARD
 62
     7
370
    20
100
AcDbLine
 10
118.5082256969837
 20
112.2699551369773
 30
0.0
 11
118.8082256969837
 21
112.2699551369773
 31
0.0
  0
LINE
  5
F7
330
B6
100
AcDbEntity
  8
STANDARD
  6
Continuous
 62
     7
370
    40
100
AcDbLine
 10
97.26574594762951
 20
135.1553751369773
 30
0.0
 11
97.26574594762951
 21
134.1553751369773
 31
0.0
  0
ARC
  5
F8
330
B6
100
AcDbEntity
  8
STANDARD
  6
Continuous
 62
     7
370
    20
100
AcDbCircle
 10
86.09125091454945
 20
125.6519134104661
 30
0.0
 40
0.2975763442818989
100
AcDbArc
 50
190.1105782533417
 51
346.4606898265016
  0
ARC
  5
F9
330
B6
100
AcDbEntity
  8
STANDARD
  6
Continuous
 62
     7
370
    20
100
AcDbCircle
 10
103.9576656969836
 20
88.99533513697733
 30
0.0
 40
2.0
100
AcDbArc
 50
60.00000000000018
 51
90.0
  0
LINE
  5
FA
330
B6
100
AcDbEntity
  8
12_Linie
 62
     7
370
    20
100
AcDbLine
 10
104.9576656969836
 20
118.1553751369773
 30
0.0
 11
202.6242349468315
 21
118.1553751369773
 31
0.0
  0
LINE
  5
FB
330
B6
100
AcDbEntity
  8
12_Linie
 62
     7
370
    20
100
AcDbLine
 10
104.9576656969836
 20
118.1553751369773
 30
0.0
 11
104.9576656969836
 21
82.99533513697733
 31
0.0
  0
ARC
  5
FC
330
B6
100
AcDbEntity
  8
STANDARD
  6
Continuous
 62
     7
100
AcDbCircle
 10
103.9576656969836
 20
116.9953351369773
 30
0.0
 40
2.0
100
AcDbArc
 50
0.0
 51
4.589715336925476
  0
ARC
  5
FD
330
B6
100
AcDbEntity
  8
STANDARD
  6
Continuous
 62
     7
370
    20
100
AcDbCircle
 10
103.9576656969836
 20
116.9953351369773
 30
0.0
 40
2.0
100
AcDbArc
 50
35.45194934483454
 51
90.0
  0
ARC
  5
FE
330
B6
100
AcDbEntity
  8
STANDARD
  6
Continuous
 62
     7
370
    20
100
AcDbCircle
 10
103.9576656969836
 20
116.9953351369773
 30
0.0
 40
2.0
100
AcDbArc
 50
270.0
 51
300.0
  0
ARC
  5
FF
330
B6
100
AcDbEntity
  8
STANDARD
  6
Continuous
 62
     7
370
    20
100
AcDbCircle
 10
103.9576656969836
 20
112.9953351369773
 30
0.0
 40
2.0
100
AcDbArc
 50
60.00000000000001
 51
90.0
  0
ARC
  5
100
330
B6
100
AcDbEntity
  8
STANDARD
  6
Continuous
 62
     7
370
    20
100
AcDbCircle
 10
103.9576656969836
 20
112.9953351369773
 30
0.0
 40
2.0
100
AcDbArc
 50
270.0
 51
300.0
  0
ARC
  5
101
330
B6
100
AcDbEntity
  8
STANDARD
  6
Continuous
 62
     7
370
    20
100
AcDbCircle
 10
103.9576656969836
 20
108.9953351369773
 30
0.0
 40
2.0
100
AcDbArc
 50
59.99999999999996
 51
90.0
  0
ARC
  5
102
330
B6
100
AcDbEntity
  8
STANDARD
  6
Continuous
 62
     7
370
    20
100
AcDbCircle
 10
103.9576656969836
 20
108.9953351369773
 30
0.0
 40
2.0
100
AcDbArc
 50
270.0
 51
300.0
  0
ARC
  5
103
330
B6
100
AcDbEntity
  8
STANDARD
  6
Continuous
 62
     7
370
    20
100
AcDbCircle
 10
103.9576656969836
 20
104.9953351369773
 30
0.0
 40
2.0
100
AcDbArc
 50
60.00000000000021
 51
90.0
  0
ARC
  5
104
330
B6
100
AcDbEntity
  8
STANDARD
  6
Continuous
 62
     7
370
    20
100
AcDbCircle
 10
103.9576656969836
 20
104.9953351369773
 30
0.0
 40
2.0
100
AcDbArc
 50
270.0
 51
299.9999999999998
  0
ARC
  5
105
330
B6
100
AcDbEntity
  8
STANDARD
  6
Continuous
 62
     7
370
    20
100
AcDbCircle
 10
103.9576656969836
 20
100.9953351369773
 30
0.0
 40
2.0
100
AcDbArc
 50
60.00000000000018
 51
90.0
  0
ARC
  5
106
330
B6
100
AcDbEntity
  8
STANDARD
  6
Continuous
 62
     7
370
    20
100
AcDbCircle
 10
103.9576656969836
 20
100.9953351369773
 30
0.0
 40
2.0
100
AcDbArc
 50
270.0
 51
299.9999999999997
  0
ARC
  5
107
330
B6
100
AcDbEntity
  8
STANDARD
  6
Continuous
 62
     7
370
    20
100
AcDbCircle
 10
103.9576656969836
 20
96.99533513697733
 30
0.0
 40
2.0
100
AcDbArc
 50
59.99999999999991
 51
90.0
  0
ARC
  5
108
330
B6
100
AcDbEntity
  8
STANDARD
  6
Continuous
 62
     7
370
    20
100
AcDbCircle
 10
103.9576656969836
 20
96.99533513697733
 30
0.0
 40
2.0
100
AcDbArc
 50
270.0
 51
300.0000000000001
  0
ARC
  5
109
330
B6
100
AcDbEntity
  8
STANDARD
  6
Continuous
 62
     7
370
    20
100
AcDbCircle
 10
103.9576656969836
 20
92.99533513697733
 30
0.0
 40
2.0
100
AcDbArc
 50
59.99999999999954
 51
90.0
  0
ARC
  5
10A
330
B6
100
AcDbEntity
  8
STANDARD
  6
Continuous
 62
     7
370
    20
100
AcDbCircle
 10
103.9576656969836
 20
92.99533513697733
 30
0.0
 40
2.0
100
AcDbArc
 50
270.0
 51
300.0000000000005
  0
ARC
  5
10B
330
B6
100
AcDbEntity
  8
STANDARD
  6
Continuous
 62
     7
370
    20
100
AcDbCircle
 10
103.9576656969836
 20
88.99533513697733
 30
0.0
 40
2.0
100
AcDbArc
 50
270.0
 51
299.9999999999998
  0
ARC
  5
10C
330
B6
100
AcDbEntity
  8
STANDARD
  6
Continuous
 62
     7
370
    20
100
AcDbCircle
 10
103.9576656969836
 20
84.99533513697733
 30
0.0
 40
2.0
100
AcDbArc
 50
59.99999999999954
 51
90.0
  0
LINE
  5
10D
330
B6
100
AcDbEntity
  8
12_Linie
 62
     7
370
    20
100
AcDbLine
 10
104.9576656969836
 20
113.1553751369773
 30
0.0
 11
105.9576656969836
 21
113.1553751369773
 31
0.0
  0
LINE
  5
10E
330
B6
100
AcDbEntity
  8
12_Linie
 62
     7
370
    20
100
AcDbLine
 10
104.9576656969836
 20
103.1553751369773
 30
0.0
 11
105.9576656969836
 21
103.1553751369773
 31
0.0
  0
HATCH
  5
10F
330
B6
100
AcDbEntity
  8
18_Schraffur
 62
   251
100
AcDbHatch
 10
0.0
 20
0.0
 30
0.0
210
0.0
220
0.0
230
1.0
  2
SOLID
 70
     1
 71
     0
 91
        1
 92
        0
 93
        4
 72
     1
 10
105.9576656969836
 20
118.1553751369773
 11
104.9576656969836
 21
118.1553751369773
 72
     1
 10
104.9576656969836
 20
118.1553751369773
 11
104.9576656969836
 21
113.1553751369773
 72
     1
 10
104.9576656969836
 20
113.1553751369773
 11
105.9576656969836
 21
113.1553751369773
 72
     1
 10
105.9576656969836
 20
113.1553751369773
 11
105.9576656969836
 21
118.1553751369773
 97
        0
 75
     0
 76
     1
 98
        0
  0
LINE
  5
110
330
B6
100
AcDbEntity
  8
12_Linie
 62
     7
370
    20
100
AcDbLine
 10
104.9576656969836
 20
93.15537513697727
 30
0.0
 11
105.9576656969836
 21
93.15537513697727
 31
0.0
  0
HATCH
  5
111
330
B6
100
AcDbEntity
  8
18_Schraffur
 62
   251
100
AcDbHatch
 10
0.0
 20
0.0
 30
0.0
210
0.0
220
0.0
230
1.0
  2
SOLID
 70
     1
 71
     0
 91
        1
 92
        0
 93
        4
 72
     1
 10
105.9576656969836
 20
103.1553751369773
 11
104.9576656969836
 21
103.1553751369773
 72
     1
 10
104.9576656969836
 20
103.1553751369773
 11
104.9576656969836
 21
93.15537513697727
 72
     1
 10
104.9576656969836
 20
93.15537513697727
 11
105.9576656969836
 21
93.15537513697727
 72
     1
 10
105.9576656969836
 20
93.15537513697727
 11
105.9576656969836
 21
103.1553751369773
 97
        0
 75
     0
 76
     1
 98
        0
  0
LINE
  5
112
330
B6
100
AcDbEntity
  8
STANDARD
  6
Continuous
 62
     7
370
    40
100
AcDbLine
 10
105.9576656969836
 20
125.8553751369773
 30
0.0
 11
105.9576656969836
 21
118.1553751369773
 31
0.0
  0
LINE
  5
113
330
B6
100
AcDbEntity
  8
STANDARD
  6
Continuous
 62
     7
370
    60
100
AcDbLine
 10
105.9576656969836
 20
117.1553751369773
 30
0.0
 11
105.9576656969836
 21
82.99533513697733
 31
0.0
  0
HATCH
  5
114
330
B6
100
AcDbEntity
  8
Schraff_Dämmung
 62
     7
100
AcDbHatch
 10
0.0
 20
0.0
 30
0.0
210
0.0
220
0.0
230
1.0
  2
SOLID
 70
     1
 71
     0
 91
        7
 92
        0
 93
        4
 72
     1
 10
101.4410143803787
 20
134.1553751369773
 11
100.7410143803787
 21
134.1553751369773
 72
     1
 10
100.7410143803787
 20
134.1553751369773
 11
100.7410143803787
 21
134.0553751369773
 72
     1
 10
100.7410143803787
 20
134.0553751369773
 11
101.4410143803787
 21
134.0553751369773
 72
     1
 10
101.4410143803787
 20
134.0553751369773
 11
101.4410143803787
 21
134.1553751369773
 97
        0
 92
        0
 93
        4
 72
     1
 10
101.4410143803787
 20
134.0553751369773
 11
100.7410143803787
 21
134.0553751369773
 72
     1
 10
100.7410143803787
 20
134.0553751369773
 11
100.7981572375215
 21
133.8553751369773
 72
     1
 10
100.7981572375215
 20
133.8553751369773
 11
101.3838715232359
 21
133.8553751369773
 72
     1
 10
101.3838715232359
 20
133.8553751369773
 11
101.4410143803787
 21
134.0553751369773
 97
        0
 92
        0
 93
        4
 72
     1
 10
101.3838715232359
 20
133.8553751369773
 11
100.7981572375215
 21
133.8553751369773
 72
     1
 10
100.7981572375215
 20
133.8553751369773
 11
100.9410143803787
 21
133.3553751369773
 72
     1
 10
100.9410143803787
 20
133.3553751369773
 11
101.2410143803787
 21
133.3553751369773
 72
     1
 10
101.2410143803787
 20
133.3553751369773
 11
101.3838715232359
 21
133.8553751369773
 97
        0
 92
        0
 93
        4
 72
     1
 10
101.2410143803787
 20
133.3553751369773
 11
100.9410143803787
 21
133.3553751369773
 72
     1
 10
100.9410143803786
 20
133.3553751369774
 11
100.9410143803786
 21
132.9818528764446
 72
     1
 10
100.9410143803786
 20
132.9818528764446
 11
101.2410143803786
 21
132.9545801491719
 72
     1
 10
101.2410143803786
 20
132.9545801491719
 11
101.2410143803786
 21
133.3553751369774
 97
        0
 92
        0
 93
        4
 72
     1
 10
101.2410143803786
 20
132.9545801491719
 11
100.9410143803786
 21
132.9818528764446
 72
     1
 10
100.9410143803786
 20
132.9818528764446
 11
100.9410143803786
 21
132.0576645223411
 72
     1
 10
100.9410143803786
 20
132.0576645223411
 11
101.2410143803786
 21
132.0303917950684
 72
     1
 10
101.2410143803786
 20
132.0303917950684
 11
101.2410143803786
 21
132.9545801491719
 97
        0
 92
        0
 93
        4
 72
     1
 10
101.2410143803786
 20
132.0303917950684
 11
100.9410143803786
 21
132.0576645223411
 72
     1
 10
100.9410143803786
 20
132.0576645223411
 11
100.9410143803786
 21
131.3290825542361
 72
     1
 10
100.9410143803786
 20
131.3290825542361
 11
101.2410143803786
 21
131.3018098269633
 72
     1
 10
101.2410143803786
 20
131.3018098269633
 11
101.2410143803786
 21
132.0303917950684
 97
        0
 92
        0
 93
        4
 72
     1
 10
101.2410143803786
 20
131.3018098269633
 11
100.9410143803786
 21
131.3290825542361
 72
     1
 10
100.9410143803786
 20
131.3290825542361
 11
100.9410143803786
 21
130.3874709831369
 72
     1
 10
100.9410143803787
 20
130.3874709831367
 11
101.2410143803787
 21
130.3874709831367
 72
     1
 10
101.2410143803786
 20
130.3874709831368
 11
101.2410143803786
 21
131.3018098269633
 97
        0
 75
     0
 76
     1
 98
        0
  0
LINE
  5
115
330
B6
100
AcDbEntity
  8
STANDARD
  6
Continuous
 62
     7
370
    20
100
AcDbLine
 10
86.59829569698368
 20
133.8553751369773
 30
0.0
 11
127.9114156969837
 21
133.8553751369773
 31
0.0
  0
LINE
  5
116
330
B6
100
AcDbEntity
  8
STANDARD
  6
Continuous
 62
     7
370
    20
100
AcDbLine
 10
95.95766569698363
 20
133.7553751369774
 30
0.0
 11
95.95766569698363
 21
82.99533513697733
 31
0.0
  0
HATCH
  5
117
330
B6
100
AcDbEntity
  8
18_Schraffur
 62
   251
100
AcDbHatch
 10
0.0
 20
0.0
 30
0.0
210
0.0
220
0.0
230
1.0
  2
SOLID
 70
     1
 71
     0
 91
        1
 92
        0
 93
        4
 72
     1
 10
175.9576656969836
 20
118.1553751369773
 11
165.9576656969836
 21
118.1553751369773
 72
     1
 10
165.9576656969836
 20
118.1553751369773
 11
165.9576656969836
 21
117.1553751369772
 72
     1
 10
165.9576656969836
 20
117.1553751369772
 11
175.9576656969836
 21
117.1553751369772
 72
     1
 10
175.9576656969836
 20
117.1553751369772
 11
175.9576656969836
 21
118.1553751369773
 97
        0
 75
     0
 76
     1
 98
        0
  0
TEXT
  5
118
330
B6
100
AcDbEntity
  8
Folie _ 3
  6
Continuous
 62
     7
100
AcDbText
 10
181.146291554525
 20
143.9935226821534
 30
0.0
 40
3.177854776382446
  1
- Stahlbetondecke
 41
1.071865229477616
  7
Style0
100
AcDbText
  0
LINE
  5
119
330
B6
100
AcDbEntity
  8
STANDARD
  6
Continuous
 62
     7
370
    40
100
AcDbLine
 10
127.9114156969837
 20
125.8553751369773
 30
0.0
 11
127.9114156969837
 21
118.1553751369773
 31
0.0
  0
LINE
  5
11A
330
B6
100
AcDbEntity
  8
STANDARD
  6
Continuous
 62
     7
370
    40
100
AcDbLine
 10
97.26574594762951
 20
135.1553751369773
 30
0.0
 11
202.6242349468315
 21
135.1553751369773
 31
0.0
  0
HATCH
  5
11B
330
B6
100
AcDbEntity
  8
18_Schraffur
 62
   251
100
AcDbHatch
 10
0.0
 20
0.0
 30
0.0
210
0.0
220
0.0
230
1.0
  2
SOLID
 70
     1
 71
     0
 91
        1
 92
        0
 93
        4
 72
     1
 10
195.9576656969836
 20
118.1553751369773
 11
185.9576656969836
 21
118.1553751369773
 72
     1
 10
185.9576656969836
 20
118.1553751369773
 11
185.9576656969836
 21
117.1553751369772
 72
     1
 10
185.9576656969836
 20
117.1553751369772
 11
195.9576656969836
 21
117.1553751369772
 72
     1
 10
195.9576656969836
 20
117.1553751369772
 11
195.9576656969836
 21
118.1553751369773
 97
        0
 75
     0
 76
     1
 98
        0
  0
LINE
  5
11C
330
B6
100
AcDbEntity
  8
12_Linie
 62
     7
370
    20
100
AcDbLine
 10
175.9576656969836
 20
117.1553751369772
 30
0.0
 11
175.9576656969836
 21
118.1553751369773
 31
0.0
  0
LINE
  5
11D
330
B6
100
AcDbEntity
  8
STANDARD
  6
Continuous
 62
     7
370
    20
100
AcDbLine
 10
86.09829569698368
 20
125.6980151369773
 30
0.0
 11
86.61455872525994
 21
128.1638760346576
 31
0.0
  0
LINE
  5
11E
330
B6
100
AcDbEntity
  8
STANDARD
  6
Continuous
 62
     7
370
    60
100
AcDbLine
 10
130.9576656969836
 20
95.15537513697727
 30
0.0
 11
130.9576656969836
 21
81.99533513697733
 31
0.0
  0
HATCH
  5
11F
330
B6
100
AcDbEntity
  8
Schraff_Dämmung
 62
   253
100
AcDbHatch
 10
0.0
 20
0.0
 30
0.0
210
0.0
220
0.0
230
1.0
  2
SOLID
 70
     1
 71
     0
 91
        2
 92
        0
 93
        8
 72
     1
 10
95.45766569698354
 20
124.0773484305072
 11
95.45766569698354
 21
128.6782509652006
 72
     1
 10
95.45766569698354
 20
128.6782509652006
 11
95.05766569698353
 21
128.5639652509149
 72
     1
 10
95.05766569698353
 20
128.5639652509149
 11
95.05766569698353
 21
124.3316292323137
 72
     1
 10
95.05766569698353
 20
124.3316292323137
 11
90.42287046359625
 21
122.1593885520855
 72
     2
 10
82.93554340646233
 20
121.7235748998103
 40
7.5
 50
356.6687524330531
 51
534.2833195183634
 73
     0
 72
     1
 10
75.4728438097026
 20
120.9765041344051
 11
75.07483316454208
 21
120.9366603602502
 72
     2
 10
82.93554340646233
 20
121.7235748998103
 40
7.900000000000046
 50
185.7166804816363
 51
361.3523144162857
 73
     1
 72
     1
 10
90.83334308048907
 20
121.9100160673246
 11
95.45766569698354
 21
124.0773484305072
 97
        0
 92
        0
 93
        4
 72
     1
 10
95.45766569698363
 20
131.5195497586895
 11
95.05766569698363
 21
131.5195497586895
 72
     1
 10
95.05766569698353
 20
131.5195497586895
 11
95.05766569698363
 21
129.2639652509149
 72
     1
 10
95.05766569698363
 20
129.2639652509149
 11
95.45766569698354
 21
129.1496795366292
 72
     1
 10
95.45766569698354
 20
129.1496795366292
 11
95.45766569698354
 21
131.5195497586894
 97
        0
 75
     0
 76
     1
 98
        0
  0
HATCH
  5
120
330
B6
100
AcDbEntity
  8
18_Schraffur
 62
   251
100
AcDbHatch
 10
0.0
 20
0.0
 30
0.0
210
0.0
220
0.0
230
1.0
  2
SOLID
 70
     1
 71
     0
 91
        1
 92
        0
 93
        4
 72
     1
 10
155.9576656969836
 20
118.1553751369773
 11
145.9576656969836
 21
118.1553751369773
 72
     1
 10
145.9576656969836
 20
118.1553751369773
 11
145.9576656969836
 21
117.1553751369772
 72
     1
 10
145.9576656969836
 20
117.1553751369772
 11
155.9576656969836
 21
117.1553751369772
 72
     1
 10
155.9576656969836
 20
117.1553751369772
 11
155.9576656969836
 21
118.1553751369773
 97
        0
 75
     0
 76
     1
 98
        0
  0
HATCH
  5
121
330
B6
100
AcDbEntity
  8
Folie _ 3
  6
Continuous
 62
     7
370
    20
100
AcDbHatch
 10
0.0
 20
0.0
 30
0.0
210
0.0
220
0.0
230
1.0
  2
ANSI33
 70
     0
 71
     0
 91
        1
 92
        0
 93
        4
 72
     1
 10
130.9576656969836
 20
95.15537513697727
 11
130.9576656969836
 21
81.99533513697733
 72
     1
 10
130.9576656969836
 20
81.99533513697733
 11
105.9576656969836
 21
81.99533513697733
 72
     1
 10
105.9576656969836
 20
81.99533513697733
 11
105.9576656969836
 21
95.15537513697727
 72
     1
 10
105.9576656969836
 20
95.15537513697727
 11
130.9576656969836
 21
95.15537513697727
 97
        0
 75
     0
 76
     1
 52
0.0
 41
25.0
 77
     0
 78
     2
 53
45.0
 43
-86.80866756266887
 44
719.7896479882904
 45
-4.419417382415922
 46
4.419417382415921
 79
     0
 53
45.0
 43
-82.38925018766888
 44
719.7896479882904
 45
-4.419417382415922
 46
4.419417382415921
 79
     2
 49
3.125
 49
-1.5625
 98
        0
  0
LINE
  5
122
330
B6
100
AcDbEntity
  8
12_Linie
 62
     7
370
    20
100
AcDbLine
 10
145.9576656969836
 20
117.1553751369772
 30
0.0
 11
145.9576656969836
 21
118.1553751369773
 31
0.0
  0
HATCH
  5
123
330
B6
100
AcDbEntity
  8
18_Schraffur
 62
   251
100
AcDbHatch
 10
0.0
 20
0.0
 30
0.0
210
0.0
220
0.0
230
1.0
  2
SOLID
 70
     1
 71
     0
 91
        1
 92
        0
 93
        4
 72
     1
 10
115.9576656969836
 20
118.1553751369773
 11
105.9576656969836
 21
118.1553751369773
 72
     1
 10
105.9576656969836
 20
118.1553751369773
 11
105.9576656969836
 21
117.1553751369772
 72
     1
 10
105.9576656969836
 20
117.1553751369772
 11
115.9576656969836
 21
117.1553751369772
 72
     1
 10
115.9576656969836
 20
117.1553751369772
 11
115.9576656969836
 21
118.1553751369773
 97
        0
 75
     0
 76
     1
 98
        0
  0
HATCH
  5
124
330
B6
100
AcDbEntity
  8
18_Schraffur
 62
   251
100
AcDbHatch
 10
0.0
 20
0.0
 30
0.0
210
0.0
220
0.0
230
1.0
  2
SOLID
 70
     1
 71
     0
 91
        1
 92
        0
 93
        4
 72
     1
 10
135.9576656969836
 20
118.1553751369773
 11
125.9576656969836
 21
118.1553751369773
 72
     1
 10
125.9576656969836
 20
118.1553751369773
 11
125.9576656969836
 21
117.1553751369772
 72
     1
 10
125.9576656969836
 20
117.1553751369772
 11
135.9576656969836
 21
117.1553751369772
 72
     1
 10
135.9576656969836
 20
117.1553751369772
 11
135.9576656969836
 21
118.1553751369773
 97
        0
 75
     0
 76
     1
 98
        0
  0
LINE
  5
125
330
B6
100
AcDbEntity
  8
12_Linie
 62
     7
370
    20
100
AcDbLine
 10
115.9576656969836
 20
117.1553751369772
 30
0.0
 11
115.9576656969836
 21
118.1553751369773
 31
0.0
  0
LINE
  5
126
330
B6
100
AcDbEntity
  8
12_Linie
 62
     7
370
    20
100
AcDbLine
 10
125.9576656969836
 20
117.1553751369772
 30
0.0
 11
125.9576656969836
 21
118.1553751369773
 31
0.0
  0
LINE
  5
127
330
B6
100
AcDbEntity
  8
12_Linie
 62
     7
370
    20
100
AcDbLine
 10
135.9576656969836
 20
117.1553751369772
 30
0.0
 11
135.9576656969836
 21
118.1553751369773
 31
0.0
  0
LINE
  5
128
330
B6
100
AcDbEntity
  8
12_Linie
 62
     7
370
    20
100
AcDbLine
 10
155.9576656969836
 20
117.1553751369772
 30
0.0
 11
155.9576656969836
 21
118.1553751369773
 31
0.0
  0
LINE
  5
129
330
B6
100
AcDbEntity
  8
12_Linie
 62
     7
370
    20
100
AcDbLine
 10
165.9576656969836
 20
117.1553751369772
 30
0.0
 11
165.9576656969836
 21
118.1553751369773
 31
0.0
  0
LINE
  5
12A
330
B6
100
AcDbEntity
  8
STANDARD
  6
Continuous
 62
     7
370
    20
100
AcDbLine
 10
95.45766569698363
 20
133.7553751369774
 30
0.0
 11
95.45766569698363
 21
82.99533513697733
 31
0.0
  0
LINE
  5
12B
330
B6
100
AcDbEntity
  8
STANDARD
  6
Continuous
 62
     7
370
    40
100
AcDbLine
 10
127.9114156969837
 20
125.8553751369773
 30
0.0
 11
127.9114156969837
 21
134.1553751369773
 31
0.0
  0
HATCH
  5
12C
330
B6
100
AcDbEntity
  8
Schraff_Dämmung
 62
     7
100
AcDbHatch
 10
0.0
 20
0.0
 30
0.0
210
0.0
220
0.0
230
1.0
  2
SOLID
 70
     1
 71
     0
 91
        7
 92
        0
 93
        4
 72
     1
 10
122.3847794425606
 20
134.1553751369773
 11
121.6847794425606
 21
134.1553751369773
 72
     1
 10
121.6847794425606
 20
134.1553751369773
 11
121.6847794425606
 21
134.0553751369773
 72
     1
 10
121.6847794425606
 20
134.0553751369773
 11
122.3847794425606
 21
134.0553751369773
 72
     1
 10
122.3847794425606
 20
134.0553751369773
 11
122.3847794425606
 21
134.1553751369773
 97
        0
 92
        0
 93
        4
 72
     1
 10
122.3847794425606
 20
134.0553751369773
 11
121.6847794425606
 21
134.0553751369773
 72
     1
 10
121.6847794425606
 20
134.0553751369773
 11
121.7419222997034
 21
133.8553751369773
 72
     1
 10
121.7419222997034
 20
133.8553751369773
 11
122.3276365854177
 21
133.8553751369773
 72
     1
 10
122.3276365854177
 20
133.8553751369773
 11
122.3847794425606
 21
134.0553751369773
 97
        0
 92
        0
 93
        4
 72
     1
 10
122.3276365854177
 20
133.8553751369773
 11
121.7419222997034
 21
133.8553751369773
 72
     1
 10
121.7419222997034
 20
133.8553751369773
 11
121.8847794425606
 21
133.3553751369773
 72
     1
 10
121.8847794425606
 20
133.3553751369773
 11
122.1847794425606
 21
133.3553751369773
 72
     1
 10
122.1847794425606
 20
133.3553751369773
 11
122.3276365854177
 21
133.8553751369773
 97
        0
 92
        0
 93
        4
 72
     1
 10
122.1847794425606
 20
133.3553751369773
 11
121.8847794425606
 21
133.3553751369773
 72
     1
 10
121.8847794425605
 20
133.3553751369774
 11
121.8847794425605
 21
132.9818528764446
 72
     1
 10
121.8847794425605
 20
132.9818528764446
 11
122.1847794425605
 21
132.9545801491719
 72
     1
 10
122.1847794425605
 20
132.9545801491719
 11
122.1847794425605
 21
133.3553751369774
 97
        0
 92
        0
 93
        4
 72
     1
 10
122.1847794425605
 20
132.9545801491719
 11
121.8847794425605
 21
132.9818528764446
 72
     1
 10
121.8847794425605
 20
132.9818528764446
 11
121.8847794425605
 21
132.0576645223411
 72
     1
 10
121.8847794425605
 20
132.0576645223411
 11
122.1847794425605
 21
132.0303917950684
 72
     1
 10
122.1847794425605
 20
132.0303917950684
 11
122.1847794425605
 21
132.9545801491719
 97
        0
 92
        0
 93
        4
 72
     1
 10
122.1847794425605
 20
132.0303917950684
 11
121.8847794425605
 21
132.0576645223411
 72
     1
 10
121.8847794425605
 20
132.0576645223411
 11
121.8847794425605
 21
131.3290825542361
 72
     1
 10
121.8847794425605
 20
131.3290825542361
 11
122.1847794425605
 21
131.3018098269633
 72
     1
 10
122.1847794425605
 20
131.3018098269633
 11
122.1847794425605
 21
132.0303917950684
 97
        0
 92
        0
 93
        4
 72
     1
 10
122.1847794425605
 20
131.3018098269633
 11
121.8847794425605
 21
131.3290825542361
 72
     1
 10
121.8847794425605
 20
131.3290825542361
 11
121.8847794425605
 21
130.3874709831369
 72
     1
 10
121.8847794425606
 20
130.3874709831367
 11
122.1847794425606
 21
130.3874709831367
 72
     1
 10
122.1847794425605
 20
130.3874709831368
 11
122.1847794425605
 21
131.3018098269633
 97
        0
 75
     0
 76
     1
 98
        0
  0
ARC
  5
12D
330
B6
100
AcDbEntity
  8
STANDARD
  6
Continuous
 62
     7
370
    20
100
AcDbCircle
 10
86.59829569698368
 20
133.3553751369773
 30
0.0
 40
0.5
100
AcDbArc
 50
90.0
 51
180.0
  0
HATCH
  5
12E
330
B6
100
AcDbEntity
  8
Folie _ 3
  6
Continuous
 62
    30
100
AcDbHatch
 10
0.0
 20
0.0
 30
0.0
210
0.0
220
0.0
230
1.0
  2
SOLID
 70
     1
 71
     0
 91
        2
 92
        0
 93
        4
 72
     1
 10
181.146291554525
 20
135.1553751369773
 11
97.26574594762951
 21
135.1553751369773
 72
     1
 10
97.26574594762951
 20
135.1553751369773
 11
97.26574594762951
 21
134.1553751369773
 72
     1
 10
97.26574594762951
 20
134.1553751369773
 11
181.146291554525
 21
134.1553751369773
 72
     1
 10
181.146291554525
 20
134.1553751369773
 11
181.146291554525
 21
135.1553751369773
 97
        0
 92
        0
 93
        4
 72
     1
 10
202.6242349468315
 20
135.1553751369773
 11
181.146291554525
 21
135.1553751369773
 72
     1
 10
181.146291554525
 20
135.1553751369773
 11
181.146291554525
 21
134.1553751369773
 72
     1
 10
181.146291554525
 20
134.1553751369773
 11
202.6242349468315
 21
134.1553751369773
 72
     1
 10
202.6242349468315
 20
134.1553751369773
 11
202.6242349468315
 21
135.1553751369773
 97
        0
 75
     0
 76
     1
 98
        0
  0
LINE
  5
12F
330
B6
100
AcDbEntity
  8
STANDARD
  6
Continuous
 62
     7
370
    20
100
AcDbLine
 10
86.09829569698368
 20
133.3553751369773
 30
0.0
 11
86.09829569698368
 21
125.6980151369773
 31
0.0
  0
TEXT
  5
130
330
B6
100
AcDbEntity
  8
Folie _ 3
  6
Continuous
 62
     7
100
AcDbText
 10
107.1200911177805
 20
141.1546681177007
 30
0.0
 40
3.177854776382446
  1
vk 1,3/1,5mm
 41
1.071865229477616
  7
Style0
100
AcDbText
  0
LINE
  5
131
330
B6
100
AcDbEntity
  8
Folie _ 3
  6
Continuous
 62
     7
370
    30
100
AcDbLine
 10
107.1200911177805
 20
145.8115664883509
 30
0.0
 11
102.4031242553675
 21
135.1553751369773
 31
0.0
  0
TEXT
  5
132
330
B6
100
AcDbEntity
  8
Folie _ 3
  6
Continuous
 62
     7
100
AcDbText
 10
107.1200911177805
 20
145.8115664883509
 30
0.0
 40
3.177854776382446
  1
COVERiT NOVOtan EPDM
 41
1.071865229477616
  7
Style0
100
AcDbText
  0
LINE
  5
133
330
B6
100
AcDbEntity
  8
STANDARD
  6
Continuous
 62
     7
370
    20
100
AcDbLine
 10
85.79829569698369
 20
133.3553751369773
 30
0.0
 11
85.79829569698369
 21
125.5996743333572
 31
0.0
  0
LINE
  5
134
330
B6
100
AcDbEntity
  8
Folie _ 3
  6
Continuous
 62
     7
370
    30
100
AcDbLine
 10
107.1200911177805
 20
158.9728368050984
 30
0.0
 11
88.98172834774314
 21
134.1553751369773
 31
0.0
  0
TEXT
  5
135
330
B6
100
AcDbEntity
  8
Folie _ 3
  6
Continuous
 62
     7
100
AcDbText
 10
107.1200911177805
 20
158.9728368050984
 30
0.0
 40
3.177854776382446
  1
Verbundblech
 41
1.071865229477616
  7
Style0
100
AcDbText
  0
LINE
  5
136
330
B6
100
AcDbEntity
  8
STANDARD
  6
Continuous
 62
     7
370
    20
100
AcDbLine
 10
86.38055747134113
 20
125.5822470852185
 30
0.0
 11
86.92106095221371
 21
128.1638760346576
 31
0.0
  0
ARC
  5
137
330
B6
100
AcDbEntity
  8
STANDARD
  6
Continuous
 62
     7
370
    20
100
AcDbCircle
 10
86.59829569698368
 20
133.3553751369773
 30
0.0
 40
0.8
100
AcDbArc
 50
90.0
 51
180.0
  0
ARC
  5
138
330
B6
100
AcDbEntity
  8
STANDARD
  6
Continuous
 62
     7
370
    20
100
AcDbCircle
 10
97.95766569698363
 20
86.99533513697733
 30
0.0
 40
2.0
100
AcDbArc
 50
180.0
 51
270.0
  0
ARC
  5
139
330
B6
100
AcDbEntity
  8
STANDARD
  6
Continuous
 62
     7
370
    20
100
AcDbCircle
 10
97.95766569698363
 20
82.99533513697733
 30
0.0
 40
2.0
100
AcDbArc
 50
90.0
 51
180.0
  0
LINE
  5
13A
330
B6
100
AcDbEntity
  8
STANDARD
  6
Continuous
 62
     7
370
    20
100
AcDbLine
 10
103.9576656969836
 20
86.99533513697733
 30
0.0
 11
97.95766569698363
 21
84.99533513697733
 31
0.0
  0
LINE
  5
13B
330
B6
100
AcDbEntity
  8
STANDARD
  6
Continuous
 62
     7
370
    20
100
AcDbLine
 10
97.95766569698363
 20
84.99533513697733
 30
0.0
 11
103.9576656969836
 21
82.99533513697733
 31
0.0
  0
ARC
  5
13C
330
B6
100
AcDbEntity
  8
STANDARD
  6
Continuous
 62
     7
370
    20
100
AcDbCircle
 10
97.95766569698363
 20
90.99533513697733
 30
0.0
 40
2.0
100
AcDbArc
 50
180.0
 51
270.0
  0
ARC
  5
13D
330
B6
100
AcDbEntity
  8
STANDARD
  6
Continuous
 62
     7
370
    20
100
AcDbCircle
 10
97.95766569698363
 20
86.99533513697733
 30
0.0
 40
2.0
100
AcDbArc
 50
90.0
 51
180.0
  0
LINE
  5
13E
330
B6
100
AcDbEntity
  8
STANDARD
  6
Continuous
 62
     7
370
    20
100
AcDbLine
 10
103.9576656969836
 20
90.99533513697733
 30
0.0
 11
97.95766569698363
 21
88.99533513697733
 31
0.0
  0
LINE
  5
13F
330
B6
100
AcDbEntity
  8
STANDARD
  6
Continuous
 62
     7
370
    20
100
AcDbLine
 10
97.95766569698363
 20
88.99533513697733
 30
0.0
 11
103.9576656969836
 21
86.99533513697733
 31
0.0
  0
ARC
  5
140
330
B6
100
AcDbEntity
  8
STANDARD
  6
Continuous
 62
     7
370
    20
100
AcDbCircle
 10
97.95766569698363
 20
94.99533513697733
 30
0.0
 40
2.0
100
AcDbArc
 50
180.0
 51
270.0
  0
ARC
  5
141
330
B6
100
AcDbEntity
  8
STANDARD
  6
Continuous
 62
     7
370
    20
100
AcDbCircle
 10
97.95766569698363
 20
90.99533513697733
 30
0.0
 40
2.0
100
AcDbArc
 50
90.0
 51
180.0
  0
LINE
  5
142
330
B6
100
AcDbEntity
  8
STANDARD
  6
Continuous
 62
     7
370
    20
100
AcDbLine
 10
103.9576656969836
 20
94.99533513697733
 30
0.0
 11
97.95766569698363
 21
92.99533513697733
 31
0.0
  0
LINE
  5
143
330
B6
100
AcDbEntity
  8
STANDARD
  6
Continuous
 62
     7
370
    20
100
AcDbLine
 10
97.95766569698363
 20
92.99533513697733
 30
0.0
 11
103.9576656969836
 21
90.99533513697733
 31
0.0
  0
ARC
  5
144
330
B6
100
AcDbEntity
  8
STANDARD
  6
Continuous
 62
     7
370
    20
100
AcDbCircle
 10
97.95766569698363
 20
98.99533513697733
 30
0.0
 40
2.0
100
AcDbArc
 50
180.0
 51
270.0
  0
ARC
  5
145
330
B6
100
AcDbEntity
  8
STANDARD
  6
Continuous
 62
     7
370
    20
100
AcDbCircle
 10
97.95766569698363
 20
94.99533513697733
 30
0.0
 40
2.0
100
AcDbArc
 50
90.0
 51
180.0
  0
LINE
  5
146
330
B6
100
AcDbEntity
  8
STANDARD
  6
Continuous
 62
     7
370
    20
100
AcDbLine
 10
103.9576656969836
 20
98.99533513697733
 30
0.0
 11
97.95766569698363
 21
96.99533513697733
 31
0.0
  0
LINE
  5
147
330
B6
100
AcDbEntity
  8
STANDARD
  6
Continuous
 62
     7
370
    20
100
AcDbLine
 10
97.95766569698363
 20
96.99533513697733
 30
0.0
 11
103.9576656969836
 21
94.99533513697733
 31
0.0
  0
ARC
  5
148
330
B6
100
AcDbEntity
  8
STANDARD
  6
Continuous
 62
     7
370
    20
100
AcDbCircle
 10
97.95766569698363
 20
102.9953351369773
 30
0.0
 40
2.0
100
AcDbArc
 50
180.0
 51
270.0
  0
ARC
  5
149
330
B6
100
AcDbEntity
  8
STANDARD
  6
Continuous
 62
     7
370
    20
100
AcDbCircle
 10
97.95766569698363
 20
98.99533513697733
 30
0.0
 40
2.0
100
AcDbArc
 50
90.0
 51
180.0
  0
LINE
  5
14A
330
B6
100
AcDbEntity
  8
STANDARD
  6
Continuous
 62
     7
370
    20
100
AcDbLine
 10
103.9576656969836
 20
102.9953351369773
 30
0.0
 11
97.95766569698363
 21
100.9953351369773
 31
0.0
  0
LINE
  5
14B
330
B6
100
AcDbEntity
  8
STANDARD
  6
Continuous
 62
     7
370
    20
100
AcDbLine
 10
97.95766569698363
 20
100.9953351369773
 30
0.0
 11
103.9576656969836
 21
98.99533513697733
 31
0.0
  0
ARC
  5
14C
330
B6
100
AcDbEntity
  8
STANDARD
  6
Continuous
 62
     7
370
    20
100
AcDbCircle
 10
97.95766569698363
 20
106.9953351369773
 30
0.0
 40
2.0
100
AcDbArc
 50
180.0
 51
270.0
  0
ARC
  5
14D
330
B6
100
AcDbEntity
  8
STANDARD
  6
Continuous
 62
     7
370
    20
100
AcDbCircle
 10
97.95766569698363
 20
102.9953351369773
 30
0.0
 40
2.0
100
AcDbArc
 50
90.0
 51
180.0
  0
LINE
  5
14E
330
B6
100
AcDbEntity
  8
STANDARD
  6
Continuous
 62
     7
370
    20
100
AcDbLine
 10
103.9576656969836
 20
106.9953351369773
 30
0.0
 11
97.95766569698363
 21
104.9953351369773
 31
0.0
  0
LINE
  5
14F
330
B6
100
AcDbEntity
  8
STANDARD
  6
Continuous
 62
     7
370
    20
100
AcDbLine
 10
97.95766569698363
 20
104.9953351369773
 30
0.0
 11
103.9576656969836
 21
102.9953351369773
 31
0.0
  0
ARC
  5
150
330
B6
100
AcDbEntity
  8
STANDARD
  6
Continuous
 62
     7
370
    20
100
AcDbCircle
 10
97.95766569698363
 20
110.9953351369773
 30
0.0
 40
2.0
100
AcDbArc
 50
180.0
 51
270.0
  0
ARC
  5
151
330
B6
100
AcDbEntity
  8
STANDARD
  6
Continuous
 62
     7
370
    20
100
AcDbCircle
 10
97.95766569698363
 20
106.9953351369773
 30
0.0
 40
2.0
100
AcDbArc
 50
90.0
 51
180.0
  0
LINE
  5
152
330
B6
100
AcDbEntity
  8
STANDARD
  6
Continuous
 62
     7
370
    20
100
AcDbLine
 10
103.9576656969836
 20
110.9953351369773
 30
0.0
 11
97.95766569698363
 21
108.9953351369773
 31
0.0
  0
LINE
  5
153
330
B6
100
AcDbEntity
  8
STANDARD
  6
Continuous
 62
     7
370
    20
100
AcDbLine
 10
97.95766569698363
 20
108.9953351369773
 30
0.0
 11
103.9576656969836
 21
106.9953351369773
 31
0.0
  0
ARC
  5
154
330
B6
100
AcDbEntity
  8
STANDARD
  6
Continuous
 62
     7
370
    20
100
AcDbCircle
 10
97.95766569698363
 20
114.9953351369773
 30
0.0
 40
2.0
100
AcDbArc
 50
180.0
 51
270.0
  0
ARC
  5
155
330
B6
100
AcDbEntity
  8
STANDARD
  6
Continuous
 62
     7
370
    20
100
AcDbCircle
 10
97.95766569698363
 20
110.9953351369773
 30
0.0
 40
2.0
100
AcDbArc
 50
90.0
 51
180.0
  0
LINE
  5
156
330
B6
100
AcDbEntity
  8
STANDARD
  6
Continuous
 62
     7
370
    20
100
AcDbLine
 10
103.9576656969836
 20
114.9953351369773
 30
0.0
 11
97.95766569698363
 21
112.9953351369773
 31
0.0
  0
LINE
  5
157
330
B6
100
AcDbEntity
  8
STANDARD
  6
Continuous
 62
     7
370
    20
100
AcDbLine
 10
97.95766569698363
 20
112.9953351369773
 30
0.0
 11
103.9576656969836
 21
110.9953351369773
 31
0.0
  0
ARC
  5
158
330
B6
100
AcDbEntity
  8
STANDARD
  6
Continuous
 62
     7
370
    20
100
AcDbCircle
 10
97.95766569698363
 20
118.9953351369773
 30
0.0
 40
2.0
100
AcDbArc
 50
180.0
 51
270.0
  0
ARC
  5
159
330
B6
100
AcDbEntity
  8
STANDARD
  6
Continuous
 62
     7
370
    20
100
AcDbCircle
 10
97.95766569698363
 20
114.9953351369773
 30
0.0
 40
2.0
100
AcDbArc
 50
90.0
 51
180.0
  0
LINE
  5
15A
330
B6
100
AcDbEntity
  8
STANDARD
  6
Continuous
 62
     7
370
    20
100
AcDbLine
 10
103.9576656969836
 20
118.9953351369773
 30
0.0
 11
97.95766569698363
 21
116.9953351369773
 31
0.0
  0
LINE
  5
15B
330
B6
100
AcDbEntity
  8
STANDARD
  6
Continuous
 62
     7
370
    20
100
AcDbLine
 10
97.95766569698363
 20
116.9953351369773
 30
0.0
 11
103.9576656969836
 21
114.9953351369773
 31
0.0
  0
ARC
  5
15C
330
B6
100
AcDbEntity
  8
STANDARD
  6
Continuous
 62
     7
370
    20
100
AcDbCircle
 10
97.95766569698363
 20
122.9953351369773
 30
0.0
 40
2.0
100
AcDbArc
 50
180.0
 51
270.0
  0
ARC
  5
15D
330
B6
100
AcDbEntity
  8
STANDARD
  6
Continuous
 62
     7
370
    20
100
AcDbCircle
 10
97.95766569698363
 20
118.9953351369773
 30
0.0
 40
2.0
100
AcDbArc
 50
90.0
 51
180.0
  0
LINE
  5
15E
330
B6
100
AcDbEntity
  8
STANDARD
  6
Continuous
 62
     7
370
    20
100
AcDbLine
 10
103.9576656969836
 20
122.9953351369773
 30
0.0
 11
97.95766569698363
 21
120.9953351369771
 31
0.0
  0
LINE
  5
15F
330
B6
100
AcDbEntity
  8
STANDARD
  6
Continuous
 62
     7
370
    20
100
AcDbLine
 10
97.95766569698363
 20
120.9953351369771
 30
0.0
 11
103.9576656969836
 21
118.9953351369773
 31
0.0
  0
ARC
  5
160
330
B6
100
AcDbEntity
  8
STANDARD
  6
Continuous
 62
     7
370
    20
100
AcDbCircle
 10
103.9576656969836
 20
120.9953351369771
 30
0.0
 40
2.0
100
AcDbArc
 50
270.0
 51
359.9
  0
ARC
  5
161
330
B6
100
AcDbEntity
  8
STANDARD
  6
Continuous
 62
     7
370
    20
100
AcDbCircle
 10
103.9576656969836
 20
120.9953351369771
 30
0.0
 40
2.0
100
AcDbArc
 50
0.0
 51
90.0
  0
ARC
  5
162
330
B6
100
AcDbEntity
  8
STANDARD
  6
Continuous
 62
     7
370
    20
100
AcDbCircle
 10
97.95766569698363
 20
126.9953351369773
 30
0.0
 40
2.0
100
AcDbArc
 50
218.857936
 51
270.0
  0
ARC
  5
163
330
B6
100
AcDbEntity
  8
STANDARD
  6
Continuous
 62
     7
370
    20
100
AcDbCircle
 10
97.95766569698363
 20
122.9953351369773
 30
0.0
 40
2.0
100
AcDbArc
 50
90.0
 51
180.0
  0
LINE
  5
164
330
B6
100
AcDbEntity
  8
STANDARD
  6
Continuous
 62
     7
370
    20
100
AcDbLine
 10
100.1933156969836
 20
125.7405451369772
 30
0.0
 11
97.95766569698363
 21
124.9953351369773
 31
0.0
  0
LINE
  5
165
330
B6
100
AcDbEntity
  8
STANDARD
  6
Continuous
 62
     7
370
    20
100
AcDbLine
 10
97.95766569698363
 20
124.9953351369773
 30
0.0
 11
103.9576656969836
 21
122.9953351369773
 31
0.0
  0
ARC
  5
166
330
B6
100
AcDbEntity
  8
STANDARD
  6
Continuous
 62
     7
370
    20
100
AcDbCircle
 10
103.9576656969836
 20
124.9953351369773
 30
0.0
 40
2.0
100
AcDbArc
 50
270.0
 51
359.9
  0
ARC
  5
167
330
B6
100
AcDbEntity
  8
STANDARD
  6
Continuous
 62
     7
370
    20
100
AcDbCircle
 10
103.9576656969836
 20
124.9953351369773
 30
0.0
 40
2.0
100
AcDbArc
 50
0.0
 51
21.876578
  0
LINE
  5
168
330
B6
100
AcDbEntity
  8
STANDARD
  6
Continuous
 62
     7
370
    40
100
AcDbLine
 10
127.9114156969837
 20
125.8553751369773
 30
0.0
 11
95.95766569698363
 21
125.8553751369773
 31
0.0
  0
TEXT
  5
169
330
B6
100
AcDbEntity
  8
Folie _ 3
  6
Continuous
 62
     7
100
AcDbText
 10
181.146291554525
 20
149.4540763153714
 30
0.0
 40
3.177854776382446
  1
- Voranstrich
 41
1.071865229477616
  7
Style0
100
AcDbText
  0
TEXT
  5
16A
330
B6
100
AcDbEntity
  8
Folie _ 3
  6
Continuous
 62
     7
100
AcDbText
 10
181.146291554525
 20
154.9146299485893
 30
0.0
 40
3.177854776382446
  1
- Dampfsperre (*3)
 41
1.071865229477616
  7
Style0
100
AcDbText
  0
TEXT
  5
16B
330
B6
100
AcDbEntity
  8
Folie _ 3
  6
Continuous
 62
     7
100
AcDbText
 10
181.146291554525
 20
160.3751835818074
 30
0.0
 40
3.177854776382446
  1
- Wärmedämmung (*2)
 41
1.071865229477616
  7
Style0
100
AcDbText
  0
TEXT
  5
16C
330
B6
100
AcDbEntity
  8
Folie _ 3
  6
Continuous
 62
    30
100
AcDbText
 10
181.146291554525
 20
165.8357372150253
 30
0.0
 40
3.177854776382446
  1
- COVERiT NOVOtan EPDM vk 1,3/ 1,5 mm
 41
0.966666678754029
  7
Style0
100
AcDbText
  0
LINE
  5
16D
330
B6
100
AcDbEntity
  8
Folie _ 3
  6
Continuous
 62
     7
370
    30
100
AcDbLine
 10
181.146291554525
 20
105.438502633598
 30
0.0
 11
181.146291554525
 21
168.2954805145249
 31
0.0
  0
LINE
  5
16E
330
B6
100
AcDbEntity
  8
STANDARD
  6
Continuous
 62
     7
370
    60
100
AcDbLine
 10
105.9576656969836
 20
95.15537513697727
 30
0.0
 11
202.6242349468315
 21
95.15537513697727
 31
0.0
  0
HATCH
  5
16F
330
B6
100
AcDbEntity
  8
Folie _ 3
  6
Continuous
 62
     7
370
    20
100
AcDbHatch
 10
0.0
 20
0.0
 30
0.0
210
0.0
220
0.0
230
1.0
  2
ANSI33
 70
     0
 71
     0
 91
        1
 92
        0
 93
        4
 72
     1
 10
105.9576656969836
 20
95.15537513697727
 11
105.9576656969836
 21
117.1553751369773
 72
     1
 10
105.9576656969836
 20
117.1553751369773
 11
202.6242349468315
 21
117.1553751369773
 72
     1
 10
202.6242349468315
 20
117.1553751369773
 11
202.6242349468315
 21
95.15537513697727
 72
     1
 10
202.6242349468315
 20
95.15537513697727
 11
105.9576656969836
 21
95.15537513697727
 97
        0
 75
     0
 76
     1
 52
0.0
 41
25.0
 77
     0
 78
     2
 53
45.0
 43
-86.80866756266887
 44
719.7896479882904
 45
-4.419417382415922
 46
4.419417382415921
 79
     0
 53
45.0
 43
-82.38925018766888
 44
719.7896479882904
 45
-4.419417382415922
 46
4.419417382415921
 79
     2
 49
3.125
 49
-1.5625
 98
        0
  0
LINE
  5
170
330
B6
100
AcDbEntity
  8
STANDARD
  6
Continuous
 62
     7
370
    60
100
AcDbLine
 10
105.9576656969836
 20
117.1553751369773
 30
0.0
 11
202.6242349468315
 21
117.1553751369773
 31
0.0
  0
LINE
  5
171
330
B6
100
AcDbEntity
  8
Folie _ 3
  6
Continuous
 62
    30
420
 16741120
100
AcDbLine
 10
202.6242349468315
 20
135.1553751369773
 30
0.0
 11
202.6242349468315
 21
134.1553751369773
 31
0.0
  0
HATCH
  5
172
330
B6
100
AcDbEntity
  8
Folie _ 3
  6
Continuous
 62
    50
100
AcDbHatch
 10
0.0
 20
0.0
 30
0.0
210
0.0
220
0.0
230
1.0
  2
SOLID
 70
     1
 71
     0
 91
        1
 92
        0
 93
        4
 72
     1
 10
127.9114156969837
 20
134.1553751369773
 11
127.9114156969837
 21
125.8553751369773
 72
     1
 10
127.9114156969837
 20
125.8553751369773
 11
202.6242349468315
 21
125.8553751369773
 72
     1
 10
202.6242349468315
 20
125.8553751369773
 11
202.6242349468315
 21
134.1553751369773
 72
     1
 10
202.6242349468315
 20
134.1553751369775
 11
127.9114156969837
 21
134.1553751369775
 97
        0
 75
     0
 76
     1
 98
        0
  0
HATCH
  5
173
330
B6
100
AcDbEntity
  8
Folie _ 3
  6
Continuous
 62
    50
100
AcDbHatch
 10
0.0
 20
0.0
 30
0.0
210
0.0
220
0.0
230
1.0
  2
SOLID
 70
     1
 71
     0
 91
        1
 92
        0
 93
        4
 72
     1
 10
127.9114156969837
 20
125.8553751369773
 11
127.9114156969837
 21
118.1553751369773
 72
     1
 10
127.9114156969837
 20
118.1553751369773
 11
202.6242349468315
 21
118.1553751369773
 72
     1
 10
202.6242349468315
 20
118.1553751369773
 11
202.6242349468315
 21
125.8553751369773
 72
     1
 10
202.6242349468315
 20
125.8553751369774
 11
127.9114156969837
 21
125.8553751369774
 97
        0
 75
     0
 76
     1
 98
        0
  0
LINE
  5
174
330
B6
100
AcDbEntity
  8
STANDARD
  6
Continuous
 62
     7
370
    20
100
AcDbLine
 10
86.59829569698368
 20
134.1553751369773
 30
0.0
 11
97.26574594762951
 21
134.1553751369773
 31
0.0
  0
LINE
  5
175
330
B6
100
AcDbEntity
  8
12_Linie
 62
     7
370
    20
100
AcDbLine
 10
127.9114156969837
 20
125.8553751369773
 30
0.0
 11
202.6242349468315
 21
125.8553751369773
 31
0.0
  0
LINE
  5
176
330
B6
100
AcDbEntity
  8
12_Linie
 62
     7
370
    20
100
AcDbLine
 10
195.9576656969836
 20
117.1553751369772
 30
0.0
 11
195.9576656969836
 21
118.1553751369773
 31
0.0
  0
LINE
  5
177
330
B6
100
AcDbEntity
  8
12_Linie
 62
     7
370
    20
100
AcDbLine
 10
185.9576656969836
 20
117.1553751369772
 30
0.0
 11
185.9576656969836
 21
118.1553751369773
 31
0.0
  0
TEXT
  5
178
330
B6
100
AcDbEntity
  8
34_Gruppe
  6
Continuous
 62
     7
100
AcDbText
 10
33.2516419958788
 20
41.34734781664292
 30
0.0
 40
3.177854776382446
  1
(*2) Wärmedämmung entsprechend druckfest,
 41
0.9804659138007177
  7
Style0
100
AcDbText
  0
TEXT
  5
179
330
B6
100
AcDbEntity
  8
34_Gruppe
  6
Continuous
 62
     7
100
AcDbText
 10
33.2516419958788
 20
35.88679418342497
 30
0.0
 40
3.177854776382446
  1
2-lagig lt. ÖNORM B 3691
 41
0.9804659138007177
  7
Style0
100
AcDbText
  0
TEXT
  5
17A
330
B6
100
AcDbEntity
  8
34_Gruppe
  6
Continuous
 62
     7
100
AcDbText
 10
33.2516419958788
 20
30.69087085273631
 30
0.0
 40
3.177854776382446
  1
(*3) Ohne vorhandene bauphysikalische
 41
0.9804659138007177
  7
Style0
100
AcDbText
  0
TEXT
  5
17B
330
B6
100
AcDbEntity
  8
34_Gruppe
  6
Continuous
 62
     7
100
AcDbText
 10
33.2516419958788
 20
25.23031721951838
 30
0.0
 40
3.177854776382446
  1
Berechnung, Dampfsperre >1000m sd-Wert
 41
0.9804659138007177
  7
Style0
100
AcDbText
  0
TEXT
  5
17C
330
B6
100
AcDbEntity
  8
34_Gruppe
  6
Continuous
 62
     7
100
AcDbText
 10
33.2516419958788
 20
19.76976358630043
 30
0.0
 40
3.177854776382446
  1
lt. ÖNORM B 3691 erforderlich
 41
0.9804659138007177
  7
Style0
100
AcDbText
  0
TEXT
  5
17D
330
B6
100
AcDbEntity
  8
34_Gruppe
  6
Continuous
 62
     7
100
AcDbText
 10
33.2516419958788
 20
46.87403652082565
 30
0.0
 40
3.177854776382446
  1
(*1) Schutzlage lt. ÖNORM B 3691 erforderlich
 41
0.9804659138007177
  7
Style0
100
AcDbText
  0
TEXT
  5
17E
330
B6
100
AcDbEntity
  8
Folie _ 3
  6
Continuous
 62
     7
100
AcDbText
 10
159.0000000000001
 20
41.60835014679677
 30
0.0
 40
3.177854776382446
  1
Traufensaum mit Verbundblech-
 41
1.021345735900753
  7
Style0
100
AcDbText
  0
POLYLINE
  5
17F
330
B6
100
AcDbEntity
  8
Folie _ 3
  6
Continuous
 62
     7
370
    50
100
AcDb2dPolyline
 66
     1
 10
0.0
 20
0.0
 30
0.0
  0
VERTEX
  5
180
330
17F
100
AcDbEntity
  8
Folie _ 3
  6
Continuous
 62
     7
370
    50
100
AcDbVertex
100
AcDb2dVertex
 10
0.0
 20
210.0
 30
0.0
  0
VERTEX
  5
181
330
17F
100
AcDbEntity
  8
Folie _ 3
  6
Continuous
 62
     7
370
    50
100
AcDbVertex
100
AcDb2dVertex
 10
0.0
 20
-0.0000000000001137
 30
0.0
  0
SEQEND
  5
182
330
17F
100
AcDbEntity
  8
Folie _ 3
  6
Continuous
 62
     7
370
    50
  0
POLYLINE
  5
183
330
B6
100
AcDbEntity
  8
Folie _ 3
  6
Continuous
 62
     7
370
    50
100
AcDb2dPolyline
 66
     1
 10
0.0
 20
0.0
 30
0.0
  0
VERTEX
  5
184
330
183
100
AcDbEntity
  8
Folie _ 3
  6
Continuous
 62
     7
370
    50
100
AcDbVertex
100
AcDb2dVertex
 10
0.0
 20
-0.0000000000001137
 30
0.0
  0
VERTEX
  5
185
330
183
100
AcDbEntity
  8
Folie _ 3
  6
Continuous
 62
     7
370
    50
100
AcDbVertex
100
AcDb2dVertex
 10
296.9999999999999
 20
-0.0000000000001137
 30
0.0
  0
SEQEND
  5
186
330
183
100
AcDbEntity
  8
Folie _ 3
  6
Continuous
 62
     7
370
    50
  0
POLYLINE
  5
187
330
B6
100
AcDbEntity
  8
Folie _ 3
  6
Continuous
 62
     7
370
    50
100
AcDb2dPolyline
 66
     1
 10
0.0
 20
0.0
 30
0.0
  0
VERTEX
  5
188
330
187
100
AcDbEntity
  8
Folie _ 3
  6
Continuous
 62
     7
370
    50
100
AcDbVertex
100
AcDb2dVertex
 10
296.9999999999999
 20
-0.0000000000001137
 30
0.0
  0
VERTEX
  5
189
330
187
100
AcDbEntity
  8
Folie _ 3
  6
Continuous
 62
     7
370
    50
100
AcDbVertex
100
AcDb2dVertex
 10
296.9999999999999
 20
210.0
 30
0.0
  0
SEQEND
  5
18A
330
187
100
AcDbEntity
  8
Folie _ 3
  6
Continuous
 62
     7
370
    50
  0
POLYLINE
  5
18B
330
B6
100
AcDbEntity
  8
Folie _ 3
  6
Continuous
 62
     7
370
    50
100
AcDb2dPolyline
 66
     1
 10
0.0
 20
0.0
 30
0.0
  0
VERTEX
  5
18C
330
18B
100
AcDbEntity
  8
Folie _ 3
  6
Continuous
 62
     7
370
    50
100
AcDbVertex
100
AcDb2dVertex
 10
296.9999999999999
 20
210.0
 30
0.0
  0
VERTEX
  5
18D
330
18B
100
AcDbEntity
  8
Folie _ 3
  6
Continuous
 62
     7
370
    50
100
AcDbVertex
100
AcDb2dVertex
 10
0.0
 20
210.0
 30
0.0
  0
SEQEND
  5
18E
330
18B
100
AcDbEntity
  8
Folie _ 3
  6
Continuous
 62
     7
370
    50
  0
POLYLINE
  5
18F
330
B6
100
AcDbEntity
  8
Folie _ 3
  6
Continuous
 62
     7
370
    50
100
AcDb2dPolyline
 66
     1
 10
0.0
 20
0.0
 30
0.0
 70
     1
  0
VERTEX
  5
190
330
18F
100
AcDbEntity
  8
Folie _ 3
  6
Continuous
 62
     7
370
    50
100
AcDbVertex
100
AcDb2dVertex
 10
25.0
 20
205.0
 30
0.0
  0
VERTEX
  5
191
330
18F
100
AcDbEntity
  8
Folie _ 3
  6
Continuous
 62
     7
370
    50
100
AcDbVertex
100
AcDb2dVertex
 10
291.9999999999999
 20
205.0
 30
0.0
  0
VERTEX
  5
192
330
18F
100
AcDbEntity
  8
Folie _ 3
  6
Continuous
 62
     7
370
    50
100
AcDbVertex
100
AcDb2dVertex
 10
291.9999999999999
 20
4.999999999999886
 30
0.0
  0
VERTEX
  5
193
330
18F
100
AcDbEntity
  8
Folie _ 3
  6
Continuous
 62
     7
370
    50
100
AcDbVertex
100
AcDb2dVertex
 10
25.0
 20
4.999999999999886
 30
0.0
  0
SEQEND
  5
194
330
18F
100
AcDbEntity
  8
Folie _ 3
  6
Continuous
 62
     7
370
    50
  0
POLYLINE
  5
195
330
B6
100
AcDbEntity
  8
Folie _ 3
  6
Continuous
 62
     7
370
    50
100
AcDb2dPolyline
 66
     1
 10
0.0
 20
0.0
 30
0.0
  0
VERTEX
  5
196
330
195
100
AcDbEntity
  8
Folie _ 3
  6
Continuous
 62
     7
370
    50
100
AcDbVertex
100
AcDb2dVertex
 10
157.0000000000001
 20
4.999999999999886
 30
0.0
  0
VERTEX
  5
197
330
195
100
AcDbEntity
  8
Folie _ 3
  6
Continuous
 62
     7
370
    50
100
AcDbVertex
100
AcDb2dVertex
 10
157.0000000000001
 20
49.99999999999989
 30
0.0
  0
VERTEX
  5
198
330
195
100
AcDbEntity
  8
Folie _ 3
  6
Continuous
 62
     7
370
    50
100
AcDbVertex
100
AcDb2dVertex
 10
291.9999999999999
 20
49.99999999999989
 30
0.0
  0
SEQEND
  5
199
330
195
100
AcDbEntity
  8
Folie _ 3
  6
Continuous
 62
     7
370
    50
  0
LINE
  5
19A
330
B6
100
AcDbEntity
  8
Folie _ 3
  6
Continuous
 62
     7
100
AcDbLine
 10
157.0000000000001
 20
14.99999999999989
 30
0.0
 11
291.9999999999999
 21
14.99999999999989
 31
0.0
  0
LINE
  5
19B
330
B6
100
AcDbEntity
  8
Folie _ 3
  6
Continuous
 62
     7
100
AcDbLine
 10
157.0000000000001
 20
34.99999999999989
 30
0.0
 11
291.9999999999999
 21
34.99999999999989
 31
0.0
  0
LINE
  5
19C
330
B6
100
AcDbEntity
  8
Folie _ 3
  6
Continuous
 62
     7
100
AcDbLine
 10
184.0000000000001
 20
14.99999999999989
 30
0.0
 11
184.0000000000001
 21
4.999999999999886
 31
0.0
  0
LINE
  5
19D
330
B6
100
AcDbEntity
  8
Folie _ 3
  6
Continuous
 62
     7
100
AcDbLine
 10
211.0000000000001
 20
14.99999999999989
 30
0.0
 11
211.0000000000001
 21
4.999999999999886
 31
0.0
  0
LINE
  5
19E
330
B6
100
AcDbEntity
  8
Folie _ 3
  6
Continuous
 62
     7
100
AcDbLine
 10
238.0000000000001
 20
14.99999999999989
 30
0.0
 11
238.0000000000001
 21
4.999999999999886
 31
0.0
  0
LINE
  5
19F
330
B6
100
AcDbEntity
  8
Folie _ 3
  6
Continuous
 62
     7
100
AcDbLine
 10
265.0000000000001
 20
14.99999999999989
 30
0.0
 11
265.0000000000001
 21
4.999999999999886
 31
0.0
  0
TEXT
  5
1A0
330
B6
100
AcDbEntity
  8
Folie _ 3
  6
Continuous
 62
     7
100
AcDbText
 10
159.0000000000001
 20
46.99999999999989
 30
0.0
 40
2.269896030426025
  1
PLANINHALT:
 41
0.9569915226000473
  7
Style0
100
AcDbText
  0
TEXT
  5
1A1
330
B6
100
AcDbEntity
  8
Folie _ 3
  6
Continuous
 62
     7
100
AcDbText
 10
159.0000000000001
 20
11.99999999999989
 30
0.0
 40
2.269896030426025
  1
MASSSTAB:
 41
1.016258694886636
  7
Style0
100
AcDbText
  0
TEXT
  5
1A2
330
B6
100
AcDbEntity
  8
Folie _ 3
  6
Continuous
 62
     7
100
AcDbText
 10
186.0000000000001
 20
11.99999999999989
 30
0.0
 40
2.269896030426025
  1
ERSTELLT:
 41
1.016258694886636
  7
Style0
100
AcDbText
  0
TEXT
  5
1A3
330
B6
100
AcDbEntity
  8
Folie _ 3
  6
Continuous
 62
     7
100
AcDbText
 10
213.0000000000001
 20
11.99999999999989
 30
0.0
 40
2.269896030426025
  1
BLATT NR.:
 41
1.016258694886636
  7
Style0
100
AcDbText
  0
TEXT
  5
1A4
330
B6
100
AcDbEntity
  8
Folie _ 3
  6
Continuous
 62
     7
100
AcDbText
 10
240.0000000000001
 20
11.99999999999989
 30
0.0
 40
2.269896030426025
  1
DETAIL NR.:
 41
1.016258694886636
  7
Style0
100
AcDbText
  0
TEXT
  5
1A5
330
B6
100
AcDbEntity
  8
Folie _ 3
  6
Continuous
 62
     7
100
AcDbText
 10
267.0000000000001
 20
11.99999999999989
 30
0.0
 40
2.269896030426025
  1
GEZEICHNET:
 41
1.016258694886636
  7
Style0
100
AcDbText
  0
TEXT
  5
1A6
330
B6
100
AcDbEntity
  8
Folie _ 3
  6
Continuous
 62
     7
100
AcDbText
 10
159.1274604630972
 20
32.40944652925617
 30
0.0
 40
0.9079585075378418
  1
Die oben dargestellte Detailzeichnung bezieht sich auf eine Regelkonstruktion, d.h. sie ist zu überprüfen,
 41
0.9399217426440335
  7
Style0
100
AcDbText
  0
TEXT
  5
1A7
330
B6
100
AcDbEntity
  8
Folie _ 3
  6
Continuous
 62
     7
100
AcDbText
 10
159.1274604630972
 20
30.49214549119395
 30
0.0
 40
0.9079585075378418
  1
objektgebunden anzupassen, abzustimmen und gegebenfalls zu ergänzen.
 41
0.9399217426440335
  7
Style0
100
AcDbText
  0
TEXT
  5
1A8
330
B6
100
AcDbEntity
  8
Folie _ 3
  6
Continuous
 62
     7
100
AcDbText
 10
159.1274604630972
 20
28.57484445313173
 30
0.0
 40
0.9079585075378418
  1
Die empfohlenen Anwendungsbereiche sind auf Grund der Erfahrungen und Normen ausgearbeitet.
 41
0.9399217426440335
  7
Style0
100
AcDbText
  0
TEXT
  5
1A9
330
B6
100
AcDbEntity
  8
Folie _ 3
  6
Continuous
 62
     7
100
AcDbText
 10
159.1274604630972
 20
26.65754341506934
 30
0.0
 40
0.9079585075378418
  1
Eine Verbindlichkeit kann hieraus nicht abgeleitet werden. Technische Änderungen sind vorbehalten.
 41
0.9399217426440335
  7
Style0
100
AcDbText
  0
TEXT
  5
1AA
330
B6
100
AcDbEntity
  8
Folie _ 3
  6
Continuous
 62
     7
100
AcDbText
 10
159.1274604630972
 20
24.74024237700695
 30
0.0
 40
0.9079585075378418
  1
Die vorliegende Detailzeichnung verliert bei Erscheinen einer Neuausgabe ihre Gültigkeit.
 41
0.9399217426440335
  7
Style0
100
AcDbText
  0
TEXT
  5
1AB
330
B6
100
AcDbEntity
  8
Folie _ 3
  6
Continuous
 62
     7
100
AcDbText
 10
159.1274604630972
 20
22.82294133894493
 30
0.0
 40
0.9079585075378418
  1
Jede Haftung von COVERiT bei leichter Fahrlässigkeit sowie für Beratung ohne nachfolgende Warenlieferung
 41
0.9399217426440335
  7
Style0
100
AcDbText
  0
TEXT
  5
1AC
330
B6
100
AcDbEntity
  8
Folie _ 3
  6
Continuous
 62
     7
100
AcDbText
 10
159.1274604630972
 20
20.90564030088251
 30
0.0
 40
0.9079585075378418
  1
von COVERiT und gegenüber Dritten (andere als COVERiT-Vertragspartner) ist ausgeschlossen.
 41
0.9399217426440335
  7
Style0
100
AcDbText
  0
TEXT
  5
1AD
330
B6
100
AcDbEntity
  8
Folie _ 3
  6
Continuous
 62
     7
100
AcDbText
 10
159.1274604630972
 20
18.98833926282012
 30
0.0
 40
0.9079585075378418
  1
Verkauf und Lieferung von COVERiT erfolgt ausschließlich zu den allgemeinen Liefer-, Zahlungs- und Gewährleistungsbedingungen von COVERiT.
 41
0.9399217426440335
  7
Style0
100
AcDbText
  0
TEXT
  5
1AE
330
B6
100
AcDbEntity
  8
Folie _ 3
  6
Continuous
 62
     7
100
AcDbText
 10
159.1274604630972
 20
17.0710382247579
 30
0.0
 40
0.9079585075378418
  1
Es gilt österreichisches Recht (ohne UN Kaufrecht). Gerichtsstand ist Wels.
 41
0.9399217426440335
  7
Style0
100
AcDbText
  0
TEXT
  5
1AF
330
B6
100
AcDbEntity
  8
Folie _ 3
  6
Continuous
 62
     7
100
AcDbText
 10
159.0000000000001
 20
6.000000000000085
 30
0.0
 40
3.177854776382446
  1
1:1
 41
0.647972360387026
  7
Style1
100
AcDbText
  0
TEXT
  5
1B0
330
B6
100
AcDbEntity
  8
Folie _ 3
  6
Continuous
 62
     7
100
AcDbText
 10
186.0000000000001
 20
6.000000000000085
 30
0.0
 40
3.177854776382446
  1
07/15
 41
0.647972360387026
  7
Style1
100
AcDbText
  0
TEXT
  5
1B1
330
B6
100
AcDbEntity
  8
Folie _ 3
  6
Continuous
 62
     7
100
AcDbText
 10
213.0000000000001
 20
6.000000000000085
 30
0.0
 40
3.177854776382446
  1
15
 41
0.647972360387026
  7
Style1
100
AcDbText
  0
TEXT
  5
1B2
330
B6
100
AcDbEntity
  8
Folie _ 3
  6
Continuous
 62
     7
100
AcDbText
 10
240.0000000000001
 20
6.000000000000085
 30
0.0
 40
3.177854776382446
  1
15
 41
0.647972360387026
  7
Style1
100
AcDbText
  0
TEXT
  5
1B3
330
B6
100
AcDbEntity
  8
Folie _ 3
  6
Continuous
 62
     7
100
AcDbText
 10
267.0000000000001
 20
6.000000000000085
 30
0.0
 40
3.177854776382446
  1
TR/AP
 41
1.081452562675454
  7
Style0
100
AcDbText
  0
LINE
  5
1B4
330
B6
100
AcDbEntity
  8
Folie _ 3
  6
Continuous
 62
     7
100
AcDbLine
 10
244.4801761815236
 20
34.99999999999989
 30
0.0
 11
244.4801761815236
 21
14.99999999999989
 31
0.0
  0
ARC
  5
1B5
330
B6
100
AcDbEntity
  8
12_Linie
 62
     7
370
    20
100
AcDbCircle
 10
82.93554340646233
 20
121.7235748998103
 30
0.0
 40
7.4
100
AcDbArc
 50
180.0
 51
0.0
  0
ARC
  5
1B6
330
B6
100
AcDbEntity
  8
12_Linie
 62
     7
370
    20
100
AcDbCircle
 10
82.93554340646233
 20
121.7235748998103
 30
0.0
 40
7.5
100
AcDbArc
 50
180.0
 51
3.331247566946916
  0
LINE
  5
1B7
330
B6
100
AcDbEntity
  8
12_Linie
 62
     7
370
    20
100
AcDbLine
 10
90.42287046359625
 20
122.1593885520855
 30
0.0
 11
95.05766569698353
 21
124.3316292323137
 31
0.0
  0
ARC
  5
1B8
330
B6
100
AcDbEntity
  8
12_Linie
 62
     7
370
    20
100
AcDbCircle
 10
75.48554340646233
 20
121.7235748998103
 30
0.0
 40
0.05
100
AcDbArc
 50
0.0000000000010385
 51
179.9999999999989
  0
LINE
  5
1B9
330
B6
100
AcDbEntity
  8
12_Linie
 62
     7
370
    20
100
AcDbLine
 10
95.45766569698354
 20
124.0773484305072
 30
0.0
 11
95.45766569698354
 21
131.5195497586894
 31
0.0
  0
LINE
  5
1BA
330
B6
100
AcDbEntity
  8
12_Linie
 62
     7
370
    20
100
AcDbLine
 10
75.07483316454208
 20
120.9366603602502
 30
0.0
 11
75.4728438097026
 21
120.9765041344051
 31
0.0
  0
LINE
  5
1BB
330
B6
100
AcDbEntity
  8
12_Linie
 62
     7
370
    20
100
AcDbLine
 10
95.05766569698353
 20
124.3316292323137
 30
0.0
 11
95.05766569698353
 21
131.5195497586895
 31
0.0
  0
LINE
  5
1BC
330
B6
100
AcDbEntity
  8
12_Linie
 62
     7
370
    20
100
AcDbLine
 10
90.83334308048907
 20
121.9100160673246
 30
0.0
 11
95.45766569698354
 21
124.0773484305072
 31
0.0
  0
ARC
  5
1BD
330
B6
100
AcDbEntity
  8
12_Linie
 62
     7
370
    20
100
AcDbCircle
 10
82.93554340646233
 20
121.7235748998103
 30
0.0
 40
7.900000000000046
100
AcDbArc
 50
185.7166804816363
 51
1.352314416285355
  0
LINE
  5
1BE
330
B6
100
AcDbEntity
  8
12_Linie
 62
     7
370
    20
100
AcDbLine
 10
90.33554340646234
 20
121.7235748998103
 30
0.0
 11
90.43554340646233
 21
121.7235748998103
 31
0.0
  0
LINE
  5
1BF
330
B6
100
AcDbEntity
  8
12_Linie
 62
     7
370
    20
100
AcDbLine
 10
95.05766569698363
 20
131.5195497586895
 30
0.0
 11
95.45766569698363
 21
131.5195497586895
 31
0.0
  0
HATCH
  5
1C0
330
B6
100
AcDbEntity
  8
Schraff_Dämmung
 62
     7
100
AcDbHatch
 10
0.0
 20
0.0
 30
0.0
210
0.0
220
0.0
230
1.0
  2
SOLID
 70
     1
 71
     0
 91
        8
 92
        0
 93
        4
 72
     1
 10
95.05766569698363
 20
130.0639652509149
 11
94.95766569698363
 21
130.0639652509149
 72
     1
 10
94.95766569698363
 20
130.0639652509149
 11
94.95766569698363
 21
129.2639652509149
 72
     1
 10
94.95766569698363
 20
129.2639652509149
 11
95.05766569698363
 21
129.2639652509149
 72
     1
 10
95.05766569698363
 20
129.2639652509149
 11
95.05766569698363
 21
130.0639652509149
 97
        0
 92
        0
 93
        4
 72
     1
 10
95.05766569698363
 20
129.2639652509149
 11
94.95766569698363
 21
129.2639652509149
 72
     1
 10
94.95766569698363
 20
129.2639652509149
 11
94.95766569698363
 21
128.5639652509149
 72
     1
 10
94.95766569698363
 20
128.5639652509149
 11
95.05766569698363
 21
128.5639652509149
 72
     1
 10
95.05766569698363
 20
128.5639652509149
 11
95.05766569698363
 21
129.2639652509149
 97
        0
 92
        0
 93
        4
 72
     1
 10
95.35663569698346
 20
129.178545250915
 11
95.05766569698363
 21
129.2639652509149
 72
     1
 10
95.05766569698363
 20
129.2639652509149
 11
95.05766569698363
 21
128.5639652509149
 72
     1
 10
95.05766569698363
 20
128.5639652509149
 11
95.35663569698346
 21
128.6493852509147
 72
     1
 10
95.35663569698346
 20
128.6493852509147
 11
95.35663569698346
 21
129.1785452509149
 97
        0
 92
        0
 93
        4
 72
     1
 10
95.05766569698363
 20
128.5639652509149
 11
94.95766569698363
 21
128.5639652509149
 72
     1
 10
94.95766569698363
 20
128.5639652509149
 11
94.95766569698363
 21
127.7639652509149
 72
     1
 10
94.95766569698363
 20
127.7639652509149
 11
95.05766569698363
 21
127.7639652509149
 72
     1
 10
95.05766569698363
 20
127.7639652509149
 11
95.05766569698363
 21
128.5639652509149
 97
        0
 92
        0
 93
        4
 72
     1
 10
95.42663569698352
 20
129.1585452509149
 11
95.35663569698346
 21
129.178545250915
 72
     1
 10
95.35663569698346
 20
129.1785452509149
 11
95.35663569698346
 21
128.6493852509147
 72
     1
 10
95.35663569698346
 20
128.6493852509147
 11
95.42663569698352
 21
128.6693852509148
 72
     1
 10
95.42663569698352
 20
128.6693852509148
 11
95.42663569698352
 21
129.1585452509149
 97
        0
 92
        0
 93
        4
 72
     1
 10
95.75766569698362
 20
129.0639652509149
 11
95.42663569698352
 21
129.1585452509149
 72
     1
 10
95.42663569698352
 20
129.1585452509149
 11
95.42663569698352
 21
128.6693852509148
 72
     1
 10
95.42663569698352
 20
128.6693852509148
 11
95.75766569698362
 21
128.7639652509149
 72
     1
 10
95.75766569698362
 20
128.7639652509149
 11
95.75766569698362
 21
129.0639652509149
 97
        0
 92
        0
 93
        4
 72
     1
 10
96.42663569698352
 20
129.0639652509149
 11
95.75766569698362
 21
129.0639652509149
 72
     1
 10
95.75766569698362
 20
129.0639652509149
 11
95.75766569698362
 21
128.7639652509149
 72
     1
 10
95.75766569698362
 20
128.7639652509149
 11
96.42663569698352
 21
128.7639652509149
 72
     1
 10
96.42663569698352
 20
128.7639652509149
 11
96.42663569698352
 21
129.0639652509149
 97
        0
 92
        0
 93
        4
 72
     1
 10
100.0286856969836
 20
129.0639652509149
 11
96.42663569698352
 21
129.0639652509149
 72
     1
 10
96.42663569698352
 20
129.0639652509149
 11
96.42663569698352
 21
128.7639652509149
 72
     1
 10
96.42663569698352
 20
128.7639652509149
 11
100.0286856969836
 21
128.7639652509149
 72
     1
 10
100.0286856969836
 20
128.7639652509149
 11
100.0286856969836
 21
129.0639652509149
 97
        0
 75
     0
 76
     1
 98
        0
  0
HATCH
  5
1C1
330
B6
100
AcDbEntity
  8
Schraff_Dämmung
 62
   253
100
AcDbHatch
 10
0.0
 20
0.0
 30
0.0
210
0.0
220
0.0
230
1.0
  2
SOLID
 70
     1
 71
     0
 91
        1
 92
        0
 93
        6
 72
     1
 10
98.5249032658614
 20
133.8553751369773
 11
93.9445333947353
 21
133.8553751369773
 72
     1
 10
93.9445333947353
 20
133.8553751369773
 11
89.48078791549989
 21
121.6973063260621
 72
     1
 10
89.48078791549989
 20
121.6973063260621
 11
89.57466109732877
 21
121.6628414782704
 72
     1
 10
89.57466109732877
 20
121.6628414782704
 11
94.01434582777675
 21
133.7553751369774
 72
     1
 10
94.01434582777675
 20
133.7553751369774
 11
98.52490326586131
 21
133.7553751369772
 72
     1
 10
98.52490326586131
 20
133.7553751369772
 11
98.5249032658614
 21
133.8553751369773
 97
        0
 75
     0
 76
     1
 98
        0
  0
LINE
  5
1C2
330
B6
100
AcDbEntity
  8
STANDARD
 62
     7
370
    20
100
AcDbLine
 10
111.7888564277969
 20
133.0553751369773
 30
0.0
 11
112.0888564277969
 21
133.0553751369773
 31
0.0
  0
LINE
  5
1C3
330
B6
100
AcDbEntity
  8
STANDARD
 62
     7
370
    20
100
AcDbLine
 10
111.7888564277969
 20
133.0553751369773
 30
0.0
 11
111.5888564277969
 21
133.7553751369772
 31
0.0
  0
LINE
  5
1C4
330
B6
100
AcDbEntity
  8
STANDARD
 62
     7
370
    20
100
AcDbLine
 10
112.0888564277969
 20
133.0553751369773
 30
0.0
 11
112.2888564277969
 21
133.7553751369772
 31
0.0
  0
LINE
  5
1C5
330
B6
100
AcDbEntity
  8
STANDARD
 62
     7
370
    20
100
AcDbLine
 10
111.5888564277969
 20
133.7553751369772
 30
0.0
 11
111.5888564277969
 21
133.8553751369773
 31
0.0
  0
LINE
  5
1C6
330
B6
100
AcDbEntity
  8
STANDARD
 62
     7
370
    20
100
AcDbLine
 10
112.2888564277969
 20
133.7553751369772
 30
0.0
 11
112.2888564277969
 21
133.8553751369773
 31
0.0
  0
LINE
  5
1C7
330
B6
100
AcDbEntity
  8
STANDARD
 62
     7
370
    20
100
AcDbLine
 10
111.5888564277969
 20
133.8553751369773
 30
0.0
 11
112.2888564277969
 21
133.8553751369773
 31
0.0
  0
LINE
  5
1C8
330
B6
100
AcDbEntity
  8
STANDARD
 62
     7
370
    20
100
AcDbLine
 10
111.5888564277969
 20
133.7553751369772
 30
0.0
 11
112.2888564277969
 21
133.7553751369772
 31
0.0
  0
LINE
  5
1C9
330
B6
100
AcDbEntity
  8
STANDARD
 62
     7
370
    20
100
AcDbLine
 10
111.7888564277969
 20
120.2699551369773
 30
0.0
 11
111.7888564277969
 21
133.0553751369773
 31
0.0
  0
LINE
  5
1CA
330
B6
100
AcDbEntity
  8
STANDARD
 62
     7
370
    20
100
AcDbLine
 10
112.0888564277969
 20
120.2699551369773
 30
0.0
 11
112.0888564277969
 21
133.0553751369773
 31
0.0
  0
LINE
  5
1CB
330
B6
100
AcDbEntity
  8
STANDARD
 62
     7
370
    20
100
AcDbLine
 10
111.7888564277969
 20
120.2699551369773
 30
0.0
 11
112.0888564277969
 21
120.2699551369773
 31
0.0
  0
LINE
  5
1CC
330
B6
100
AcDbEntity
  8
STANDARD
 62
     7
100
AcDbLine
 10
100.9410143803789
 20
133.3553751369773
 30
0.0
 11
101.2410143803787
 21
133.3553751369774
 31
0.0
  0
LINE
  5
1CD
330
B6
100
AcDbEntity
  8
STANDARD
 62
     7
100
AcDbLine
 10
100.9410143803789
 20
133.3553751369773
 30
0.0
 11
100.7410143803787
 21
134.0553751369773
 31
0.0
  0
LINE
  5
1CE
330
B6
100
AcDbEntity
  8
STANDARD
 62
     7
100
AcDbLine
 10
101.2410143803787
 20
133.3553751369774
 30
0.0
 11
101.4410143803789
 21
134.0553751369774
 31
0.0
  0
LINE
  5
1CF
330
B6
100
AcDbEntity
  8
STANDARD
 62
     7
100
AcDbLine
 10
100.7410143803787
 20
134.0553751369773
 30
0.0
 11
100.7410143803789
 21
134.1553751369773
 31
0.0
  0
LINE
  5
1D0
330
B6
100
AcDbEntity
  8
STANDARD
 62
     7
100
AcDbLine
 10
101.4410143803789
 20
134.0553751369774
 30
0.0
 11
101.4410143803789
 21
134.1553751369775
 31
0.0
  0
LINE
  5
1D1
330
B6
100
AcDbEntity
  8
STANDARD
 62
     7
100
AcDbLine
 10
100.7410143803789
 20
134.1553751369773
 30
0.0
 11
101.4410143803789
 21
134.1553751369775
 31
0.0
  0
LINE
  5
1D2
330
B6
100
AcDbEntity
  8
STANDARD
 62
     7
100
AcDbLine
 10
100.7410143803787
 20
134.0553751369773
 30
0.0
 11
101.4410143803789
 21
134.0553751369774
 31
0.0
  0
LINE
  5
1D3
330
B6
100
AcDbEntity
  8
STANDARD
 62
     7
100
AcDbLine
 10
100.9410143803787
 20
130.3874709831371
 30
0.0
 11
100.9410143803787
 21
133.3553751369774
 31
0.0
  0
LINE
  5
1D4
330
B6
100
AcDbEntity
  8
STANDARD
 62
     7
100
AcDbLine
 10
101.2410143803785
 20
130.3874709831369
 30
0.0
 11
101.2410143803787
 21
133.3553751369774
 31
0.0
  0
LINE
  5
1D5
330
B6
100
AcDbEntity
  8
STANDARD
 62
     7
100
AcDbLine
 10
100.9410143803787
 20
130.3874709831369
 30
0.0
 11
101.2410143803789
 21
130.3874709831367
 31
0.0
  0
POLYLINE
  5
1D6
330
B6
100
AcDbEntity
  8
34_Gruppe
  6
Continuous
 62
     7
370
    20
100
AcDb2dPolyline
 66
     1
 10
0.0
 20
0.0
 30
0.0
  0
VERTEX
  5
1D7
330
1D6
100
AcDbEntity
  8
34_Gruppe
  6
Continuous
 62
     7
370
    20
100
AcDbVertex
100
AcDb2dVertex
 10
122.8122387396475
 20
133.4302869329498
 30
0.0
  0
VERTEX
  5
1D8
330
1D6
100
AcDbEntity
  8
34_Gruppe
  6
Continuous
 62
     7
370
    20
100
AcDbVertex
100
AcDb2dVertex
 10
127.2753525399593
 20
133.0245493147398
 30
0.0
  0
VERTEX
  5
1D9
330
1D6
100
AcDbEntity
  8
34_Gruppe
  6
Continuous
 62
     7
370
    20
100
AcDbVertex
100
AcDb2dVertex
 10
127.9114156969835
 20
133.0506888965353
 30
0.0
  0
SEQEND
  5
1DA
330
1D6
100
AcDbEntity
  8
34_Gruppe
  6
Continuous
 62
     7
370
    20
  0
POLYLINE
  5
1DB
330
B6
100
AcDbEntity
  8
34_Gruppe
  6
Continuous
 62
     7
370
    20
100
AcDb2dPolyline
 66
     1
 10
0.0
 20
0.0
 30
0.0
  0
VERTEX
  5
1DC
330
1DB
100
AcDbEntity
  8
34_Gruppe
  6
Continuous
 62
     7
370
    20
100
AcDbVertex
100
AcDb2dVertex
 10
122.6455833009309
 20
127.2399517397018
 30
0.0
  0
VERTEX
  5
1DD
330
1DB
100
AcDbEntity
  8
34_Gruppe
  6
Continuous
 62
     7
370
    20
100
AcDbVertex
100
AcDb2dVertex
 10
127.1086971012425
 20
126.8342141214918
 30
0.0
  0
VERTEX
  5
1DE
330
1DB
100
AcDbEntity
  8
34_Gruppe
  6
Continuous
 62
     7
370
    20
100
AcDbVertex
100
AcDb2dVertex
 10
127.7447602582671
 20
126.8603537032873
 30
0.0
  0
SEQEND
  5
1DF
330
1DB
100
AcDbEntity
  8
34_Gruppe
  6
Continuous
 62
     7
370
    20
  0
POLYLINE
  5
1E0
330
B6
100
AcDbEntity
  8
34_Gruppe
  6
Continuous
 62
     7
370
    20
100
AcDb2dPolyline
 66
     1
 10
0.0
 20
0.0
 30
0.0
  0
VERTEX
  5
1E1
330
1E0
100
AcDbEntity
  8
34_Gruppe
  6
Continuous
 62
     7
370
    20
100
AcDbVertex
100
AcDb2dVertex
 10
113.5467664206611
 20
129.4265979936288
 30
0.0
  0
VERTEX
  5
1E2
330
1E0
100
AcDbEntity
  8
34_Gruppe
  6
Continuous
 62
     7
370
    20
100
AcDbVertex
100
AcDb2dVertex
 10
118.0098802209729
 20
129.0208603754187
 30
0.0
  0
VERTEX
  5
1E3
330
1E0
100
AcDbEntity
  8
34_Gruppe
  6
Continuous
 62
     7
370
    20
100
AcDbVertex
100
AcDb2dVertex
 10
122.1477418402107
 20
129.1909094830581
 30
0.0
  0
VERTEX
  5
1E4
330
1E0
100
AcDbEntity
  8
34_Gruppe
  6
Continuous
 62
     7
370
    20
100
AcDbVertex
100
AcDb2dVertex
 10
127.1925320334861
 20
129.8144228777367
 30
0.0
  0
VERTEX
  5
1E5
330
1E0
100
AcDbEntity
  8
34_Gruppe
  6
Continuous
 62
     7
370
    20
100
AcDbVertex
100
AcDb2dVertex
 10
127.9114156969835
 20
129.744287886176
 30
0.0
  0
SEQEND
  5
1E6
330
1E0
100
AcDbEntity
  8
34_Gruppe
  6
Continuous
 62
     7
370
    20
  0
POLYLINE
  5
1E7
330
B6
100
AcDbEntity
  8
34_Gruppe
  6
Continuous
 62
     7
370
    20
100
AcDb2dPolyline
 66
     1
 10
0.0
 20
0.0
 30
0.0
  0
VERTEX
  5
1E8
330
1E7
100
AcDbEntity
  8
34_Gruppe
  6
Continuous
 62
     7
370
    20
100
AcDbVertex
100
AcDb2dVertex
 10
105.9576656969836
 20
126.2820064489782
 30
0.0
  0
VERTEX
  5
1E9
330
1E7
100
AcDbEntity
  8
34_Gruppe
  6
Continuous
 62
     7
370
    20
100
AcDbVertex
100
AcDb2dVertex
 10
110.0754382362501
 20
126.4512299779886
 30
0.0
  0
VERTEX
  5
1EA
330
1E7
100
AcDbEntity
  8
34_Gruppe
  6
Continuous
 62
     7
370
    20
100
AcDbVertex
100
AcDb2dVertex
 10
115.1202284295257
 20
127.0747433726672
 30
0.0
  0
VERTEX
  5
1EB
330
1E7
100
AcDbEntity
  8
34_Gruppe
  6
Continuous
 62
     7
370
    20
100
AcDbVertex
100
AcDb2dVertex
 10
119.7682373716873
 20
126.621279085628
 30
0.0
  0
VERTEX
  5
1EC
330
1E7
100
AcDbEntity
  8
34_Gruppe
  6
Continuous
 62
     7
370
    20
100
AcDbVertex
100
AcDb2dVertex
 10
121.4742128167004
 20
126.5884718655317
 30
0.0
  0
SEQEND
  5
1ED
330
1E7
100
AcDbEntity
  8
34_Gruppe
  6
Continuous
 62
     7
370
    20
  0
POLYLINE
  5
1EE
330
B6
100
AcDbEntity
  8
34_Gruppe
  6
Continuous
 62
     7
370
    20
100
AcDb2dPolyline
 66
     1
 10
0.0
 20
0.0
 30
0.0
  0
VERTEX
  5
1EF
330
1EE
100
AcDbEntity
  8
34_Gruppe
  6
Continuous
 62
     7
370
    20
100
AcDbVertex
100
AcDb2dVertex
 10
105.9576656969836
 20
128.1991931557852
 30
0.0
  0
VERTEX
  5
1F0
330
1EE
100
AcDbEntity
  8
34_Gruppe
  6
Continuous
 62
     7
370
    20
100
AcDbVertex
100
AcDb2dVertex
 10
112.7839562305423
 20
127.5786212890982
 30
0.0
  0
VERTEX
  5
1F1
330
1EE
100
AcDbEntity
  8
34_Gruppe
  6
Continuous
 62
     7
370
    20
100
AcDbVertex
100
AcDb2dVertex
 10
116.9218178497801
 20
127.7486703967375
 30
0.0
  0
VERTEX
  5
1F2
330
1EE
100
AcDbEntity
  8
34_Gruppe
  6
Continuous
 62
     7
370
    20
100
AcDbVertex
100
AcDb2dVertex
 10
121.9666080430557
 20
128.3721837914161
 30
0.0
  0
VERTEX
  5
1F3
330
1EE
100
AcDbEntity
  8
34_Gruppe
  6
Continuous
 62
     7
370
    20
100
AcDbVertex
100
AcDb2dVertex
 10
126.6146169852172
 20
127.9187195043769
 30
0.0
  0
VERTEX
  5
1F4
330
1EE
100
AcDbEntity
  8
34_Gruppe
  6
Continuous
 62
     7
370
    20
100
AcDbVertex
100
AcDb2dVertex
 10
127.9114156969835
 20
127.8937810676123
 30
0.0
  0
SEQEND
  5
1F5
330
1EE
100
AcDbEntity
  8
34_Gruppe
  6
Continuous
 62
     7
370
    20
  0
POLYLINE
  5
1F6
330
B6
100
AcDbEntity
  8
34_Gruppe
  6
Continuous
 62
     7
370
    20
100
AcDb2dPolyline
 66
     1
 10
0.0
 20
0.0
 30
0.0
  0
VERTEX
  5
1F7
330
1F6
100
AcDbEntity
  8
34_Gruppe
  6
Continuous
 62
     7
370
    20
100
AcDbVertex
100
AcDb2dVertex
 10
105.9576656969836
 20
132.525005453767
 30
0.0
  0
VERTEX
  5
1F8
330
1F6
100
AcDbEntity
  8
34_Gruppe
  6
Continuous
 62
     7
370
    20
100
AcDbVertex
100
AcDb2dVertex
 10
112.3747794972955
 20
131.9416314719206
 30
0.0
  0
VERTEX
  5
1F9
330
1F6
100
AcDbEntity
  8
34_Gruppe
  6
Continuous
 62
     7
370
    20
100
AcDbVertex
100
AcDb2dVertex
 10
116.5126411165334
 20
132.1116805795599
 30
0.0
  0
VERTEX
  5
1FA
330
1F6
100
AcDbEntity
  8
34_Gruppe
  6
Continuous
 62
     7
370
    20
100
AcDbVertex
100
AcDb2dVertex
 10
121.5574313098089
 20
132.7351939742385
 30
0.0
  0
VERTEX
  5
1FB
330
1F6
100
AcDbEntity
  8
34_Gruppe
  6
Continuous
 62
     7
370
    20
100
AcDbVertex
100
AcDb2dVertex
 10
126.2054402519706
 20
132.2817296871993
 30
0.0
  0
VERTEX
  5
1FC
330
1F6
100
AcDbEntity
  8
34_Gruppe
  6
Continuous
 62
     7
370
    20
100
AcDbVertex
100
AcDb2dVertex
 10
127.9114156969835
 20
132.2489224671029
 30
0.0
  0
SEQEND
  5
1FD
330
1F6
100
AcDbEntity
  8
34_Gruppe
  6
Continuous
 62
     7
370
    20
  0
POLYLINE
  5
1FE
330
B6
100
AcDbEntity
  8
34_Gruppe
  6
Continuous
 62
     7
370
    20
100
AcDb2dPolyline
 66
     1
 10
0.0
 20
0.0
 30
0.0
  0
VERTEX
  5
1FF
330
1FE
100
AcDbEntity
  8
34_Gruppe
  6
Continuous
 62
     7
370
    20
100
AcDbVertex
100
AcDb2dVertex
 10
105.9576656969836
 20
132.8639732343402
 30
0.0
  0
VERTEX
  5
200
330
1FE
100
AcDbEntity
  8
34_Gruppe
  6
Continuous
 62
     7
370
    20
100
AcDbVertex
100
AcDb2dVertex
 10
109.9393266992199
 20
133.0276031385412
 30
0.0
  0
VERTEX
  5
201
330
1FE
100
AcDbEntity
  8
34_Gruppe
  6
Continuous
 62
     7
370
    20
100
AcDbVertex
100
AcDb2dVertex
 10
114.9841168924954
 20
133.6511165332198
 30
0.0
  0
VERTEX
  5
202
330
1FE
100
AcDbEntity
  8
34_Gruppe
  6
Continuous
 62
     7
370
    20
100
AcDbVertex
100
AcDb2dVertex
 10
119.6321258346571
 20
133.1976522461806
 30
0.0
  0
VERTEX
  5
203
330
1FE
100
AcDbEntity
  8
34_Gruppe
  6
Continuous
 62
     7
370
    20
100
AcDbVertex
100
AcDb2dVertex
 10
121.3381012796702
 20
133.1648450260842
 30
0.0
  0
SEQEND
  5
204
330
1FE
100
AcDbEntity
  8
34_Gruppe
  6
Continuous
 62
     7
370
    20
  0
POLYLINE
  5
205
330
B6
100
AcDbEntity
  8
34_Gruppe
  6
Continuous
 62
     7
370
    20
100
AcDb2dPolyline
 66
     1
 10
0.0
 20
0.0
 30
0.0
  0
VERTEX
  5
206
330
205
100
AcDbEntity
  8
34_Gruppe
  6
Continuous
 62
     7
370
    20
100
AcDbVertex
100
AcDb2dVertex
 10
122.8122387396475
 20
131.4292712794525
 30
0.0
  0
VERTEX
  5
207
330
205
100
AcDbEntity
  8
34_Gruppe
  6
Continuous
 62
     7
370
    20
100
AcDbVertex
100
AcDb2dVertex
 10
127.2753525399593
 20
131.0235336612424
 30
0.0
  0
VERTEX
  5
208
330
205
100
AcDbEntity
  8
34_Gruppe
  6
Continuous
 62
     7
370
    20
100
AcDbVertex
100
AcDb2dVertex
 10
127.9114156969835
 20
131.049673243038
 30
0.0
  0
SEQEND
  5
209
330
205
100
AcDbEntity
  8
34_Gruppe
  6
Continuous
 62
     7
370
    20
  0
POLYLINE
  5
20A
330
B6
100
AcDbEntity
  8
34_Gruppe
  6
Continuous
 62
     7
370
    20
100
AcDb2dPolyline
 66
     1
 10
0.0
 20
0.0
 30
0.0
  0
VERTEX
  5
20B
330
20A
100
AcDbEntity
  8
34_Gruppe
  6
Continuous
 62
     7
370
    20
100
AcDbVertex
100
AcDb2dVertex
 10
105.9576656969836
 20
130.8629575808428
 30
0.0
  0
VERTEX
  5
20C
330
20A
100
AcDbEntity
  8
34_Gruppe
  6
Continuous
 62
     7
370
    20
100
AcDbVertex
100
AcDb2dVertex
 10
109.9393266992199
 20
131.0265874850438
 30
0.0
  0
VERTEX
  5
20D
330
20A
100
AcDbEntity
  8
34_Gruppe
  6
Continuous
 62
     7
370
    20
100
AcDbVertex
100
AcDb2dVertex
 10
114.9841168924954
 20
131.6501008797224
 30
0.0
  0
VERTEX
  5
20E
330
20A
100
AcDbEntity
  8
34_Gruppe
  6
Continuous
 62
     7
370
    20
100
AcDbVertex
100
AcDb2dVertex
 10
119.6321258346571
 20
131.1966365926831
 30
0.0
  0
VERTEX
  5
20F
330
20A
100
AcDbEntity
  8
34_Gruppe
  6
Continuous
 62
     7
370
    20
100
AcDbVertex
100
AcDb2dVertex
 10
121.3381012796702
 20
131.1638293725869
 30
0.0
  0
SEQEND
  5
210
330
20A
100
AcDbEntity
  8
34_Gruppe
  6
Continuous
 62
     7
370
    20
  0
POLYLINE
  5
211
330
B6
100
AcDbEntity
  8
34_Gruppe
  6
Continuous
 62
     7
370
    20
100
AcDb2dPolyline
 66
     1
 10
0.0
 20
0.0
 30
0.0
  0
VERTEX
  5
212
330
211
100
AcDbEntity
  8
34_Gruppe
  6
Continuous
 62
     7
370
    20
100
AcDbVertex
100
AcDb2dVertex
 10
105.9576656969836
 20
130.4819145281891
 30
0.0
  0
VERTEX
  5
213
330
211
100
AcDbEntity
  8
34_Gruppe
  6
Continuous
 62
     7
370
    20
100
AcDbVertex
100
AcDb2dVertex
 10
112.3747794972955
 20
129.8985405463429
 30
0.0
  0
VERTEX
  5
214
330
211
100
AcDbEntity
  8
34_Gruppe
  6
Continuous
 62
     7
370
    20
100
AcDbVertex
100
AcDb2dVertex
 10
116.5126411165334
 20
130.0685896539822
 30
0.0
  0
VERTEX
  5
215
330
211
100
AcDbEntity
  8
34_Gruppe
  6
Continuous
 62
     7
370
    20
100
AcDbVertex
100
AcDb2dVertex
 10
121.5574313098089
 20
130.6921030486608
 30
0.0
  0
VERTEX
  5
216
330
211
100
AcDbEntity
  8
34_Gruppe
  6
Continuous
 62
     7
370
    20
100
AcDbVertex
100
AcDb2dVertex
 10
126.2054402519706
 20
130.2386387616216
 30
0.0
  0
VERTEX
  5
217
330
211
100
AcDbEntity
  8
34_Gruppe
  6
Continuous
 62
     7
370
    20
100
AcDbVertex
100
AcDb2dVertex
 10
127.9114156969835
 20
130.2058315415253
 30
0.0
  0
SEQEND
  5
218
330
211
100
AcDbEntity
  8
34_Gruppe
  6
Continuous
 62
     7
370
    20
  0
POLYLINE
  5
219
330
B6
100
AcDbEntity
  8
34_Gruppe
  6
Continuous
 62
     7
370
    20
100
AcDb2dPolyline
 66
     1
 10
0.0
 20
0.0
 30
0.0
  0
VERTEX
  5
21A
330
219
100
AcDbEntity
  8
34_Gruppe
  6
Continuous
 62
     7
370
    20
100
AcDbVertex
100
AcDb2dVertex
 10
105.9576656969836
 20
129.4203158968743
 30
0.0
  0
VERTEX
  5
21B
330
219
100
AcDbEntity
  8
34_Gruppe
  6
Continuous
 62
     7
370
    20
100
AcDbVertex
100
AcDb2dVertex
 10
112.8631707607482
 20
128.7925427092595
 30
0.0
  0
VERTEX
  5
21C
330
219
100
AcDbEntity
  8
34_Gruppe
  6
Continuous
 62
     7
370
    20
100
AcDbVertex
100
AcDb2dVertex
 10
113.4992339177726
 20
128.8186822910549
 30
0.0
  0
SEQEND
  5
21D
330
219
100
AcDbEntity
  8
34_Gruppe
  6
Continuous
 62
     7
370
    20
  0
POLYLINE
  5
21E
330
B6
100
AcDbEntity
  8
34_Gruppe
  6
Continuous
 62
     7
370
    20
100
AcDb2dPolyline
 66
     1
 10
0.0
 20
0.0
 30
0.0
  0
VERTEX
  5
21F
330
21E
100
AcDbEntity
  8
34_Gruppe
  6
Continuous
 62
     7
370
    20
100
AcDbVertex
100
AcDb2dVertex
 10
96.13700026663619
 20
133.4185814322392
 30
0.0
  0
VERTEX
  5
220
330
21E
100
AcDbEntity
  8
34_Gruppe
  6
Continuous
 62
     7
370
    20
100
AcDbVertex
100
AcDb2dVertex
 10
102.5541140669481
 20
132.8352074503929
 30
0.0
  0
VERTEX
  5
221
330
21E
100
AcDbEntity
  8
34_Gruppe
  6
Continuous
 62
     7
370
    20
100
AcDbVertex
100
AcDb2dVertex
 10
106.6919756861859
 20
133.0052565580323
 30
0.0
  0
SEQEND
  5
222
330
21E
100
AcDbEntity
  8
34_Gruppe
  6
Continuous
 62
     7
370
    20
  0
POLYLINE
  5
223
330
B6
100
AcDbEntity
  8
34_Gruppe
  6
Continuous
 62
     7
370
    20
100
AcDb2dPolyline
 66
     1
 10
0.0
 20
0.0
 30
0.0
  0
VERTEX
  5
224
330
223
100
AcDbEntity
  8
34_Gruppe
  6
Continuous
 62
     7
370
    20
100
AcDbVertex
100
AcDb2dVertex
 10
99.81543771172137
 20
132.1599896740372
 30
0.0
  0
VERTEX
  5
225
330
223
100
AcDbEntity
  8
34_Gruppe
  6
Continuous
 62
     7
370
    20
100
AcDbVertex
100
AcDb2dVertex
 10
106.720942775486
 20
131.5322164864224
 30
0.0
  0
VERTEX
  5
226
330
223
100
AcDbEntity
  8
34_Gruppe
  6
Continuous
 62
     7
370
    20
100
AcDbVertex
100
AcDb2dVertex
 10
107.3570059325103
 20
131.5583560682178
 30
0.0
  0
SEQEND
  5
227
330
223
100
AcDbEntity
  8
34_Gruppe
  6
Continuous
 62
     7
370
    20
  0
POLYLINE
  5
228
330
B6
100
AcDbEntity
  8
34_Gruppe
  6
Continuous
 62
     7
370
    20
100
AcDb2dPolyline
 66
     1
 10
0.0
 20
0.0
 30
0.0
  0
VERTEX
  5
229
330
228
100
AcDbEntity
  8
34_Gruppe
  6
Continuous
 62
     7
370
    20
100
AcDbVertex
100
AcDb2dVertex
 10
96.39825418646807
 20
131.7420607536824
 30
0.0
  0
VERTEX
  5
22A
330
228
100
AcDbEntity
  8
34_Gruppe
  6
Continuous
 62
     7
370
    20
100
AcDbVertex
100
AcDb2dVertex
 10
103.3037592502325
 20
131.1142875660676
 30
0.0
  0
VERTEX
  5
22B
330
228
100
AcDbEntity
  8
34_Gruppe
  6
Continuous
 62
     7
370
    20
100
AcDbVertex
100
AcDb2dVertex
 10
103.9398224072569
 20
131.140427147863
 30
0.0
  0
SEQEND
  5
22C
330
228
100
AcDbEntity
  8
34_Gruppe
  6
Continuous
 62
     7
370
    20
  0
POLYLINE
  5
22D
330
B6
100
AcDbEntity
  8
34_Gruppe
  6
Continuous
 62
     7
370
    20
100
AcDb2dPolyline
 66
     1
 10
0.0
 20
0.0
 30
0.0
  0
VERTEX
  5
22E
330
22D
100
AcDbEntity
  8
34_Gruppe
  6
Continuous
 62
     7
370
    20
100
AcDbVertex
100
AcDb2dVertex
 10
95.95766569698363
 20
129.6070025188215
 30
0.0
  0
VERTEX
  5
22F
330
22D
100
AcDbEntity
  8
34_Gruppe
  6
Continuous
 62
     7
370
    20
100
AcDbVertex
100
AcDb2dVertex
 10
101.1918083652711
 20
130.2539190283894
 30
0.0
  0
VERTEX
  5
230
330
22D
100
AcDbEntity
  8
34_Gruppe
  6
Continuous
 62
     7
370
    20
100
AcDbVertex
100
AcDb2dVertex
 10
105.8398173074328
 20
129.8004547413501
 30
0.0
  0
VERTEX
  5
231
330
22D
100
AcDbEntity
  8
34_Gruppe
  6
Continuous
 62
     7
370
    20
100
AcDbVertex
100
AcDb2dVertex
 10
107.5457927524459
 20
129.7676475212538
 30
0.0
  0
SEQEND
  5
232
330
22D
100
AcDbEntity
  8
34_Gruppe
  6
Continuous
 62
     7
370
    20
  0
POLYLINE
  5
233
330
B6
100
AcDbEntity
  8
34_Gruppe
  6
Continuous
 62
     7
370
    20
100
AcDb2dPolyline
 66
     1
 10
0.0
 20
0.0
 30
0.0
  0
VERTEX
  5
234
330
233
100
AcDbEntity
  8
34_Gruppe
  6
Continuous
 62
     7
370
    20
100
AcDbVertex
100
AcDb2dVertex
 10
99.98556957427164
 20
127.7938055641962
 30
0.0
  0
VERTEX
  5
235
330
233
100
AcDbEntity
  8
34_Gruppe
  6
Continuous
 62
     7
370
    20
100
AcDbVertex
100
AcDb2dVertex
 10
106.8910746380362
 20
127.1660323765814
 30
0.0
  0
VERTEX
  5
236
330
233
100
AcDbEntity
  8
34_Gruppe
  6
Continuous
 62
     7
370
    20
100
AcDbVertex
100
AcDb2dVertex
 10
107.5271377950606
 20
127.1921719583768
 30
0.0
  0
SEQEND
  5
237
330
233
100
AcDbEntity
  8
34_Gruppe
  6
Continuous
 62
     7
370
    20
  0
POLYLINE
  5
238
330
B6
100
AcDbEntity
  8
34_Gruppe
  6
Continuous
 62
     7
370
    20
100
AcDb2dPolyline
 66
     1
 10
0.0
 20
0.0
 30
0.0
  0
VERTEX
  5
239
330
238
100
AcDbEntity
  8
34_Gruppe
  6
Continuous
 62
     7
370
    20
100
AcDbVertex
100
AcDb2dVertex
 10
96.56838604901833
 20
127.3758766438414
 30
0.0
  0
VERTEX
  5
23A
330
238
100
AcDbEntity
  8
34_Gruppe
  6
Continuous
 62
     7
370
    20
100
AcDbVertex
100
AcDb2dVertex
 10
103.4738911127828
 20
126.7481034562265
 30
0.0
  0
VERTEX
  5
23B
330
238
100
AcDbEntity
  8
34_Gruppe
  6
Continuous
 62
     7
370
    20
100
AcDbVertex
100
AcDb2dVertex
 10
104.1099542698072
 20
126.774243038022
 30
0.0
  0
SEQEND
  5
23C
330
238
100
AcDbEntity
  8
34_Gruppe
  6
Continuous
 62
     7
370
    20
  0
POLYLINE
  5
23D
330
B6
100
AcDbEntity
  8
34_Gruppe
  6
Continuous
 62
     7
370
    20
100
AcDb2dPolyline
 66
     1
 10
0.0
 20
0.0
 30
0.0
  0
VERTEX
  5
23E
330
23D
100
AcDbEntity
  8
34_Gruppe
  6
Continuous
 62
     7
370
    20
100
AcDbVertex
100
AcDb2dVertex
 10
96.44012616566533
 20
128.4777823988819
 30
0.0
  0
VERTEX
  5
23F
330
23D
100
AcDbEntity
  8
34_Gruppe
  6
Continuous
 62
     7
370
    20
100
AcDbVertex
100
AcDb2dVertex
 10
101.6742688339528
 20
129.1246989084498
 30
0.0
  0
VERTEX
  5
240
330
23D
100
AcDbEntity
  8
34_Gruppe
  6
Continuous
 62
     7
370
    20
100
AcDbVertex
100
AcDb2dVertex
 10
106.3222777761145
 20
128.6712346214105
 30
0.0
  0
VERTEX
  5
241
330
23D
100
AcDbEntity
  8
34_Gruppe
  6
Continuous
 62
     7
370
    20
100
AcDbVertex
100
AcDb2dVertex
 10
108.0282532211276
 20
128.6384274013142
 30
0.0
  0
SEQEND
  5
242
330
23D
100
AcDbEntity
  8
34_Gruppe
  6
Continuous
 62
     7
370
    20
  0
POLYLINE
  5
243
330
B6
100
AcDbEntity
  8
34_Gruppe
  6
Continuous
 62
     7
370
    20
100
AcDb2dPolyline
 66
     1
 10
0.0
 20
0.0
 30
0.0
  0
VERTEX
  5
244
330
243
100
AcDbEntity
  8
34_Gruppe
  6
Continuous
 62
     7
370
    20
100
AcDbVertex
100
AcDb2dVertex
 10
122.8122387396475
 20
125.4302869329498
 30
0.0
  0
VERTEX
  5
245
330
243
100
AcDbEntity
  8
34_Gruppe
  6
Continuous
 62
     7
370
    20
100
AcDbVertex
100
AcDb2dVertex
 10
127.2753525399593
 20
125.0245493147398
 30
0.0
  0
VERTEX
  5
246
330
243
100
AcDbEntity
  8
34_Gruppe
  6
Continuous
 62
     7
370
    20
100
AcDbVertex
100
AcDb2dVertex
 10
127.9114156969837
 20
125.0506888965353
 30
0.0
  0
SEQEND
  5
247
330
243
100
AcDbEntity
  8
34_Gruppe
  6
Continuous
 62
     7
370
    20
  0
POLYLINE
  5
248
330
B6
100
AcDbEntity
  8
34_Gruppe
  6
Continuous
 62
     7
370
    20
100
AcDb2dPolyline
 66
     1
 10
0.0
 20
0.0
 30
0.0
  0
VERTEX
  5
249
330
248
100
AcDbEntity
  8
34_Gruppe
  6
Continuous
 62
     7
370
    20
100
AcDbVertex
100
AcDb2dVertex
 10
122.6455833009309
 20
119.2399517397018
 30
0.0
  0
VERTEX
  5
24A
330
248
100
AcDbEntity
  8
34_Gruppe
  6
Continuous
 62
     7
370
    20
100
AcDbVertex
100
AcDb2dVertex
 10
127.1086971012427
 20
118.8342141214918
 30
0.0
  0
VERTEX
  5
24B
330
248
100
AcDbEntity
  8
34_Gruppe
  6
Continuous
 62
     7
370
    20
100
AcDbVertex
100
AcDb2dVertex
 10
127.7447602582671
 20
118.8603537032873
 30
0.0
  0
SEQEND
  5
24C
330
248
100
AcDbEntity
  8
34_Gruppe
  6
Continuous
 62
     7
370
    20
  0
POLYLINE
  5
24D
330
B6
100
AcDbEntity
  8
34_Gruppe
  6
Continuous
 62
     7
370
    20
100
AcDb2dPolyline
 66
     1
 10
0.0
 20
0.0
 30
0.0
  0
VERTEX
  5
24E
330
24D
100
AcDbEntity
  8
34_Gruppe
  6
Continuous
 62
     7
370
    20
100
AcDbVertex
100
AcDb2dVertex
 10
113.5467664206611
 20
121.4265979936288
 30
0.0
  0
VERTEX
  5
24F
330
24D
100
AcDbEntity
  8
34_Gruppe
  6
Continuous
 62
     7
370
    20
100
AcDbVertex
100
AcDb2dVertex
 10
118.0098802209729
 20
121.0208603754187
 30
0.0
  0
VERTEX
  5
250
330
24D
100
AcDbEntity
  8
34_Gruppe
  6
Continuous
 62
     7
370
    20
100
AcDbVertex
100
AcDb2dVertex
 10
122.1477418402107
 20
121.1909094830581
 30
0.0
  0
VERTEX
  5
251
330
24D
100
AcDbEntity
  8
34_Gruppe
  6
Continuous
 62
     7
370
    20
100
AcDbVertex
100
AcDb2dVertex
 10
127.1925320334863
 20
121.8144228777367
 30
0.0
  0
VERTEX
  5
252
330
24D
100
AcDbEntity
  8
34_Gruppe
  6
Continuous
 62
     7
370
    20
100
AcDbVertex
100
AcDb2dVertex
 10
127.9114156969837
 20
121.7442878861761
 30
0.0
  0
SEQEND
  5
253
330
24D
100
AcDbEntity
  8
34_Gruppe
  6
Continuous
 62
     7
370
    20
  0
POLYLINE
  5
254
330
B6
100
AcDbEntity
  8
34_Gruppe
  6
Continuous
 62
     7
370
    20
100
AcDb2dPolyline
 66
     1
 10
0.0
 20
0.0
 30
0.0
  0
VERTEX
  5
255
330
254
100
AcDbEntity
  8
34_Gruppe
  6
Continuous
 62
     7
370
    20
100
AcDbVertex
100
AcDb2dVertex
 10
105.9576656969836
 20
118.2820064489782
 30
0.0
  0
VERTEX
  5
256
330
254
100
AcDbEntity
  8
34_Gruppe
  6
Continuous
 62
     7
370
    20
100
AcDbVertex
100
AcDb2dVertex
 10
110.0754382362501
 20
118.4512299779886
 30
0.0
  0
VERTEX
  5
257
330
254
100
AcDbEntity
  8
34_Gruppe
  6
Continuous
 62
     7
370
    20
100
AcDbVertex
100
AcDb2dVertex
 10
115.1202284295257
 20
119.0747433726672
 30
0.0
  0
VERTEX
  5
258
330
254
100
AcDbEntity
  8
34_Gruppe
  6
Continuous
 62
     7
370
    20
100
AcDbVertex
100
AcDb2dVertex
 10
119.7682373716873
 20
118.621279085628
 30
0.0
  0
VERTEX
  5
259
330
254
100
AcDbEntity
  8
34_Gruppe
  6
Continuous
 62
     7
370
    20
100
AcDbVertex
100
AcDb2dVertex
 10
121.4742128167004
 20
118.5884718655317
 30
0.0
  0
SEQEND
  5
25A
330
254
100
AcDbEntity
  8
34_Gruppe
  6
Continuous
 62
     7
370
    20
  0
POLYLINE
  5
25B
330
B6
100
AcDbEntity
  8
34_Gruppe
  6
Continuous
 62
     7
370
    20
100
AcDb2dPolyline
 66
     1
 10
0.0
 20
0.0
 30
0.0
  0
VERTEX
  5
25C
330
25B
100
AcDbEntity
  8
34_Gruppe
  6
Continuous
 62
     7
370
    20
100
AcDbVertex
100
AcDb2dVertex
 10
105.9576656969836
 20
120.1991931557852
 30
0.0
  0
VERTEX
  5
25D
330
25B
100
AcDbEntity
  8
34_Gruppe
  6
Continuous
 62
     7
370
    20
100
AcDbVertex
100
AcDb2dVertex
 10
112.7839562305423
 20
119.5786212890982
 30
0.0
  0
VERTEX
  5
25E
330
25B
100
AcDbEntity
  8
34_Gruppe
  6
Continuous
 62
     7
370
    20
100
AcDbVertex
100
AcDb2dVertex
 10
116.9218178497801
 20
119.7486703967375
 30
0.0
  0
VERTEX
  5
25F
330
25B
100
AcDbEntity
  8
34_Gruppe
  6
Continuous
 62
     7
370
    20
100
AcDbVertex
100
AcDb2dVertex
 10
121.9666080430557
 20
120.3721837914161
 30
0.0
  0
VERTEX
  5
260
330
25B
100
AcDbEntity
  8
34_Gruppe
  6
Continuous
 62
     7
370
    20
100
AcDbVertex
100
AcDb2dVertex
 10
126.6146169852174
 20
119.9187195043769
 30
0.0
  0
VERTEX
  5
261
330
25B
100
AcDbEntity
  8
34_Gruppe
  6
Continuous
 62
     7
370
    20
100
AcDbVertex
100
AcDb2dVertex
 10
127.9114156969837
 20
119.8937810676123
 30
0.0
  0
SEQEND
  5
262
330
25B
100
AcDbEntity
  8
34_Gruppe
  6
Continuous
 62
     7
370
    20
  0
POLYLINE
  5
263
330
B6
100
AcDbEntity
  8
34_Gruppe
  6
Continuous
 62
     7
370
    20
100
AcDb2dPolyline
 66
     1
 10
0.0
 20
0.0
 30
0.0
  0
VERTEX
  5
264
330
263
100
AcDbEntity
  8
34_Gruppe
  6
Continuous
 62
     7
370
    20
100
AcDbVertex
100
AcDb2dVertex
 10
105.9576656969836
 20
124.525005453767
 30
0.0
  0
VERTEX
  5
265
330
263
100
AcDbEntity
  8
34_Gruppe
  6
Continuous
 62
     7
370
    20
100
AcDbVertex
100
AcDb2dVertex
 10
112.3747794972955
 20
123.9416314719206
 30
0.0
  0
VERTEX
  5
266
330
263
100
AcDbEntity
  8
34_Gruppe
  6
Continuous
 62
     7
370
    20
100
AcDbVertex
100
AcDb2dVertex
 10
116.5126411165334
 20
124.1116805795599
 30
0.0
  0
VERTEX
  5
267
330
263
100
AcDbEntity
  8
34_Gruppe
  6
Continuous
 62
     7
370
    20
100
AcDbVertex
100
AcDb2dVertex
 10
121.5574313098089
 20
124.7351939742385
 30
0.0
  0
VERTEX
  5
268
330
263
100
AcDbEntity
  8
34_Gruppe
  6
Continuous
 62
     7
370
    20
100
AcDbVertex
100
AcDb2dVertex
 10
126.2054402519706
 20
124.2817296871993
 30
0.0
  0
VERTEX
  5
269
330
263
100
AcDbEntity
  8
34_Gruppe
  6
Continuous
 62
     7
370
    20
100
AcDbVertex
100
AcDb2dVertex
 10
127.9114156969837
 20
124.248922467103
 30
0.0
  0
SEQEND
  5
26A
330
263
100
AcDbEntity
  8
34_Gruppe
  6
Continuous
 62
     7
370
    20
  0
POLYLINE
  5
26B
330
B6
100
AcDbEntity
  8
34_Gruppe
  6
Continuous
 62
     7
370
    20
100
AcDb2dPolyline
 66
     1
 10
0.0
 20
0.0
 30
0.0
  0
VERTEX
  5
26C
330
26B
100
AcDbEntity
  8
34_Gruppe
  6
Continuous
 62
     7
370
    20
100
AcDbVertex
100
AcDb2dVertex
 10
105.9576656969836
 20
124.8639732343402
 30
0.0
  0
VERTEX
  5
26D
330
26B
100
AcDbEntity
  8
34_Gruppe
  6
Continuous
 62
     7
370
    20
100
AcDbVertex
100
AcDb2dVertex
 10
109.9393266992199
 20
125.0276031385412
 30
0.0
  0
VERTEX
  5
26E
330
26B
100
AcDbEntity
  8
34_Gruppe
  6
Continuous
 62
     7
370
    20
100
AcDbVertex
100
AcDb2dVertex
 10
114.9841168924954
 20
125.6511165332198
 30
0.0
  0
VERTEX
  5
26F
330
26B
100
AcDbEntity
  8
34_Gruppe
  6
Continuous
 62
     7
370
    20
100
AcDbVertex
100
AcDb2dVertex
 10
119.6321258346571
 20
125.1976522461806
 30
0.0
  0
VERTEX
  5
270
330
26B
100
AcDbEntity
  8
34_Gruppe
  6
Continuous
 62
     7
370
    20
100
AcDbVertex
100
AcDb2dVertex
 10
121.3381012796702
 20
125.1648450260842
 30
0.0
  0
SEQEND
  5
271
330
26B
100
AcDbEntity
  8
34_Gruppe
  6
Continuous
 62
     7
370
    20
  0
POLYLINE
  5
272
330
B6
100
AcDbEntity
  8
34_Gruppe
  6
Continuous
 62
     7
370
    20
100
AcDb2dPolyline
 66
     1
 10
0.0
 20
0.0
 30
0.0
  0
VERTEX
  5
273
330
272
100
AcDbEntity
  8
34_Gruppe
  6
Continuous
 62
     7
370
    20
100
AcDbVertex
100
AcDb2dVertex
 10
122.8122387396475
 20
123.4292712794525
 30
0.0
  0
VERTEX
  5
274
330
272
100
AcDbEntity
  8
34_Gruppe
  6
Continuous
 62
     7
370
    20
100
AcDbVertex
100
AcDb2dVertex
 10
127.2753525399593
 20
123.0235336612424
 30
0.0
  0
VERTEX
  5
275
330
272
100
AcDbEntity
  8
34_Gruppe
  6
Continuous
 62
     7
370
    20
100
AcDbVertex
100
AcDb2dVertex
 10
127.9114156969837
 20
123.049673243038
 30
0.0
  0
SEQEND
  5
276
330
272
100
AcDbEntity
  8
34_Gruppe
  6
Continuous
 62
     7
370
    20
  0
POLYLINE
  5
277
330
B6
100
AcDbEntity
  8
34_Gruppe
  6
Continuous
 62
     7
370
    20
100
AcDb2dPolyline
 66
     1
 10
0.0
 20
0.0
 30
0.0
  0
VERTEX
  5
278
330
277
100
AcDbEntity
  8
34_Gruppe
  6
Continuous
 62
     7
370
    20
100
AcDbVertex
100
AcDb2dVertex
 10
105.9576656969836
 20
122.8629575808428
 30
0.0
  0
VERTEX
  5
279
330
277
100
AcDbEntity
  8
34_Gruppe
  6
Continuous
 62
     7
370
    20
100
AcDbVertex
100
AcDb2dVertex
 10
109.9393266992199
 20
123.0265874850438
 30
0.0
  0
VERTEX
  5
27A
330
277
100
AcDbEntity
  8
34_Gruppe
  6
Continuous
 62
     7
370
    20
100
AcDbVertex
100
AcDb2dVertex
 10
114.9841168924954
 20
123.6501008797224
 30
0.0
  0
VERTEX
  5
27B
330
277
100
AcDbEntity
  8
34_Gruppe
  6
Continuous
 62
     7
370
    20
100
AcDbVertex
100
AcDb2dVertex
 10
119.6321258346571
 20
123.1966365926832
 30
0.0
  0
VERTEX
  5
27C
330
277
100
AcDbEntity
  8
34_Gruppe
  6
Continuous
 62
     7
370
    20
100
AcDbVertex
100
AcDb2dVertex
 10
121.3381012796702
 20
123.1638293725869
 30
0.0
  0
SEQEND
  5
27D
330
277
100
AcDbEntity
  8
34_Gruppe
  6
Continuous
 62
     7
370
    20
  0
POLYLINE
  5
27E
330
B6
100
AcDbEntity
  8
34_Gruppe
  6
Continuous
 62
     7
370
    20
100
AcDb2dPolyline
 66
     1
 10
0.0
 20
0.0
 30
0.0
  0
VERTEX
  5
27F
330
27E
100
AcDbEntity
  8
34_Gruppe
  6
Continuous
 62
     7
370
    20
100
AcDbVertex
100
AcDb2dVertex
 10
105.9576656969836
 20
122.4819145281891
 30
0.0
  0
VERTEX
  5
280
330
27E
100
AcDbEntity
  8
34_Gruppe
  6
Continuous
 62
     7
370
    20
100
AcDbVertex
100
AcDb2dVertex
 10
112.3747794972955
 20
121.8985405463429
 30
0.0
  0
VERTEX
  5
281
330
27E
100
AcDbEntity
  8
34_Gruppe
  6
Continuous
 62
     7
370
    20
100
AcDbVertex
100
AcDb2dVertex
 10
116.5126411165334
 20
122.0685896539822
 30
0.0
  0
VERTEX
  5
282
330
27E
100
AcDbEntity
  8
34_Gruppe
  6
Continuous
 62
     7
370
    20
100
AcDbVertex
100
AcDb2dVertex
 10
121.5574313098089
 20
122.6921030486608
 30
0.0
  0
VERTEX
  5
283
330
27E
100
AcDbEntity
  8
34_Gruppe
  6
Continuous
 62
     7
370
    20
100
AcDbVertex
100
AcDb2dVertex
 10
126.2054402519706
 20
122.2386387616216
 30
0.0
  0
VERTEX
  5
284
330
27E
100
AcDbEntity
  8
34_Gruppe
  6
Continuous
 62
     7
370
    20
100
AcDbVertex
100
AcDb2dVertex
 10
127.9114156969837
 20
122.2058315415253
 30
0.0
  0
SEQEND
  5
285
330
27E
100
AcDbEntity
  8
34_Gruppe
  6
Continuous
 62
     7
370
    20
  0
POLYLINE
  5
286
330
B6
100
AcDbEntity
  8
34_Gruppe
  6
Continuous
 62
     7
370
    20
100
AcDb2dPolyline
 66
     1
 10
0.0
 20
0.0
 30
0.0
  0
VERTEX
  5
287
330
286
100
AcDbEntity
  8
34_Gruppe
  6
Continuous
 62
     7
370
    20
100
AcDbVertex
100
AcDb2dVertex
 10
105.9576656969836
 20
121.4203158968743
 30
0.0
  0
VERTEX
  5
288
330
286
100
AcDbEntity
  8
34_Gruppe
  6
Continuous
 62
     7
370
    20
100
AcDbVertex
100
AcDb2dVertex
 10
112.8631707607482
 20
120.7925427092595
 30
0.0
  0
VERTEX
  5
289
330
286
100
AcDbEntity
  8
34_Gruppe
  6
Continuous
 62
     7
370
    20
100
AcDbVertex
100
AcDb2dVertex
 10
113.4992339177726
 20
120.8186822910549
 30
0.0
  0
SEQEND
  5
28A
330
286
100
AcDbEntity
  8
34_Gruppe
  6
Continuous
 62
     7
370
    20
  0
LINE
  5
28B
330
B6
100
AcDbEntity
  8
STANDARD
  6
Continuous
 62
     7
100
AcDbLine
 10
95.75766569698345
 20
128.7639652509145
 30
0.0
 11
95.75766569698362
 21
129.0639652509149
 31
0.0
  0
LINE
  5
28C
330
B6
100
AcDbEntity
  8
STANDARD
  6
Continuous
 62
     7
100
AcDbLine
 10
95.75766569698345
 20
128.7639652509145
 30
0.0
 11
95.05766569698363
 21
128.5639652509149
 31
0.0
  0
LINE
  5
28D
330
B6
100
AcDbEntity
  8
STANDARD
  6
Continuous
 62
     7
100
AcDbLine
 10
95.75766569698362
 20
129.0639652509149
 30
0.0
 11
95.05766569698335
 21
129.263965250915
 31
0.0
  0
LINE
  5
28E
330
B6
100
AcDbEntity
  8
STANDARD
  6
Continuous
 62
     7
100
AcDbLine
 10
95.05766569698363
 20
128.5639652509149
 30
0.0
 11
94.95766569698363
 21
128.5639652509149
 31
0.0
  0
LINE
  5
28F
330
B6
100
AcDbEntity
  8
STANDARD
  6
Continuous
 62
     7
100
AcDbLine
 10
95.05766569698335
 20
129.263965250915
 30
0.0
 11
94.95766569698344
 21
129.2639652509149
 31
0.0
  0
LINE
  5
290
330
B6
100
AcDbEntity
  8
STANDARD
  6
Continuous
 62
     7
100
AcDbLine
 10
100.0286856969838
 20
128.7639652509149
 30
0.0
 11
95.75766569698345
 21
128.7639652509145
 31
0.0
  0
LINE
  5
291
330
B6
100
AcDbEntity
  8
STANDARD
  6
Continuous
 62
     7
100
AcDbLine
 10
100.0286856969836
 20
129.0639652509149
 30
0.0
 11
95.75766569698362
 21
129.0639652509149
 31
0.0
  0
LINE
  5
292
330
B6
100
AcDbEntity
  8
STANDARD
  6
Continuous
 62
     7
100
AcDbLine
 10
100.0286856969838
 20
128.7639652509149
 30
0.0
 11
100.0286856969836
 21
129.0639652509149
 31
0.0
  0
LINE
  5
293
330
B6
100
AcDbEntity
  8
STANDARD
  6
Continuous
 62
     7
100
AcDbLine
 10
95.05766569698345
 20
127.7639652509149
 30
0.0
 11
94.95766569698363
 21
127.7639652509149
 31
0.0
  0
LINE
  5
294
330
B6
100
AcDbEntity
  8
STANDARD
  6
Continuous
 62
     7
100
AcDbLine
 10
95.05766569698345
 20
130.0639652509147
 30
0.0
 11
94.95766569698327
 21
130.063965250915
 31
0.0
  0
LINE
  5
295
330
B6
100
AcDbEntity
  8
STANDARD
  6
Continuous
 62
     7
100
AcDbLine
 10
95.05766569698345
 20
127.7639652509149
 30
0.0
 11
95.05766569698345
 21
130.0639652509147
 31
0.0
  0
LINE
  5
296
330
B6
100
AcDbEntity
  8
STANDARD
  6
Continuous
 62
     7
100
AcDbLine
 10
94.95766569698363
 20
127.7639652509149
 30
0.0
 11
94.95766569698327
 21
130.063965250915
 31
0.0
  0
LINE
  5
297
330
B6
100
AcDbEntity
  8
12_Linie
 62
     7
370
    20
100
AcDbLine
 10
128.1796392337824
 20
118.1553751369773
 30
0.0
 11
130.2363175555135
 21
125.8553751369773
 31
0.0
  0
LINE
  5
298
330
B6
100
AcDbEntity
  8
12_Linie
 62
     7
370
    20
100
AcDbLine
 10
132.2929958772448
 20
118.1553751369773
 30
0.0
 11
130.2363175555135
 21
125.8553751369773
 31
0.0
  0
LINE
  5
299
330
B6
100
AcDbEntity
  8
12_Linie
 62
     7
370
    20
100
AcDbLine
 10
136.4063525207073
 20
118.1553751369773
 30
0.0
 11
134.3496741989759
 21
125.8553751369773
 31
0.0
  0
LINE
  5
29A
330
B6
100
AcDbEntity
  8
12_Linie
 62
     7
370
    20
100
AcDbLine
 10
132.2929958772448
 20
118.1553751369773
 30
0.0
 11
134.3496741989759
 21
125.8553751369773
 31
0.0
  0
LINE
  5
29B
330
B6
100
AcDbEntity
  8
12_Linie
 62
     7
370
    20
100
AcDbLine
 10
144.6330658076321
 20
118.1553751369773
 30
0.0
 11
142.576387485901
 21
125.8553751369773
 31
0.0
  0
LINE
  5
29C
330
B6
100
AcDbEntity
  8
12_Linie
 62
     7
370
    20
100
AcDbLine
 10
140.5197091641697
 20
118.1553751369773
 30
0.0
 11
142.576387485901
 21
125.8553751369773
 31
0.0
  0
LINE
  5
29D
330
B6
100
AcDbEntity
  8
12_Linie
 62
     7
370
    20
100
AcDbLine
 10
136.4063525207073
 20
118.1553751369773
 30
0.0
 11
138.4630308424385
 21
125.8553751369773
 31
0.0
  0
LINE
  5
29E
330
B6
100
AcDbEntity
  8
12_Linie
 62
     7
370
    20
100
AcDbLine
 10
140.5197091641697
 20
118.1553751369773
 30
0.0
 11
138.4630308424385
 21
125.8553751369773
 31
0.0
  0
LINE
  5
29F
330
B6
100
AcDbEntity
  8
12_Linie
 62
     7
370
    20
100
AcDbLine
 10
161.086492381482
 20
118.1553751369773
 30
0.0
 11
159.0298140597507
 21
125.8553751369773
 31
0.0
  0
LINE
  5
2A0
330
B6
100
AcDbEntity
  8
12_Linie
 62
     7
370
    20
100
AcDbLine
 10
156.9731357380196
 20
118.1553751369773
 30
0.0
 11
159.0298140597507
 21
125.8553751369773
 31
0.0
  0
LINE
  5
2A1
330
B6
100
AcDbEntity
  8
12_Linie
 62
     7
370
    20
100
AcDbLine
 10
152.8597790945572
 20
118.1553751369773
 30
0.0
 11
154.9164574162883
 21
125.8553751369773
 31
0.0
  0
LINE
  5
2A2
330
B6
100
AcDbEntity
  8
12_Linie
 62
     7
370
    20
100
AcDbLine
 10
156.9731357380196
 20
118.1553751369773
 30
0.0
 11
154.9164574162883
 21
125.8553751369773
 31
0.0
  0
LINE
  5
2A3
330
B6
100
AcDbEntity
  8
12_Linie
 62
     7
370
    20
100
AcDbLine
 10
144.6330658076321
 20
118.1553751369773
 30
0.0
 11
146.6897441293634
 21
125.8553751369773
 31
0.0
  0
LINE
  5
2A4
330
B6
100
AcDbEntity
  8
12_Linie
 62
     7
370
    20
100
AcDbLine
 10
148.7464224510945
 20
118.1553751369773
 30
0.0
 11
146.6897441293634
 21
125.8553751369773
 31
0.0
  0
LINE
  5
2A5
330
B6
100
AcDbEntity
  8
12_Linie
 62
     7
370
    20
100
AcDbLine
 10
152.859779094557
 20
118.1553751369773
 30
0.0
 11
150.8031007728258
 21
125.8553751369773
 31
0.0
  0
LINE
  5
2A6
330
B6
100
AcDbEntity
  8
12_Linie
 62
     7
370
    20
100
AcDbLine
 10
148.7464224510945
 20
118.1553751369773
 30
0.0
 11
150.8031007728258
 21
125.8553751369773
 31
0.0
  0
LINE
  5
2A7
330
B6
100
AcDbEntity
  8
12_Linie
 62
     7
370
    20
100
AcDbLine
 10
161.086492381482
 20
118.1553751369773
 30
0.0
 11
163.1431707032133
 21
125.8553751369773
 31
0.0
  0
LINE
  5
2A8
330
B6
100
AcDbEntity
  8
12_Linie
 62
     7
370
    20
100
AcDbLine
 10
165.1998490249445
 20
118.1553751369773
 30
0.0
 11
163.1431707032133
 21
125.8553751369773
 31
0.0
  0
LINE
  5
2A9
330
B6
100
AcDbEntity
  8
12_Linie
 62
     7
370
    20
100
AcDbLine
 10
169.3132056684069
 20
118.1553751369773
 30
0.0
 11
167.2565273466757
 21
125.8553751369773
 31
0.0
  0
LINE
  5
2AA
330
B6
100
AcDbEntity
  8
12_Linie
 62
     7
370
    20
100
AcDbLine
 10
165.1998490249445
 20
118.1553751369773
 30
0.0
 11
167.2565273466757
 21
125.8553751369773
 31
0.0
  0
LINE
  5
2AB
330
B6
100
AcDbEntity
  8
12_Linie
 62
     7
370
    20
100
AcDbLine
 10
181.6532755987944
 20
118.1553751369773
 30
0.0
 11
183.7099539205255
 21
125.8553751369773
 31
0.0
  0
LINE
  5
2AC
330
B6
100
AcDbEntity
  8
12_Linie
 62
     7
370
    20
100
AcDbLine
 10
185.7666322422568
 20
118.1553751369773
 30
0.0
 11
183.7099539205255
 21
125.8553751369773
 31
0.0
  0
LINE
  5
2AD
330
B6
100
AcDbEntity
  8
12_Linie
 62
     7
370
    20
100
AcDbLine
 10
189.8799888857192
 20
118.1553751369773
 30
0.0
 11
187.8233105639879
 21
125.8553751369773
 31
0.0
  0
LINE
  5
2AE
330
B6
100
AcDbEntity
  8
12_Linie
 62
     7
370
    20
100
AcDbLine
 10
185.7666322422568
 20
118.1553751369773
 30
0.0
 11
187.8233105639879
 21
125.8553751369773
 31
0.0
  0
LINE
  5
2AF
330
B6
100
AcDbEntity
  8
12_Linie
 62
     7
370
    20
100
AcDbLine
 10
181.6532755987942
 20
118.1553751369773
 30
0.0
 11
179.596597277063
 21
125.8553751369773
 31
0.0
  0
LINE
  5
2B0
330
B6
100
AcDbEntity
  8
12_Linie
 62
     7
370
    20
100
AcDbLine
 10
177.5399189553317
 20
118.1553751369773
 30
0.0
 11
179.596597277063
 21
125.8553751369773
 31
0.0
  0
LINE
  5
2B1
330
B6
100
AcDbEntity
  8
12_Linie
 62
     7
370
    20
100
AcDbLine
 10
173.4265623118693
 20
118.1553751369773
 30
0.0
 11
175.4832406336006
 21
125.8553751369773
 31
0.0
  0
LINE
  5
2B2
330
B6
100
AcDbEntity
  8
12_Linie
 62
     7
370
    20
100
AcDbLine
 10
177.5399189553317
 20
118.1553751369773
 30
0.0
 11
175.4832406336006
 21
125.8553751369773
 31
0.0
  0
LINE
  5
2B3
330
B6
100
AcDbEntity
  8
12_Linie
 62
     7
370
    20
100
AcDbLine
 10
169.3132056684069
 20
118.1553751369773
 30
0.0
 11
171.3698839901382
 21
125.8553751369773
 31
0.0
  0
LINE
  5
2B4
330
B6
100
AcDbEntity
  8
12_Linie
 62
     7
370
    20
100
AcDbLine
 10
173.4265623118693
 20
118.1553751369773
 30
0.0
 11
171.3698839901382
 21
125.8553751369773
 31
0.0
  0
LINE
  5
2B5
330
B6
100
AcDbEntity
  8
12_Linie
 62
     7
370
    20
100
AcDbLine
 10
198.1067021726441
 20
118.1553751369773
 30
0.0
 11
196.0500238509128
 21
125.8553751369773
 31
0.0
  0
LINE
  5
2B6
330
B6
100
AcDbEntity
  8
12_Linie
 62
     7
370
    20
100
AcDbLine
 10
193.9933455291816
 20
118.1553751369773
 30
0.0
 11
196.0500238509128
 21
125.8553751369773
 31
0.0
  0
LINE
  5
2B7
330
B6
100
AcDbEntity
  8
12_Linie
 62
     7
370
    20
100
AcDbLine
 10
189.8799888857192
 20
118.1553751369773
 30
0.0
 11
191.9366672074503
 21
125.8553751369773
 31
0.0
  0
LINE
  5
2B8
330
B6
100
AcDbEntity
  8
12_Linie
 62
     7
370
    20
100
AcDbLine
 10
193.9933455291816
 20
118.1553751369773
 30
0.0
 11
191.9366672074503
 21
125.8553751369773
 31
0.0
  0
LINE
  5
2B9
330
B6
100
AcDbEntity
  8
12_Linie
 62
     7
370
    20
100
AcDbLine
 10
198.1067021726441
 20
118.1553751369773
 30
0.0
 11
200.1633804943754
 21
125.8553751369773
 31
0.0
  0
LINE
  5
2BA
330
B6
100
AcDbEntity
  8
12_Linie
 62
     7
370
    20
100
AcDbLine
 10
202.2200588161065
 20
118.1553751369773
 30
0.0
 11
200.1633804943754
 21
125.8553751369773
 31
0.0
  0
ENDBLK
  5
2BD
330
B6
100
AcDbEntity
  8
0
100
AcDbBlockEnd
  0
ENDSEC
  0
SECTION
  2
ENTITIES
  0
INSERT
  5
AF
330
1F
100
AcDbEntity
  8
00_Allgemein
  6
Continuous
 62
     7
370
     0
100
AcDbBlockReference
  2
printlayout(id_1)
 10
0.0
 20
0.0
 30
0.0
  0
INSERT
  5
2BB
330
1F
100
AcDbEntity
  8
34_Gruppe
  6
Continuous
 62
     7
370
     0
100
AcDbBlockReference
  2
dokument alle 2d details_asc(id_4)
 10
0.0
 20
0.0
 30
0.0
  0
IMAGE
  5
2BF
330
1F
100
AcDbEntity
  8
37_Bilder
  6
Continuous
 62
     7
370
     0
160
               140
310
8C00000001000000840000000600000005000000643F38DD7DC76E40607D7E0819A431400000000000000000B21F9CDEEF237240607D7E0819A431400000000000000000B21F9CDEEF237240B03E3F74D92D40400000000000000000643F38DD7DC76E40B03E3F74D92D40400000000000000000643F38DD7DC76E40607D7E
310
0819A431400000000000000000
100
AcDbRasterImage
 90
        0
 10
246.2341142748438
 20
17.64100697601441
 30
0.0
 11
0.0279263627105558
 21
0.0
 31
0.0
 12
0.0
 22
0.02792635995477608
 32
0.0
 13
1576.0
 23
527.0
340
2BE
 70
     3
280
     0
281
    50
282
    50
283
     0
360
2C0
 71
     1
 91
        2
 14
-0.5
 24
-0.5
 14
1575.5
 24
526.5
290
     0
  0
ENDSEC
  0
SECTION
  2
OBJECTS
  0
DICTIONARY
  5
C
330
0
100
AcDbDictionary
281
     1
  3
ACAD_GROUP
350
D
  3
ACAD_IMAGE_DICT
350
B3
  3
ACAD_LAYOUT
350
1A
  3
ACAD_MATERIAL
350
3B
  3
ACAD_MLEADERSTYLE
350
2C2
  3
ACAD_MLINESTYLE
350
17
  3
ACAD_PLOTSETTINGS
350
19
  3
ACAD_PLOTSTYLENAME
350
E
  3
ACAD_TABLESTYLE
350
2C1
  3
ACAD_VISUALSTYLE
350
2A
  0
IMAGEDEF_REACTOR
  5
2C0
330
2BF
100
AcDbRasterImageDefReactor
 90
        2
330
2BF
  0
DICTIONARY
  5
D
102
{ACAD_REACTORS
330
C
102
}
330
C
100
AcDbDictionary
281
     1
  0
DICTIONARY
  5
B3
102
{ACAD_REACTORS
330
C
102
}
330
C
100
AcDbDictionary
281
     1
  3
Image0
350
B4
  3
Image1
350
2BE
  0
DICTIONARY
  5
1A
102
{ACAD_REACTORS
330
C
102
}
330
C
100
AcDbDictionary
281
     1
  3
Layout1
350
1E
  3
Layout2
350
26
  3
Model
350
22
  0
DICTIONARY
  5
3B
102
{ACAD_REACTORS
330
C
102
}
330
C
100
AcDbDictionary
281
     1
  3
ByBlock
350
3D
  3
ByLayer
350
3C
  3
Global
350
3E
  0
DICTIONARY
  5
2C2
102
{ACAD_REACTORS
330
C
102
}
330
C
100
AcDbDictionary
281
     1
  0
DICTIONARY
  5
17
102
{ACAD_REACTORS
330
C
102
}
330
C
100
AcDbDictionary
281
     1
  3
Standard
350
18
  0
DICTIONARY
  5
19
102
{ACAD_REACTORS
330
C
102
}
330
C
100
AcDbDictionary
281
     1
  0
ACDBDICTIONARYWDFLT
  5
E
102
{ACAD_REACTORS
330
C
102
}
330
C
100
AcDbDictionary
281
     1
  3
Normal
350
F
100
AcDbDictionaryWithDefault
340
F
  0
DICTIONARY
  5
2C1
102
{ACAD_REACTORS
330
C
102
}
330
C
100
AcDbDictionary
281
     1
  0
DICTIONARY
  5
2A
102
{ACAD_REACTORS
330
C
102
}
330
C
100
AcDbDictionary
281
     1
  3
2dWireframe
350
2F
  3
3D Hidden
350
31
  3
3dWireframe
350
30
  3
Basic
350
32
  3
Brighten
350
36
  3
ColorChange
350
3A
  3
Conceptual
350
34
  3
Dim
350
35
  3
Facepattern
350
39
  3
Flat
350
2B
  3
FlatWithEdges
350
2C
  3
Gouraud
350
2D
  3
GouraudWithEdges
350
2E
  3
Linepattern
350
38
  3
Realistic
350
33
  3
Thicken
350
37
  0
IMAGEDEF
  5
B4
102
{ACAD_REACTORS
330
B3
102
}
330
B3
100
AcDbRasterImageDef
 90
        0
  1
__ID2_Coverit+www.bmp
 10
1576.0
 20
527.0
 11
0.0006345177664974619
 21
0.0006345177664974619
280
     1
281
     1
  0
IMAGEDEF
  5
2BE
102
{ACAD_REACTORS
330
B3
330
2C0
102
}
330
B3
100
AcDbRasterImageDef
 90
        0
  1
__ID2_Coverit+www.bmp
 10
1576.0
 20
527.0
 11
0.0006345177664974619
 21
0.0006345177664974619
280
     1
281
     1
  0
LAYOUT
  5
1E
102
{ACAD_REACTORS
330
1A
102
}
330
1A
100
AcDbPlotSettings
  1

  2
none_device
  4

  6

 40
0.0
 41
0.0
 42
0.0
 43
0.0
 44
0.0
 45
0.0
 46
0.0
 47
0.0
 48
0.0
 49
0.0
140
0.0
141
0.0
142
1.0
143
1.0
 70
   688
 72
     0
 73
     0
 74
     5
  7

 75
    16
 76
     0
 77
     2
 78
   300
147
1.0
148
0.0
149
0.0
100
AcDbLayout
  1
Layout1
 70
     1
 71
     1
 10
0.0
 20
0.0
 11
12.0
 21
9.0
 12
0.0
 22
0.0
 32
0.0
 14
1.000000000000000E+20
 24
1.000000000000000E+20
 34
1.000000000000000E+20
 15
-1.000000000000000E+20
 25
-1.000000000000000E+20
 35
-1.000000000000000E+20
146
0.0
 13
0.0
 23
0.0
 33
0.0
 16
1.0
 26
0.0
 36
0.0
 17
0.0
 27
1.0
 37
0.0
 76
     0
330
1B
  0
LAYOUT
  5
26
102
{ACAD_REACTORS
330
1A
102
}
330
1A
100
AcDbPlotSettings
  1

  2
none_device
  4

  6

 40
0.0
 41
0.0
 42
0.0
 43
0.0
 44
0.0
 45
0.0
 46
0.0
 47
0.0
 48
0.0
 49
0.0
140
0.0
141
0.0
142
1.0
143
1.0
 70
   688
 72
     0
 73
     0
 74
     5
  7

 75
    16
 76
     0
 77
     2
 78
   300
147
1.0
148
0.0
149
0.0
100
AcDbLayout
  1
Layout2
 70
     1
 71
     2
 10
0.0
 20
0.0
 11
0.0
 21
0.0
 12
0.0
 22
0.0
 32
0.0
 14
0.0
 24
0.0
 34
0.0
 15
0.0
 25
0.0
 35
0.0
146
0.0
 13
0.0
 23
0.0
 33
0.0
 16
1.0
 26
0.0
 36
0.0
 17
0.0
 27
1.0
 37
0.0
 76
     0
330
23
  0
LAYOUT
  5
22
102
{ACAD_REACTORS
330
1A
102
}
330
1A
100
AcDbPlotSettings
  1

  2
none_device
  4

  6

 40
0.0
 41
0.0
 42
0.0
 43
0.0
 44
0.0
 45
0.0
 46
0.0
 47
0.0
 48
0.0
 49
0.0
140
0.0
141
0.0
142
1.0
143
1.0
 70
  1712
 72
     0
 73
     0
 74
     0
  7

 75
     0
 76
     0
 77
     2
 78
   300
147
1.0
148
0.0
149
0.0
100
AcDbLayout
  1
Model
 70
     1
 71
     0
 10
0.0
 20
0.0
 11
12.0
 21
9.0
 12
0.0
 22
0.0
 32
0.0
 14
-0.0000000000000568
 24
-0.0000000000001137
 34
0.0
 15
297.0
 25
210.0
 35
0.0
146
0.0
 13
0.0
 23
0.0
 33
0.0
 16
1.0
 26
0.0
 36
0.0
 17
0.0
 27
1.0
 37
0.0
 76
     0
330
1F
331
29
  0
MATERIAL
  5
3D
102
{ACAD_REACTORS
330
3B
102
}
330
3B
100
AcDbMaterial
  1
ByBlock
 72
     1
 94
      127
  0
MATERIAL
  5
3C
102
{ACAD_REACTORS
330
3B
102
}
330
3B
100
AcDbMaterial
  1
ByLayer
 72
     1
 94
      127
  0
MATERIAL
  5
3E
102
{ACAD_REACTORS
330
3B
102
}
330
3B
100
AcDbMaterial
  1
Global
 72
     1
 94
      127
  0
MLINESTYLE
  5
18
102
{ACAD_REACTORS
330
17
102
}
330
17
100
AcDbMlineStyle
  2
Standard
 70
     0
  3

 62
   256
 51
90.0
 52
90.0
 71
     2
 49
0.5
 62
   256
  6
BYLAYER
 49
-0.5
 62
   256
  6
BYLAYER
  0
ACDBPLACEHOLDER
  5
F
102
{ACAD_REACTORS
330
E
102
}
330
E
  0
VISUALSTYLE
  5
2F
102
{ACAD_REACTORS
330
2A
102
}
330
2A
100
AcDbVisualStyle
  2
2dWireframe
 70
     4
177
     2
291
     0
 71
     0
176
     1
 72
     2
176
     1
 73
     0
176
     1
 90
        0
176
     1
 40
-0.6
176
     1
 41
-30.0
176
     1
 62
     5
 63
     7
421
 16777215
176
     1
 74
     1
176
     1
 91
        4
176
     1
 64
     7
176
     1
 65
   257
176
     1
 75
     1
176
     1
175
     1
176
     1
 42
1.0
176
     1
 92
        0
176
     1
 66
   257
176
     1
 43
1.0
176
     1
 76
     1
176
     1
 77
     6
176
     1
 78
     2
176
     1
 67
     7
176
     1
 79
     5
176
     1
170
     0
176
     1
171
     0
176
     1
290
     0
176
     1
 93
        1
176
     1
 44
0.0
176
     1
173
     0
176
     1
  0
VISUALSTYLE
  5
31
102
{ACAD_REACTORS
330
2A
102
}
330
2A
100
AcDbVisualStyle
  2
3D Hidden
 70
     6
177
     2
291
     0
 71
     1
176
     1
 72
     2
176
     1
 73
     2
176
     1
 90
        0
176
     1
 40
-0.6
176
     1
 41
-30.0
176
     1
 62
     5
 63
     7
421
 16777215
176
     1
 74
     2
176
     1
 91
        2
176
     1
 64
     7
176
     1
 65
   257
176
     1
 75
     2
176
     1
175
     1
176
     1
 42
40.0
176
     1
 92
        0
176
     1
 66
   257
176
     1
 43
1.0
176
     1
 76
     1
176
     1
 77
     6
176
     1
 78
     2
176
     1
 67
     7
176
     1
 79
     3
176
     1
170
     0
176
     1
171
     0
176
     1
290
     0
176
     1
 93
        1
176
     1
 44
0.0
176
     1
173
     0
176
     1
  0
VISUALSTYLE
  5
30
102
{ACAD_REACTORS
330
2A
102
}
330
2A
100
AcDbVisualStyle
  2
3dWireframe
 70
     5
177
     2
291
     0
 71
     0
176
     1
 72
     2
176
     1
 73
     0
176
     1
 90
        0
176
     1
 40
-0.6
176
     1
 41
-30.0
176
     1
 62
     5
 63
     7
421
 16777215
176
     1
 74
     1
176
     1
 91
        4
176
     1
 64
     7
176
     1
 65
   257
176
     1
 75
     1
176
     1
175
     1
176
     1
 42
1.0
176
     1
 92
        0
176
     1
 66
   257
176
     1
 43
1.0
176
     1
 76
     1
176
     1
 77
     6
176
     1
 78
     2
176
     1
 67
     7
176
     1
 79
     5
176
     1
170
     0
176
     1
171
     0
176
     1
290
     0
176
     1
 93
        1
176
     1
 44
0.0
176
     1
173
     0
176
     1
  0
VISUALSTYLE
  5
32
102
{ACAD_REACTORS
330
2A
102
}
330
2A
100
AcDbVisualStyle
  2
Basic
 70
     7
177
     2
291
     1
 71
     1
176
     1
 72
     0
176
     1
 73
     1
176
     1
 90
        0
176
     1
 40
-0.6
176
     1
 41
-30.0
176
     1
 62
     5
 63
     7
421
 16777215
176
     1
 74
     0
176
     1
 91
        4
176
     1
 64
     7
176
     1
 65
   257
176
     1
 75
     1
176
     1
175
     1
176
     1
 42
1.0
176
     1
 92
        8
176
     1
 66
     7
176
     1
 43
1.0
176
     1
 76
     1
176
     1
 77
     6
176
     1
 78
     2
176
     1
 67
     7
176
     1
 79
     5
176
     1
170
     0
176
     1
171
     0
176
     1
290
     0
176
     1
 93
        1
176
     1
 44
0.0
176
     1
173
     0
176
     1
  0
VISUALSTYLE
  5
36
102
{ACAD_REACTORS
330
2A
102
}
330
2A
100
AcDbVisualStyle
  2
Brighten
 70
    12
177
     2
291
     1
 71
     2
176
     1
 72
     2
176
     1
 73
     0
176
     1
 90
        0
176
     1
 40
-0.6
176
     1
 41
-30.0
176
     1
 62
     5
 63
     7
421
 16777215
176
     1
 74
     1
176
     1
 91
        4
176
     1
 64
     7
176
     1
 65
   257
176
     1
 75
     1
176
     1
175
     1
176
     1
 42
1.0
176
     1
 92
        8
176
     1
 66
     7
176
     1
 43
1.0
176
     1
 76
     1
176
     1
 77
     6
176
     1
 78
     2
176
     1
 67
     7
176
     1
 79
     5
176
     1
170
     0
176
     1
171
     0
176
     1
290
     0
176
     1
 93
        1
176
     1
 44
50.0
176
     1
173
     0
176
     1
  0
VISUALSTYLE
  5
3A
102
{ACAD_REACTORS
330
2A
102
}
330
2A
100
AcDbVisualStyle
  2
ColorChange
 70
    16
177
     2
291
     1
 71
     2
176
     1
 72
     2
176
     1
 73
     3
176
     1
 90
        0
176
     1
 40
-0.6
176
     1
 41
-30.0
176
     1
 62
     5
 63
     8
421
  8421504
176
     1
 74
     1
176
     1
 91
        4
176
     1
 64
     7
176
     1
 65
   257
176
     1
 75
     1
176
     1
175
     1
176
     1
 42
1.0
176
     1
 92
        8
176
     1
 66
     8
424
  8421504
176
     1
 43
1.0
176
     1
 76
     1
176
     1
 77
     6
176
     1
 78
     2
176
     1
 67
     7
176
     1
 79
     5
176
     1
170
     0
176
     1
171
     0
176
     1
290
     0
176
     1
 93
        1
176
     1
 44
0.0
176
     1
173
     0
176
     1
  0
VISUALSTYLE
  5
34
102
{ACAD_REACTORS
330
2A
102
}
330
2A
100
AcDbVisualStyle
  2
Conceptual
 70
     9
177
     2
291
     0
 71
     3
176
     1
 72
     2
176
     1
 73
     0
176
     1
 90
        0
176
     1
 40
-0.6
176
     1
 41
-30.0
176
     1
 62
     5
 63
     7
421
 16777215
176
     1
 74
     2
176
     1
 91
        2
176
     1
 64
     7
176
     1
 65
   257
176
     1
 75
     1
176
     1
175
     1
176
     1
 42
40.0
176
     1
 92
        8
176
     1
 66
     7
176
     1
 43
1.0
176
     1
 76
     1
176
     1
 77
     6
176
     1
 78
     2
176
     1
 67
     7
176
     1
 79
     3
176
     1
170
     0
176
     1
171
     0
176
     1
290
     0
176
     1
 93
        1
176
     1
 44
0.0
176
     1
173
     0
176
     1
  0
VISUALSTYLE
  5
35
102
{ACAD_REACTORS
330
2A
102
}
330
2A
100
AcDbVisualStyle
  2
Dim
 70
    11
177
     2
291
     1
 71
     2
176
     1
 72
     2
176
     1
 73
     0
176
     1
 90
        0
176
     1
 40
-0.6
176
     1
 41
-30.0
176
     1
 62
     5
 63
     7
421
 16777215
176
     1
 74
     1
176
     1
 91
        4
176
     1
 64
     7
176
     1
 65
   257
176
     1
 75
     1
176
     1
175
     1
176
     1
 42
1.0
176
     1
 92
        8
176
     1
 66
     7
176
     1
 43
1.0
176
     1
 76
     1
176
     1
 77
     6
176
     1
 78
     2
176
     1
 67
     7
176
     1
 79
     5
176
     1
170
     0
176
     1
171
     0
176
     1
290
     0
176
     1
 93
        1
176
     1
 44
-50.0
176
     1
173
     0
176
     1
  0
VISUALSTYLE
  5
39
102
{ACAD_REACTORS
330
2A
102
}
330
2A
100
AcDbVisualStyle
  2
Facepattern
 70
    15
177
     2
291
     1
 71
     2
176
     1
 72
     2
176
     1
 73
     0
176
     1
 90
        0
176
     1
 40
-0.6
176
     1
 41
-30.0
176
     1
 62
     5
 63
     7
421
 16777215
176
     1
 74
     1
176
     1
 91
        4
176
     1
 64
     7
176
     1
 65
   257
176
     1
 75
     1
176
     1
175
     1
176
     1
 42
1.0
176
     1
 92
        8
176
     1
 66
     7
176
     1
 43
1.0
176
     1
 76
     1
176
     1
 77
     6
176
     1
 78
     2
176
     1
 67
     7
176
     1
 79
     5
176
     1
170
     0
176
     1
171
     0
176
     1
290
     0
176
     1
 93
        1
176
     1
 44
0.0
176
     1
173
     0
176
     1
  0
VISUALSTYLE
  5
2B
102
{ACAD_REACTORS
330
2A
102
}
330
2A
100
AcDbVisualStyle
  2
Flat
 70
     0
177
     2
291
     1
 71
     2
176
     1
 72
     1
176
     1
 73
     1
176
     1
 90
        2
176
     1
 40
-0.6
176
     1
 41
30.0
176
     1
 62
     5
 63
     7
421
 16777215
176
     1
 74
     0
176
     1
 91
        4
176
     1
 64
     7
176
     1
 65
   257
176
     1
 75
     1
176
     1
175
     1
176
     1
 42
1.0
176
     1
 92
        8
176
     1
 66
     7
176
     1
 43
1.0
176
     1
 76
     1
176
     1
 77
     6
176
     1
 78
     2
176
     1
 67
     7
176
     1
 79
     5
176
     1
170
     0
176
     1
171
     0
176
     1
290
     0
176
     1
 93
       13
176
     1
 44
0.0
176
     1
173
     0
176
     1
  0
VISUALSTYLE
  5
2C
102
{ACAD_REACTORS
330
2A
102
}
330
2A
100
AcDbVisualStyle
  2
FlatWithEdges
 70
     1
177
     2
291
     1
 71
     2
176
     1
 72
     1
176
     1
 73
     1
176
     1
 90
        2
176
     1
 40
-0.6
176
     1
 41
30.0
176
     1
 62
     5
 63
     7
421
 16777215
176
     1
 74
     1
176
     1
 91
        4
176
     1
 64
     7
176
     1
 65
   257
176
     1
 75
     1
176
     1
175
     1
176
     1
 42
1.0
176
     1
 92
        0
176
     1
 66
   257
176
     1
 43
1.0
176
     1
 76
     1
176
     1
 77
     6
176
     1
 78
     2
176
     1
 67
     7
176
     1
 79
     5
176
     1
170
     0
176
     1
171
     0
176
     1
290
     0
176
     1
 93
       13
176
     1
 44
0.0
176
     1
173
     0
176
     1
  0
VISUALSTYLE
  5
2D
102
{ACAD_REACTORS
330
2A
102
}
330
2A
100
AcDbVisualStyle
  2
Gouraud
 70
     2
177
     2
291
     1
 71
     2
176
     1
 72
     2
176
     1
 73
     1
176
     1
 90
        2
176
     1
 40
-0.6
176
     1
 41
30.0
176
     1
 62
     5
 63
     7
421
 16777215
176
     1
 74
     0
176
     1
 91
        4
176
     1
 64
     7
176
     1
 65
   257
176
     1
 75
     1
176
     1
175
     1
176
     1
 42
1.0
176
     1
 92
        0
176
     1
 66
     7
176
     1
 43
1.0
176
     1
 76
     1
176
     1
 77
     6
176
     1
 78
     2
176
     1
 67
     7
176
     1
 79
     5
176
     1
170
     0
176
     1
171
     0
176
     1
290
     0
176
     1
 93
       13
176
     1
 44
0.0
176
     1
173
     0
176
     1
  0
VISUALSTYLE
  5
2E
102
{ACAD_REACTORS
330
2A
102
}
330
2A
100
AcDbVisualStyle
  2
GouraudWithEdges
 70
     3
177
     2
291
     1
 71
     2
176
     1
 72
     2
176
     1
 73
     1
176
     1
 90
        2
176
     1
 40
-0.6
176
     1
 41
30.0
176
     1
 62
     5
 63
     7
421
 16777215
176
     1
 74
     1
176
     1
 91
        4
176
     1
 64
     7
176
     1
 65
   257
176
     1
 75
     1
176
     1
175
     1
176
     1
 42
1.0
176
     1
 92
        0
176
     1
 66
   257
176
     1
 43
1.0
176
     1
 76
     1
176
     1
 77
     6
176
     1
 78
     2
176
     1
 67
     7
176
     1
 79
     5
176
     1
170
     0
176
     1
171
     0
176
     1
290
     0
176
     1
 93
       13
176
     1
 44
0.0
176
     1
173
     0
176
     1
  0
VISUALSTYLE
  5
38
102
{ACAD_REACTORS
330
2A
102
}
330
2A
100
AcDbVisualStyle
  2
Linepattern
 70
    14
177
     2
291
     1
 71
     2
176
     1
 72
     2
176
     1
 73
     0
176
     1
 90
        0
176
     1
 40
-0.6
176
     1
 41
-30.0
176
     1
 62
     5
 63
     7
421
 16777215
176
     1
 74
     1
176
     1
 91
        4
176
     1
 64
     7
176
     1
 65
   257
176
     1
 75
     7
176
     1
175
     7
176
     1
 42
1.0
176
     1
 92
        8
176
     1
 66
     7
176
     1
 43
1.0
176
     1
 76
     1
176
     1
 77
     6
176
     1
 78
     2
176
     1
 67
     7
176
     1
 79
     5
176
     1
170
     0
176
     1
171
     0
176
     1
290
     0
176
     1
 93
        1
176
     1
 44
0.0
176
     1
173
     0
176
     1
  0
VISUALSTYLE
  5
33
102
{ACAD_REACTORS
330
2A
102
}
330
2A
100
AcDbVisualStyle
  2
Realistic
 70
     8
177
     2
291
     0
 71
     2
176
     1
 72
     2
176
     1
 73
     0
176
     1
 90
        0
176
     1
 40
-0.6
176
     1
 41
-30.0
176
     1
 62
     5
 63
     7
421
 16777215
176
     1
 74
     1
176
     1
 91
        0
176
     1
 64
     7
176
     1
 65
   257
176
     1
 75
     1
176
     1
175
     1
176
     1
 42
1.0
176
     1
 92
        8
176
     1
 66
     8
424
  7895160
176
     1
 43
1.0
176
     1
 76
     1
176
     1
 77
     6
176
     1
 78
     2
176
     1
 67
     7
176
     1
 79
     5
176
     1
170
     0
176
     1
171
     0
176
     1
290
     0
176
     1
 93
       13
176
     1
 44
0.0
176
     1
173
     0
176
     1
  0
VISUALSTYLE
  5
37
102
{ACAD_REACTORS
330
2A
102
}
330
2A
100
AcDbVisualStyle
  2
Thicken
 70
    13
177
     2
291
     1
 71
     2
176
     1
 72
     2
176
     1
 73
     0
176
     1
 90
        0
176
     1
 40
-0.6
176
     1
 41
-30.0
176
     1
 62
     5
 63
     7
421
 16777215
176
     1
 74
     1
176
     1
 91
        4
176
     1
 64
     7
176
     1
 65
   257
176
     1
 75
     1
176
     1
175
     1
176
     1
 42
1.0
176
     1
 92
       12
176
     1
 66
     7
176
     1
 43
1.0
176
     1
 76
     1
176
     1
 77
     6
176
     1
 78
     2
176
     1
 67
     7
176
     1
 79
     5
176
     1
170
     0
176
     1
171
     0
176
     1
290
     0
176
     1
 93
        1
176
     1
 44
0.0
176
     1
173
     0
176
     1
  0
ENDSEC
  0
EOF
