  0
SECTION
  2
HEADER
  9
$ACADVER
  1
AC1024
  9
$ACADMAINTVER
 70
     6
  9
$DWGCODEPAGE
  3
ANSI_1252
  9
$COMMENTS
  1
File was created by ARCHline.XP2011
  9
$INSBASE
 10
0.0
 20
0.0
 30
0.0
  9
$EXTMIN
 10
-0.0000000000001705
 20
0.0
 30
0.0
  9
$EXTMAX
 10
297.0
 20
210.0
 30
0.0
  9
$LIMMIN
 10
0.0
 20
0.0
  9
$LIMMAX
 10
12.0
 20
9.0
  9
$ORTHOMODE
 70
     0
  9
$REGENMODE
 70
     1
  9
$FILLMODE
 70
     1
  9
$QTEXTMODE
 70
     0
  9
$MIRRTEXT
 70
     1
  9
$LTSCALE
 40
1.0
  9
$ATTMODE
 70
     1
  9
$TEXTSIZE
 40
0.2
  9
$TRACEWID
 40
0.05
  9
$TEXTSTYLE
  7
Standard
  9
$CLAYER
  8
0
  9
$CELTYPE
  6
ByLayer
  9
$CECOLOR
 62
   256
  9
$CELTSCALE
 40
1.0
  9
$DISPSILH
 70
     0
  9
$DIMSCALE
 40
1.0
  9
$DIMASZ
 40
0.18
  9
$DIMEXO
 40
0.0625
  9
$DIMDLI
 40
0.38
  9
$DIMRND
 40
0.0
  9
$DIMDLE
 40
0.0
  9
$DIMEXE
 40
0.18
  9
$DIMTP
 40
0.0
  9
$DIMTM
 40
0.0
  9
$DIMTXT
 40
0.18
  9
$DIMCEN
 40
0.09
  9
$DIMTSZ
 40
0.0
  9
$DIMTOL
 70
     0
  9
$DIMLIM
 70
     0
  9
$DIMTIH
 70
     1
  9
$DIMTOH
 70
     1
  9
$DIMSE1
 70
     0
  9
$DIMSE2
 70
     0
  9
$DIMTAD
 70
     0
  9
$DIMZIN
 70
     0
  9
$DIMBLK
  1

  9
$DIMASO
 70
     1
  9
$DIMSHO
 70
     1
  9
$DIMPOST
  1

  9
$DIMAPOST
  1

  9
$DIMALT
 70
     0
  9
$DIMALTD
 70
     2
  9
$DIMALTF
 40
25.4
  9
$DIMLFAC
 40
1.0
  9
$DIMTOFL
 70
     0
  9
$DIMTVP
 40
0.0
  9
$DIMTIX
 70
     0
  9
$DIMSOXD
 70
     0
  9
$DIMSAH
 70
     0
  9
$DIMBLK1
  1

  9
$DIMBLK2
  1

  9
$DIMSTYLE
  2
Standard
  9
$DIMCLRD
 70
     0
  9
$DIMCLRE
 70
     0
  9
$DIMCLRT
 70
     0
  9
$DIMTFAC
 40
1.0
  9
$DIMGAP
 40
0.09
  9
$DIMJUST
 70
     0
  9
$DIMSD1
 70
     0
  9
$DIMSD2
 70
     0
  9
$DIMTOLJ
 70
     1
  9
$DIMTZIN
 70
     0
  9
$DIMALTZ
 70
     0
  9
$DIMALTTZ
 70
     0
  9
$DIMUPT
 70
     0
  9
$DIMDEC
 70
     4
  9
$DIMTDEC
 70
     4
  9
$DIMALTU
 70
     2
  9
$DIMALTTD
 70
     2
  9
$DIMTXSTY
  7
Standard
  9
$DIMAUNIT
 70
     0
  9
$DIMADEC
 70
     0
  9
$DIMALTRND
 40
0.0
  9
$DIMAZIN
 70
     0
  9
$DIMDSEP
 70
    46
  9
$DIMATFIT
 70
     3
  9
$DIMFRAC
 70
     0
  9
$DIMLDRBLK
  1

  9
$DIMLUNIT
 70
     2
  9
$DIMLWD
 70
    -2
  9
$DIMLWE
 70
    -2
  9
$DIMTMOVE
 70
     0
  9
$DIMFXL
 40
1.0
  9
$DIMFXLON
 70
     0
  9
$DIMJOGANG
 40
0.7853981633974483
  9
$DIMTFILL
 70
     0
  9
$DIMTFILLCLR
 70
     0
  9
$DIMARCSYM
 70
     0
  9
$DIMLTYPE
  6

  9
$DIMLTEX1
  6

  9
$DIMLTEX2
  6

  9
$DIMTXTDIRECTION
 70
     0
  9
$LUNITS
 70
     2
  9
$LUPREC
 70
     4
  9
$SKETCHINC
 40
0.1
  9
$FILLETRAD
 40
0.5
  9
$AUNITS
 70
     0
  9
$AUPREC
 70
     0
  9
$MENU
  1
.
  9
$ELEVATION
 40
0.0
  9
$PELEVATION
 40
0.0
  9
$THICKNESS
 40
0.0
  9
$LIMCHECK
 70
     0
  9
$CHAMFERA
 40
0.5
  9
$CHAMFERB
 40
0.5
  9
$CHAMFERC
 40
1.0
  9
$CHAMFERD
 40
0.0
  9
$SKPOLY
 70
     0
  9
$TDCREATE
 40
2457528.44693397
  9
$TDUCREATE
 40
2457528.363600636
  9
$TDUPDATE
 40
2457528.4469375
  9
$TDUUPDATE
 40
2457528.363604167
  9
$TDINDWG
 40
0.0000000116
  9
$TDUSRTIMER
 40
0.0000000116
  9
$USRTIMER
 70
     1
  9
$ANGBASE
 50
0.0
  9
$ANGDIR
 70
     0
  9
$PDMODE
 70
     0
  9
$PDSIZE
 40
0.0
  9
$PLINEWID
 40
0.0
  9
$SPLFRAME
 70
     0
  9
$SPLINETYPE
 70
     6
  9
$SPLINESEGS
 70
     8
  9
$HANDSEED
  5
33F
  9
$SURFTAB1
 70
     6
  9
$SURFTAB2
 70
     6
  9
$SURFTYPE
 70
     6
  9
$SURFU
 70
     6
  9
$SURFV
 70
     6
  9
$UCSBASE
  2

  9
$UCSNAME
  2

  9
$UCSORG
 10
0.0
 20
0.0
 30
0.0
  9
$UCSXDIR
 10
1.0
 20
0.0
 30
0.0
  9
$UCSYDIR
 10
0.0
 20
1.0
 30
0.0
  9
$UCSORTHOREF
  2

  9
$UCSORTHOVIEW
 70
     0
  9
$UCSORGTOP
 10
0.0
 20
0.0
 30
0.0
  9
$UCSORGBOTTOM
 10
0.0
 20
0.0
 30
0.0
  9
$UCSORGLEFT
 10
0.0
 20
0.0
 30
0.0
  9
$UCSORGRIGHT
 10
0.0
 20
0.0
 30
0.0
  9
$UCSORGFRONT
 10
0.0
 20
0.0
 30
0.0
  9
$UCSORGBACK
 10
0.0
 20
0.0
 30
0.0
  9
$PUCSBASE
  2

  9
$PUCSNAME
  2

  9
$PUCSORG
 10
0.0
 20
0.0
 30
0.0
  9
$PUCSXDIR
 10
1.0
 20
0.0
 30
0.0
  9
$PUCSYDIR
 10
0.0
 20
1.0
 30
0.0
  9
$PUCSORTHOREF
  2

  9
$PUCSORTHOVIEW
 70
     0
  9
$PUCSORGTOP
 10
0.0
 20
0.0
 30
0.0
  9
$PUCSORGBOTTOM
 10
0.0
 20
0.0
 30
0.0
  9
$PUCSORGLEFT
 10
0.0
 20
0.0
 30
0.0
  9
$PUCSORGRIGHT
 10
0.0
 20
0.0
 30
0.0
  9
$PUCSORGFRONT
 10
0.0
 20
0.0
 30
0.0
  9
$PUCSORGBACK
 10
0.0
 20
0.0
 30
0.0
  9
$USERI1
 70
     0
  9
$USERI2
 70
     0
  9
$USERI3
 70
     0
  9
$USERI4
 70
     0
  9
$USERI5
 70
     0
  9
$USERR1
 40
0.0
  9
$USERR2
 40
0.0
  9
$USERR3
 40
0.0
  9
$USERR4
 40
0.0
  9
$USERR5
 40
0.0
  9
$WORLDVIEW
 70
     1
  9
$SHADEDGE
 70
     3
  9
$SHADEDIF
 70
    70
  9
$TILEMODE
 70
     1
  9
$MAXACTVP
 70
    64
  9
$PINSBASE
 10
0.0
 20
0.0
 30
0.0
  9
$PLIMCHECK
 70
     0
  9
$PEXTMIN
 10
1.000000000000000E+20
 20
1.000000000000000E+20
 30
1.000000000000000E+20
  9
$PEXTMAX
 10
-1.000000000000000E+20
 20
-1.000000000000000E+20
 30
-1.000000000000000E+20
  9
$PLIMMIN
 10
0.0
 20
0.0
  9
$PLIMMAX
 10
12.0
 20
9.0
  9
$UNITMODE
 70
     0
  9
$VISRETAIN
 70
     1
  9
$PLINEGEN
 70
     0
  9
$PSLTSCALE
 70
     1
  9
$TREEDEPTH
 70
  3020
  9
$CMLSTYLE
  2
Standard
  9
$CMLJUST
 70
     0
  9
$CMLSCALE
 40
1.0
  9
$PROXYGRAPHICS
 70
     1
  9
$MEASUREMENT
 70
     0
  9
$CELWEIGHT
370
    -1
  9
$ENDCAPS
280
     0
  9
$JOINSTYLE
280
     0
  9
$LWDISPLAY
290
     0
  9
$INSUNITS
 70
     1
  9
$HYPERLINKBASE
  1

  9
$STYLESHEET
  1

  9
$XEDIT
290
     1
  9
$CEPSNTYPE
380
     0
  9
$PSTYLEMODE
290
     1
  9
$FINGERPRINTGUID
  2
{E7BDB606-9168-4C6A-A392-62965724700E}
  9
$VERSIONGUID
  2
{FAEB1C32-E019-11D5-929B-00C0DF256EC4}
  9
$EXTNAMES
290
     1
  9
$PSVPSCALE
 40
0.0
  9
$OLESTARTUP
290
     0
  9
$SORTENTS
280
   127
  9
$INDEXCTL
280
     0
  9
$HIDETEXT
280
     1
  9
$XCLIPFRAME
280
     2
  9
$HALOGAP
280
     0
  9
$OBSCOLOR
 70
   257
  9
$OBSLTYPE
280
     0
  9
$INTERSECTIONDISPLAY
280
     0
  9
$INTERSECTIONCOLOR
 70
   257
  9
$DIMASSOC
280
     2
  9
$PROJECTNAME
  1

  9
$CAMERADISPLAY
290
     0
  9
$LENSLENGTH
 40
50.0
  9
$CAMERAHEIGHT
 40
0.0
  9
$STEPSPERSEC
 40
2.0
  9
$STEPSIZE
 40
6.0
  9
$3DDWFPREC
 40
2.0
  9
$PSOLWIDTH
 40
0.25
  9
$PSOLHEIGHT
 40
4.0
  9
$LOFTANG1
 40
1.570796326794897
  9
$LOFTANG2
 40
1.570796326794897
  9
$LOFTMAG1
 40
0.0
  9
$LOFTMAG2
 40
0.0
  9
$LOFTPARAM
 70
     7
  9
$LOFTNORMALS
280
     1
  9
$LATITUDE
 40
37.795
  9
$LONGITUDE
 40
-122.394
  9
$NORTHDIRECTION
 40
0.0
  9
$TIMEZONE
 70
 -8000
  9
$LIGHTGLYPHDISPLAY
280
     1
  9
$TILEMODELIGHTSYNCH
280
     1
  9
$SOLIDHIST
280
     1
  9
$SHOWHIST
280
     1
  9
$DWFFRAME
280
     2
  9
$DGNFRAME
280
     2
  9
$REALWORLDSCALE
290
     1
  9
$INTERFERECOLOR
 62
   256
  9
$CSHADOW
280
     0
  9
$SHADOWPLANELOCATION
 40
0.0
  0
ENDSEC
  0
SECTION
  2
CLASSES
  0
CLASS
  1
ACDBDICTIONARYWDFLT
  2
AcDbDictionaryWithDefault
  3
ObjectDBX Classes
 90
        0
 91
        4
280
     0
281
     0
  0
CLASS
  1
VISUALSTYLE
  2
AcDbVisualStyle
  3
ObjectDBX Classes
 90
     4095
 91
        4
280
     0
281
     0
  0
CLASS
  1
MATERIAL
  2
AcDbMaterial
  3
ObjectDBX Classes
 90
     1153
 91
        4
280
     0
281
     0
  0
CLASS
  1
IMAGEDEF
  2
AcDbRasterImageDef
  3
ISM
 90
        0
 91
        4
280
     0
281
     0
  0
CLASS
  1
IMAGE
  2
AcDbRasterImage
  3
ISM
 90
      127
 91
        5
280
     0
281
     1
  0
CLASS
  1
IMAGEDEF_REACTOR
  2
AcDbRasterImageDefReactor
  3
ISM
 90
        1
 91
        4
280
     0
281
     0
  0
ENDSEC
  0
SECTION
  2
TABLES
  0
TABLE
  2
VPORT
  5
8
330
0
100
AcDbSymbolTable
 70
     1
  0
VPORT
  5
29
330
8
100
AcDbSymbolTableRecord
100
AcDbViewportTableRecord
  2
*Active
 70
     0
 10
0.0
 20
0.0
 11
1.0
 21
1.0
 12
10.42990654205607
 22
4.5
 13
0.0
 23
0.0
 14
0.5
 24
0.5
 15
0.5
 25
0.5
 16
0.0
 26
0.0
 36
1.0
 17
0.0
 27
0.0
 37
0.0
 40
9.0
 41
1.972972972850329
 42
50.0
 43
0.0
 44
0.0
 50
0.0
 51
0.0
 71
     0
 72
   100
 73
     1
 74
     3
 75
     0
 76
     0
 77
     0
 78
     0
281
     0
 65
     1
110
0.0
120
0.0
130
0.0
111
1.0
121
0.0
131
0.0
112
0.0
122
1.0
132
0.0
 79
     0
146
0.0
 60
     3
 61
     5
292
     1
282
     1
141
0.0
142
0.0
 63
   250
  0
ENDTAB
  0
TABLE
  2
LTYPE
  5
5
330
0
100
AcDbSymbolTable
 70
    92
  0
LTYPE
  5
14
330
5
100
AcDbSymbolTableRecord
100
AcDbLinetypeTableRecord
  2
ByBlock
 70
     0
  3

 72
    65
 73
     0
 40
0.0
  0
LTYPE
  5
15
330
5
100
AcDbSymbolTableRecord
100
AcDbLinetypeTableRecord
  2
ByLayer
 70
     0
  3

 72
    65
 73
     0
 40
0.0
  0
LTYPE
  5
16
330
5
100
AcDbSymbolTableRecord
100
AcDbLinetypeTableRecord
  2
Continuous
 70
     0
  3
Solid line
 72
    65
 73
     0
 40
0.0
  0
LTYPE
  5
3F
330
5
100
AcDbSymbolTableRecord
100
AcDbLinetypeTableRecord
  2
HIDDEN
 70
     0
  3
_ _ _ _ _ _ _ _ _ _ _ _ _ _ _ _ _ _ _ _ _ _ _
 72
    65
 73
     2
 40
0.375
 49
0.25
 74
     0
 49
-0.125
 74
     0
  0
LTYPE
  5
40
330
5
100
AcDbSymbolTableRecord
100
AcDbLinetypeTableRecord
  2
CENTER
 70
     0
  3
____ _ ____ _ ____ _ ____ _ ____ _ ____ _ ____
 72
    65
 73
     4
 40
2.0
 49
1.25
 74
     0
 49
-0.25
 74
     0
 49
0.25
 74
     0
 49
-0.25
 74
     0
  0
LTYPE
  5
41
330
5
100
AcDbSymbolTableRecord
100
AcDbLinetypeTableRecord
  2
DASHED
 70
     0
  3
__ __ __ __ __ __ __ __ __ __ __ __ __ __ __
 72
    65
 73
     2
 40
1.5
 49
1.25
 74
     0
 49
-0.25
 74
     0
  0
LTYPE
  5
42
330
5
100
AcDbSymbolTableRecord
100
AcDbLinetypeTableRecord
  2
Gepunktete
 70
     0
  3

 72
    65
 73
     2
 40
1.560000061988831
 49
0.3600000143051147
 74
     0
 49
-1.200000047683716
 74
     0
  0
LTYPE
  5
43
330
5
100
AcDbSymbolTableRecord
100
AcDbLinetypeTableRecord
  2
Strichpunktierte
 70
     0
  3

 72
    65
 73
     4
 40
4.920000046491623
 49
3.0
 74
     0
 49
-0.7200000286102295
 74
     0
 49
0.4799999892711639
 74
     0
 49
-0.7200000286102295
 74
     0
  0
LTYPE
  5
44
330
5
100
AcDbSymbolTableRecord
100
AcDbLinetypeTableRecord
  2
Strichellinie
 70
     0
  3

 72
    65
 73
     2
 40
2.399999976158142
 49
1.799999952316284
 74
     0
 49
-0.6000000238418579
 74
     0
  0
LTYPE
  5
45
330
5
100
AcDbSymbolTableRecord
100
AcDbLinetypeTableRecord
  2
2Punkt
 70
     0
  3

 72
    65
 73
     6
 40
6.120000123977661
 49
3.0
 74
     0
 49
-0.7200000286102295
 74
     0
 49
0.4800000190734863
 74
     0
 49
-0.7200000286102295
 74
     0
 49
0.4800000190734863
 74
     0
 49
-0.7200000286102295
 74
     0
  0
LTYPE
  5
46
330
5
100
AcDbSymbolTableRecord
100
AcDbLinetypeTableRecord
  2
2Punkt-2Abstand
 70
     0
  3

 72
    65
 73
     6
 40
8.28000020980835
 49
3.0
 74
     0
 49
-1.440000057220459
 74
     0
 49
0.4800000190734863
 74
     0
 49
-1.440000057220459
 74
     0
 49
0.4800000190734863
 74
     0
 49
-1.440000057220459
 74
     0
  0
LTYPE
  5
47
330
5
100
AcDbSymbolTableRecord
100
AcDbLinetypeTableRecord
  2
2Punkt-3Abstand
 70
     0
  3

 72
    65
 73
     6
 40
11.26800036430359
 49
3.0
 74
     0
 49
-2.436000108718872
 74
     0
 49
0.4800000190734863
 74
     0
 49
-2.436000108718872
 74
     0
 49
0.4800000190734863
 74
     0
 49
-2.436000108718872
 74
     0
  0
LTYPE
  5
48
330
5
100
AcDbSymbolTableRecord
100
AcDbLinetypeTableRecord
  2
Gepunktete Var.2
 70
     0
  3

 72
    65
 73
     2
 40
3.120000004768372
 49
0.3600000143051147
 74
     0
 49
-2.759999990463257
 74
     0
  0
LTYPE
  5
49
330
5
100
AcDbSymbolTableRecord
100
AcDbLinetypeTableRecord
  2
Gepunktete Var.3
 70
     0
  3

 72
    65
 73
     2
 40
4.679999709129333
 49
0.3600000143051147
 74
     0
 49
-4.319999694824219
 74
     0
  0
LTYPE
  5
4A
330
5
100
AcDbSymbolTableRecord
100
AcDbLinetypeTableRecord
  2
Gepunktete Var.4
 70
     0
  3

 72
    65
 73
     4
 40
4.319999814033508
 49
0.3600000143051147
 74
     0
 49
-1.199999928474426
 74
     0
 49
0.3600000143051147
 74
     0
 49
-2.399999856948853
 74
     0
  0
LTYPE
  5
4B
330
5
100
AcDbSymbolTableRecord
100
AcDbLinetypeTableRecord
  2
Gepunktete Var.5
 70
     0
  3

 72
    65
 73
     4
 40
4.319999814033508
 49
0.3600000143051147
 74
     0
 49
-1.199999928474426
 74
     0
 49
0.3600000143051147
 74
     0
 49
-2.399999856948853
 74
     0
  0
LTYPE
  5
4C
330
5
100
AcDbSymbolTableRecord
100
AcDbLinetypeTableRecord
  2
Gepunktete Var.6
 70
     0
  3

 72
    65
 73
     6
 40
7.079999685287476
 49
0.3600000143051147
 74
     0
 49
-1.199999928474426
 74
     0
 49
0.3600000143051147
 74
     0
 49
-2.399999856948853
 74
     0
 49
0.3600000143051147
 74
     0
 49
-2.399999856948853
 74
     0
  0
LTYPE
  5
4D
330
5
100
AcDbSymbolTableRecord
100
AcDbLinetypeTableRecord
  2
Strichlierte Var.2
 70
     0
  3

 72
    65
 73
     2
 40
3.599999904632568
 49
1.799999952316284
 74
     0
 49
-1.799999952316284
 74
     0
  0
LTYPE
  5
4E
330
5
100
AcDbSymbolTableRecord
100
AcDbLinetypeTableRecord
  2
Strichlierte Var.3
 70
     0
  3

 72
    65
 73
     2
 40
5.399999856948853
 49
1.799999952316284
 74
     0
 49
-3.599999904632568
 74
     0
  0
LTYPE
  5
4F
330
5
100
AcDbSymbolTableRecord
100
AcDbLinetypeTableRecord
  2
Strichlierte Var.4
 70
     0
  3

 72
    65
 73
     2
 40
4.199999868869781
 49
3.599999904632568
 74
     0
 49
-0.5999999642372131
 74
     0
  0
LTYPE
  5
50
330
5
100
AcDbSymbolTableRecord
100
AcDbLinetypeTableRecord
  2
Strichlierte Var.5
 70
     0
  3

 72
    65
 73
     2
 40
5.399999856948853
 49
3.599999904632568
 74
     0
 49
-1.799999952316284
 74
     0
  0
LTYPE
  5
51
330
5
100
AcDbSymbolTableRecord
100
AcDbLinetypeTableRecord
  2
Strichlierte Var.6
 70
     0
  3

 72
    65
 73
     2
 40
7.199999809265137
 49
3.599999904632568
 74
     0
 49
-3.599999904632568
 74
     0
  0
LTYPE
  5
52
330
5
100
AcDbSymbolTableRecord
100
AcDbLinetypeTableRecord
  2
Strich-2Abstand
 70
     0
  3

 72
    65
 73
     4
 40
8.999999761581421
 49
1.799999952316284
 74
     0
 49
-1.799999952316284
 74
     0
 49
3.599999904632568
 74
     0
 49
-1.799999952316284
 74
     0
  0
LTYPE
  5
53
330
5
100
AcDbSymbolTableRecord
100
AcDbLinetypeTableRecord
  2
Strich-3Abstand
 70
     0
  3

 72
    65
 73
     6
 40
7.919999837875366
 49
0.3600000143051147
 74
     0
 49
-1.799999952316284
 74
     0
 49
0.3600000143051147
 74
     0
 49
-1.799999952316284
 74
     0
 49
1.799999952316284
 74
     0
 49
-1.799999952316284
 74
     0
  0
LTYPE
  5
54
330
5
100
AcDbSymbolTableRecord
100
AcDbLinetypeTableRecord
  2
Strich-4Abstand
 70
     0
  3

 72
    65
 73
     6
 40
9.359999775886536
 49
1.799999952316284
 74
     0
 49
-1.799999952316284
 74
     0
 49
1.799999952316284
 74
     0
 49
-1.799999952316284
 74
     0
 49
0.3600000143051147
 74
     0
 49
-1.799999952316284
 74
     0
  0
LTYPE
  5
55
330
5
100
AcDbSymbolTableRecord
100
AcDbLinetypeTableRecord
  2
Punktlinie
 70
     0
  3

 72
    65
 73
     6
 40
20.10000000149012
 49
0.0500000007450581
 74
     0
 49
-0.0500000007450581
 74
     0
 49
5.0
 74
     0
 49
-5.0
 74
     0
 49
5.0
 74
     0
 49
-5.0
 74
     0
  0
LTYPE
  5
56
330
5
100
AcDbSymbolTableRecord
100
AcDbLinetypeTableRecord
  2
Punkt-Strichlinie
 70
     0
  3

 72
    65
 73
     6
 40
3.550000000745058
 49
1.0
 74
     0
 49
-0.5
 74
     0
 49
1.0
 74
     0
 49
-0.5
 74
     0
 49
0.0500000007450581
 74
     0
 49
-0.5
 74
     0
  0
LTYPE
  5
57
330
5
100
AcDbSymbolTableRecord
100
AcDbLinetypeTableRecord
  2
Doppelpunkt-Strichlinie
 70
     0
  3

 72
    65
 73
     6
 40
1.350000001490116
 49
0.5
 74
     0
 49
-0.25
 74
     0
 49
0.0500000007450581
 74
     0
 49
-0.25
 74
     0
 49
0.0500000007450581
 74
     0
 49
-0.25
 74
     0
  0
LTYPE
  5
58
330
5
100
AcDbSymbolTableRecord
100
AcDbLinetypeTableRecord
  2
Eigene Linie 27
 70
     0
  3

 72
    65
 73
     6
 40
2.600000001490116
 49
1.0
 74
     0
 49
-0.5
 74
     0
 49
0.0500000007450581
 74
     0
 49
-0.5
 74
     0
 49
0.0500000007450581
 74
     0
 49
-0.5
 74
     0
  0
LTYPE
  5
59
330
5
100
AcDbSymbolTableRecord
100
AcDbLinetypeTableRecord
  2
Eigene Linie 28
 70
     0
  3

 72
    65
 73
     6
 40
1.800000000745058
 49
0.5
 74
     0
 49
-0.25
 74
     0
 49
0.5
 74
     0
 49
-0.25
 74
     0
 49
0.0500000007450581
 74
     0
 49
-0.25
 74
     0
  0
LTYPE
  5
5A
330
5
100
AcDbSymbolTableRecord
100
AcDbLinetypeTableRecord
  2
Eigene Linie 29
 70
     0
  3

 72
    65
 73
     6
 40
0.9250000007450581
 49
0.25
 74
     0
 49
-0.125
 74
     0
 49
0.25
 74
     0
 49
-0.125
 74
     0
 49
0.0500000007450581
 74
     0
 49
-0.125
 74
     0
  0
LTYPE
  5
5B
330
5
100
AcDbSymbolTableRecord
100
AcDbLinetypeTableRecord
  2
Eigene Linie 30
 70
     0
  3

 72
    65
 73
     2
 40
0.3000000007450581
 49
0.0500000007450581
 74
     0
 49
-0.25
 74
     0
  0
LTYPE
  5
5C
330
5
100
AcDbSymbolTableRecord
100
AcDbLinetypeTableRecord
  2
Eigene Linie 31
 70
     0
  3

 72
    65
 73
     2
 40
0.1750000007450581
 49
0.0500000007450581
 74
     0
 49
-0.125
 74
     0
  0
LTYPE
  5
5D
330
5
100
AcDbSymbolTableRecord
100
AcDbLinetypeTableRecord
  2
Eigene Linie 32
 70
     0
  3

 72
    65
 73
     2
 40
0.5500000007450581
 49
0.0500000007450581
 74
     0
 49
-0.5
 74
     0
  0
LTYPE
  5
5E
330
5
100
AcDbSymbolTableRecord
100
AcDbLinetypeTableRecord
  2
Eigene Linie 33
 70
     0
  3

 72
    65
 73
     4
 40
1.050000000745058
 49
0.5
 74
     0
 49
-0.25
 74
     0
 49
0.0500000007450581
 74
     0
 49
-0.25
 74
     0
  0
LTYPE
  5
5F
330
5
100
AcDbSymbolTableRecord
100
AcDbLinetypeTableRecord
  2
Eigene Linie 34
 70
     0
  3

 72
    65
 73
     4
 40
0.5500000007450581
 49
0.25
 74
     0
 49
-0.125
 74
     0
 49
0.0500000007450581
 74
     0
 49
-0.125
 74
     0
  0
LTYPE
  5
60
330
5
100
AcDbSymbolTableRecord
100
AcDbLinetypeTableRecord
  2
Eigene Linie 35
 70
     0
  3

 72
    65
 73
     4
 40
2.050000000745058
 49
1.0
 74
     0
 49
-0.5
 74
     0
 49
0.0500000007450581
 74
     0
 49
-0.5
 74
     0
  0
LTYPE
  5
61
330
5
100
AcDbSymbolTableRecord
100
AcDbLinetypeTableRecord
  2
Eigene Linie 36
 70
     0
  3

 72
    65
 73
     2
 40
0.75
 49
0.5
 74
     0
 49
-0.25
 74
     0
  0
LTYPE
  5
62
330
5
100
AcDbSymbolTableRecord
100
AcDbLinetypeTableRecord
  2
Eigene Linie 37
 70
     0
  3

 72
    65
 73
     2
 40
0.375
 49
0.25
 74
     0
 49
-0.125
 74
     0
  0
LTYPE
  5
63
330
5
100
AcDbSymbolTableRecord
100
AcDbLinetypeTableRecord
  2
Eigene Linie 38
 70
     0
  3

 72
    65
 73
     2
 40
1.5
 49
1.0
 74
     0
 49
-0.5
 74
     0
  0
LTYPE
  5
64
330
5
100
AcDbSymbolTableRecord
100
AcDbLinetypeTableRecord
  2
Eigene Linie 39
 70
     0
  3

 72
    65
 73
     6
 40
2.5
 49
1.25
 74
     0
 49
-0.25
 74
     0
 49
0.25
 74
     0
 49
-0.25
 74
     0
 49
0.25
 74
     0
 49
-0.25
 74
     0
  0
LTYPE
  5
65
330
5
100
AcDbSymbolTableRecord
100
AcDbLinetypeTableRecord
  2
Eigene Linie 40
 70
     0
  3

 72
    65
 73
     6
 40
1.25
 49
0.625
 74
     0
 49
-0.125
 74
     0
 49
0.125
 74
     0
 49
-0.125
 74
     0
 49
0.125
 74
     0
 49
-0.125
 74
     0
  0
LTYPE
  5
66
330
5
100
AcDbSymbolTableRecord
100
AcDbLinetypeTableRecord
  2
Eigene Linie 41
 70
     0
  3

 72
    65
 73
     6
 40
5.0
 49
2.5
 74
     0
 49
-0.5
 74
     0
 49
0.5
 74
     0
 49
-0.5
 74
     0
 49
0.5
 74
     0
 49
-0.5
 74
     0
  0
LTYPE
  5
67
330
5
100
AcDbSymbolTableRecord
100
AcDbLinetypeTableRecord
  2
Eigene Linie 42
 70
     0
  3

 72
    65
 73
     2
 40
0.300000011920929
 49
0.1500000059604645
 74
     0
 49
-0.1500000059604645
 74
     0
  0
LTYPE
  5
68
330
5
100
AcDbSymbolTableRecord
100
AcDbLinetypeTableRecord
  2
Eigene Linie 43
 70
     0
  3

 72
    65
 73
     2
 40
0.1399999968707561
 49
0.0799999982118607
 74
     0
 49
-0.0599999986588955
 74
     0
  0
LTYPE
  5
69
330
5
100
AcDbSymbolTableRecord
100
AcDbLinetypeTableRecord
  2
Eigene Linie 44
 70
     0
  3

 72
    65
 73
     2
 40
0.3000000007450581
 49
0.0500000007450581
 74
     0
 49
-0.25
 74
     0
  0
LTYPE
  5
6A
330
5
100
AcDbSymbolTableRecord
100
AcDbLinetypeTableRecord
  2
Eigene Linie 45
 70
     0
  3

 72
    65
 73
     2
 40
0.5500000007450581
 49
0.0500000007450581
 74
     0
 49
-0.5
 74
     0
  0
LTYPE
  5
6B
330
5
100
AcDbSymbolTableRecord
100
AcDbLinetypeTableRecord
  2
User line type56
 70
     0
  3

 72
    65
 73
     2
 40
5.399999856948853
 49
3.599999904632568
 74
     0
 49
-1.799999952316284
 74
     0
  0
LTYPE
  5
6C
330
5
100
AcDbSymbolTableRecord
100
AcDbLinetypeTableRecord
  2
User line type57
 70
     0
  3

 72
    65
 73
     2
 40
7.199999809265137
 49
3.599999904632568
 74
     0
 49
-3.599999904632568
 74
     0
  0
LTYPE
  5
6D
330
5
100
AcDbSymbolTableRecord
100
AcDbLinetypeTableRecord
  2
User line type58
 70
     0
  3

 72
    65
 73
     4
 40
8.999999761581421
 49
1.799999952316284
 74
     0
 49
-1.799999952316284
 74
     0
 49
3.599999904632568
 74
     0
 49
-1.799999952316284
 74
     0
  0
LTYPE
  5
6E
330
5
100
AcDbSymbolTableRecord
100
AcDbLinetypeTableRecord
  2
User line type59
 70
     0
  3

 72
    65
 73
     6
 40
7.919999837875366
 49
0.3600000143051147
 74
     0
 49
-1.799999952316284
 74
     0
 49
0.3600000143051147
 74
     0
 49
-1.799999952316284
 74
     0
 49
1.799999952316284
 74
     0
 49
-1.799999952316284
 74
     0
  0
LTYPE
  5
6F
330
5
100
AcDbSymbolTableRecord
100
AcDbLinetypeTableRecord
  2
User line type60
 70
     0
  3

 72
    65
 73
     6
 40
9.359999775886536
 49
1.799999952316284
 74
     0
 49
-1.799999952316284
 74
     0
 49
1.799999952316284
 74
     0
 49
-1.799999952316284
 74
     0
 49
0.3600000143051147
 74
     0
 49
-1.799999952316284
 74
     0
  0
LTYPE
  5
70
330
5
100
AcDbSymbolTableRecord
100
AcDbLinetypeTableRecord
  2
User line type61
 70
     0
  3

 72
    65
 73
     6
 40
20.10000000149012
 49
0.0500000007450581
 74
     0
 49
-0.0500000007450581
 74
     0
 49
5.0
 74
     0
 49
-5.0
 74
     0
 49
5.0
 74
     0
 49
-5.0
 74
     0
  0
LTYPE
  5
71
330
5
100
AcDbSymbolTableRecord
100
AcDbLinetypeTableRecord
  2
User line type62
 70
     0
  3

 72
    65
 73
     6
 40
3.550000000745058
 49
1.0
 74
     0
 49
-0.5
 74
     0
 49
1.0
 74
     0
 49
-0.5
 74
     0
 49
0.0500000007450581
 74
     0
 49
-0.5
 74
     0
  0
LTYPE
  5
72
330
5
100
AcDbSymbolTableRecord
100
AcDbLinetypeTableRecord
  2
User line type63
 70
     0
  3

 72
    65
 73
     6
 40
1.350000001490116
 49
0.5
 74
     0
 49
-0.25
 74
     0
 49
0.0500000007450581
 74
     0
 49
-0.25
 74
     0
 49
0.0500000007450581
 74
     0
 49
-0.25
 74
     0
  0
LTYPE
  5
73
330
5
100
AcDbSymbolTableRecord
100
AcDbLinetypeTableRecord
  2
User line type64
 70
     0
  3

 72
    65
 73
     6
 40
2.600000001490116
 49
1.0
 74
     0
 49
-0.5
 74
     0
 49
0.0500000007450581
 74
     0
 49
-0.5
 74
     0
 49
0.0500000007450581
 74
     0
 49
-0.5
 74
     0
  0
LTYPE
  5
74
330
5
100
AcDbSymbolTableRecord
100
AcDbLinetypeTableRecord
  2
User line type65
 70
     0
  3

 72
    65
 73
     6
 40
1.800000000745058
 49
0.5
 74
     0
 49
-0.25
 74
     0
 49
0.5
 74
     0
 49
-0.25
 74
     0
 49
0.0500000007450581
 74
     0
 49
-0.25
 74
     0
  0
LTYPE
  5
75
330
5
100
AcDbSymbolTableRecord
100
AcDbLinetypeTableRecord
  2
User line type66
 70
     0
  3

 72
    65
 73
     6
 40
0.9250000007450581
 49
0.25
 74
     0
 49
-0.125
 74
     0
 49
0.25
 74
     0
 49
-0.125
 74
     0
 49
0.0500000007450581
 74
     0
 49
-0.125
 74
     0
  0
LTYPE
  5
76
330
5
100
AcDbSymbolTableRecord
100
AcDbLinetypeTableRecord
  2
User line type67
 70
     0
  3

 72
    65
 73
     2
 40
0.3000000007450581
 49
0.0500000007450581
 74
     0
 49
-0.25
 74
     0
  0
LTYPE
  5
77
330
5
100
AcDbSymbolTableRecord
100
AcDbLinetypeTableRecord
  2
User line type68
 70
     0
  3

 72
    65
 73
     2
 40
0.1750000007450581
 49
0.0500000007450581
 74
     0
 49
-0.125
 74
     0
  0
LTYPE
  5
78
330
5
100
AcDbSymbolTableRecord
100
AcDbLinetypeTableRecord
  2
User line type69
 70
     0
  3

 72
    65
 73
     2
 40
0.5500000007450581
 49
0.0500000007450581
 74
     0
 49
-0.5
 74
     0
  0
LTYPE
  5
79
330
5
100
AcDbSymbolTableRecord
100
AcDbLinetypeTableRecord
  2
User line type70
 70
     0
  3

 72
    65
 73
     4
 40
1.050000000745058
 49
0.5
 74
     0
 49
-0.25
 74
     0
 49
0.0500000007450581
 74
     0
 49
-0.25
 74
     0
  0
LTYPE
  5
7A
330
5
100
AcDbSymbolTableRecord
100
AcDbLinetypeTableRecord
  2
User line type71
 70
     0
  3

 72
    65
 73
     4
 40
0.5500000007450581
 49
0.25
 74
     0
 49
-0.125
 74
     0
 49
0.0500000007450581
 74
     0
 49
-0.125
 74
     0
  0
LTYPE
  5
7B
330
5
100
AcDbSymbolTableRecord
100
AcDbLinetypeTableRecord
  2
User line type72
 70
     0
  3

 72
    65
 73
     4
 40
2.050000000745058
 49
1.0
 74
     0
 49
-0.5
 74
     0
 49
0.0500000007450581
 74
     0
 49
-0.5
 74
     0
  0
LTYPE
  5
7C
330
5
100
AcDbSymbolTableRecord
100
AcDbLinetypeTableRecord
  2
User line type73
 70
     0
  3

 72
    65
 73
     2
 40
0.75
 49
0.5
 74
     0
 49
-0.25
 74
     0
  0
LTYPE
  5
7D
330
5
100
AcDbSymbolTableRecord
100
AcDbLinetypeTableRecord
  2
User line type74
 70
     0
  3

 72
    65
 73
     2
 40
0.375
 49
0.25
 74
     0
 49
-0.125
 74
     0
  0
LTYPE
  5
7E
330
5
100
AcDbSymbolTableRecord
100
AcDbLinetypeTableRecord
  2
User line type75
 70
     0
  3

 72
    65
 73
     2
 40
1.5
 49
1.0
 74
     0
 49
-0.5
 74
     0
  0
LTYPE
  5
7F
330
5
100
AcDbSymbolTableRecord
100
AcDbLinetypeTableRecord
  2
User line type76
 70
     0
  3

 72
    65
 73
     6
 40
2.5
 49
1.25
 74
     0
 49
-0.25
 74
     0
 49
0.25
 74
     0
 49
-0.25
 74
     0
 49
0.25
 74
     0
 49
-0.25
 74
     0
  0
LTYPE
  5
80
330
5
100
AcDbSymbolTableRecord
100
AcDbLinetypeTableRecord
  2
User line type77
 70
     0
  3

 72
    65
 73
     6
 40
1.25
 49
0.625
 74
     0
 49
-0.125
 74
     0
 49
0.125
 74
     0
 49
-0.125
 74
     0
 49
0.125
 74
     0
 49
-0.125
 74
     0
  0
LTYPE
  5
81
330
5
100
AcDbSymbolTableRecord
100
AcDbLinetypeTableRecord
  2
User line type78
 70
     0
  3

 72
    65
 73
     6
 40
5.0
 49
2.5
 74
     0
 49
-0.5
 74
     0
 49
0.5
 74
     0
 49
-0.5
 74
     0
 49
0.5
 74
     0
 49
-0.5
 74
     0
  0
LTYPE
  5
82
330
5
100
AcDbSymbolTableRecord
100
AcDbLinetypeTableRecord
  2
User line type79
 70
     0
  3

 72
    65
 73
     2
 40
0.300000011920929
 49
0.1500000059604645
 74
     0
 49
-0.1500000059604645
 74
     0
  0
LTYPE
  5
83
330
5
100
AcDbSymbolTableRecord
100
AcDbLinetypeTableRecord
  2
User line type80
 70
     0
  3

 72
    65
 73
     2
 40
0.1399999968707561
 49
0.0799999982118607
 74
     0
 49
-0.0599999986588955
 74
     0
  0
LTYPE
  5
84
330
5
100
AcDbSymbolTableRecord
100
AcDbLinetypeTableRecord
  2
User line type81
 70
     0
  3

 72
    65
 73
     2
 40
0.3000000007450581
 49
0.0500000007450581
 74
     0
 49
-0.25
 74
     0
  0
LTYPE
  5
85
330
5
100
AcDbSymbolTableRecord
100
AcDbLinetypeTableRecord
  2
User line type82
 70
     0
  3

 72
    65
 73
     2
 40
0.5500000007450581
 49
0.0500000007450581
 74
     0
 49
-0.5
 74
     0
  0
LTYPE
  5
86
330
5
100
AcDbSymbolTableRecord
100
AcDbLinetypeTableRecord
  2
User line type83
 70
     0
  3

 72
    65
 73
     6
 40
31.84999952465296
 49
12.69999980926514
 74
     0
 49
-6.349999904632568
 74
     0
 49
0.0500000007450581
 74
     0
 49
-6.349999904632568
 74
     0
 49
0.0500000007450581
 74
     0
 49
-6.349999904632568
 74
     0
  0
LTYPE
  5
87
330
5
100
AcDbSymbolTableRecord
100
AcDbLinetypeTableRecord
  2
User line type84
 70
     0
  3

 72
    65
 73
     4
 40
50.79999971389771
 49
31.75
 74
     0
 49
-6.349999904632568
 74
     0
 49
6.349999904632568
 74
     0
 49
-6.349999904632568
 74
     0
  0
LTYPE
  5
88
330
5
100
AcDbSymbolTableRecord
100
AcDbLinetypeTableRecord
  2
User line type85
 70
     0
  3

 72
    65
 73
     2
 40
6.399999905377626
 49
0.0500000007450581
 74
     0
 49
-6.349999904632568
 74
     0
  0
LTYPE
  5
89
330
5
100
AcDbSymbolTableRecord
100
AcDbLinetypeTableRecord
  2
User line type86
 70
     0
  3

 72
    65
 73
     4
 40
25.44999961927533
 49
12.69999980926514
 74
     0
 49
-6.349999904632568
 74
     0
 49
0.0500000007450581
 74
     0
 49
-6.349999904632568
 74
     0
  0
LTYPE
  5
8A
330
5
100
AcDbSymbolTableRecord
100
AcDbLinetypeTableRecord
  2
User line type87
 70
     0
  3

 72
    65
 73
     2
 40
9.524999856948853
 49
6.349999904632568
 74
     0
 49
-3.174999952316284
 74
     0
  0
LTYPE
  5
8B
330
5
100
AcDbSymbolTableRecord
100
AcDbLinetypeTableRecord
  2
User line type88
 70
     0
  3

 72
    65
 73
     2
 40
0.0050000002374873
 49
0.0040000001899898
 74
     0
 49
-0.0010000000474975
 74
     0
  0
LTYPE
  5
8C
330
5
100
AcDbSymbolTableRecord
100
AcDbLinetypeTableRecord
  2
User line type89
 70
     0
  3

 72
    65
 73
     4
 40
0.0550000009825453
 49
0.0040000001899898
 74
     0
 49
-0.0005000000237487
 74
     0
 49
0.0500000007450581
 74
     0
 49
-0.0005000000237487
 74
     0
  0
LTYPE
  5
8D
330
5
100
AcDbSymbolTableRecord
100
AcDbLinetypeTableRecord
  2
DOT
 70
     0
  3

 72
    65
 73
     3
 40
0.5499949939548969
 49
0.0500000007450581
 74
     0
 49
-0.25
 74
     0
 49
0.2499949932098389
 74
     0
  0
LTYPE
  5
8E
330
5
100
AcDbSymbolTableRecord
100
AcDbLinetypeTableRecord
  2
User line type91
 70
     0
  3

 72
    65
 73
     2
 40
4.0
 49
2.0
 74
     0
 49
-2.0
 74
     0
  0
LTYPE
  5
8F
330
5
100
AcDbSymbolTableRecord
100
AcDbLinetypeTableRecord
  2
User line type92
 70
     0
  3

 72
    65
 73
     2
 40
4.0
 49
2.0
 74
     0
 49
-2.0
 74
     0
  0
LTYPE
  5
90
330
5
100
AcDbSymbolTableRecord
100
AcDbLinetypeTableRecord
  2
User line type93
 70
     0
  3

 72
    65
 73
     4
 40
1.050000000745058
 49
0.5
 74
     0
 49
-0.25
 74
     0
 49
0.0500000007450581
 74
     0
 49
-0.25
 74
     0
  0
LTYPE
  5
91
330
5
100
AcDbSymbolTableRecord
100
AcDbLinetypeTableRecord
  2
User line type94
 70
     0
  3

 72
    65
 73
     2
 40
0.75
 49
0.5
 74
     0
 49
-0.25
 74
     0
  0
LTYPE
  5
92
330
5
100
AcDbSymbolTableRecord
100
AcDbLinetypeTableRecord
  2
User line type95
 70
     0
  3

 72
    65
 73
     6
 40
17.60000000149012
 49
10.0
 74
     0
 49
-2.5
 74
     0
 49
0.0500000007450581
 74
     0
 49
-2.5
 74
     0
 49
0.0500000007450581
 74
     0
 49
-2.5
 74
     0
  0
LTYPE
  5
93
330
5
100
AcDbSymbolTableRecord
100
AcDbLinetypeTableRecord
  2
User line type96
 70
     0
  3

 72
    65
 73
     2
 40
0.375
 49
0.25
 74
     0
 49
-0.125
 74
     0
  0
LTYPE
  5
94
330
5
100
AcDbSymbolTableRecord
100
AcDbLinetypeTableRecord
  2
User line type97
 70
     0
  3

 72
    65
 73
     4
 40
1.100000001490116
 49
0.5
 74
     0
 49
-0.25
 74
     0
 49
0.1000000014901161
 74
     0
 49
-0.25
 74
     0
  0
LTYPE
  5
95
330
5
100
AcDbSymbolTableRecord
100
AcDbLinetypeTableRecord
  2
User line type98
 70
     0
  3

 72
    65
 73
     2
 40
0.75
 49
0.5
 74
     0
 49
-0.25
 74
     0
  0
LTYPE
  5
96
330
5
100
AcDbSymbolTableRecord
100
AcDbLinetypeTableRecord
  2
User line type99
 70
     0
  3

 72
    65
 73
     4
 40
1.050000000745058
 49
0.5
 74
     0
 49
-0.25
 74
     0
 49
0.0500000007450581
 74
     0
 49
-0.25
 74
     0
  0
LTYPE
  5
97
330
5
100
AcDbSymbolTableRecord
100
AcDbLinetypeTableRecord
  2
User line type100
 70
     0
  3

 72
    65
 73
     6
 40
1.350000001490116
 49
0.5
 74
     0
 49
-0.25
 74
     0
 49
0.0500000007450581
 74
     0
 49
-0.25
 74
     0
 49
0.0500000007450581
 74
     0
 49
-0.25
 74
     0
  0
LTYPE
  5
98
330
5
100
AcDbSymbolTableRecord
100
AcDbLinetypeTableRecord
  2
User line type101
 70
     0
  3

 72
    65
 73
     4
 40
1.050000000745058
 49
0.5
 74
     0
 49
-0.25
 74
     0
 49
0.0500000007450581
 74
     0
 49
-0.25
 74
     0
  0
LTYPE
  5
99
330
5
100
AcDbSymbolTableRecord
100
AcDbLinetypeTableRecord
  2
User line type102
 70
     0
  3

 72
    65
 73
     2
 40
0.375
 49
0.25
 74
     0
 49
-0.125
 74
     0
  0
ENDTAB
  0
TABLE
  2
LAYER
  5
2
330
0
100
AcDbSymbolTable
 70
    10
  0
LAYER
  5
10
330
2
100
AcDbSymbolTableRecord
100
AcDbLayerTableRecord
  2
0
 70
     0
 62
     7
  6
Continuous
370
    -3
390
F
347
3E
  0
LAYER
  5
9A
330
2
100
AcDbSymbolTableRecord
100
AcDbLayerTableRecord
  2
00_Allgemein
 70
     0
 62
     7
  6
Continuous
370
     0
390
F
347
3E
  0
LAYER
  5
9B
330
2
100
AcDbSymbolTableRecord
100
AcDbLayerTableRecord
  2
37_Bilder
 70
     0
 62
     7
  6
Continuous
370
     0
390
F
347
3E
  0
LAYER
  5
9C
330
2
100
AcDbSymbolTableRecord
100
AcDbLayerTableRecord
  2
34_Gruppe
 70
     0
 62
     7
  6
Continuous
370
     0
390
F
347
3E
  0
LAYER
  5
9D
330
2
100
AcDbSymbolTableRecord
100
AcDbLayerTableRecord
  2
12_Linie
 70
     0
 62
     7
  6
Continuous
370
     0
390
F
347
3E
  0
LAYER
  5
9E
330
2
100
AcDbSymbolTableRecord
100
AcDbLayerTableRecord
  2
14_Kreis
 70
     0
 62
     7
  6
Continuous
370
     0
390
F
347
3E
  0
LAYER
  5
9F
330
2
100
AcDbSymbolTableRecord
100
AcDbLayerTableRecord
  2
18_Schraffur
 70
     0
 62
     7
  6
Continuous
370
     0
390
F
347
3E
  0
LAYER
  5
A0
330
2
100
AcDbSymbolTableRecord
100
AcDbLayerTableRecord
  2
Folie _ 3
 70
     0
 62
     7
  6
Continuous
370
     0
390
F
347
3E
  0
LAYER
  5
A1
330
2
100
AcDbSymbolTableRecord
100
AcDbLayerTableRecord
  2
Schraff_Dämmung
 70
     0
 62
     7
  6
Continuous
370
     0
390
F
347
3E
  0
LAYER
  5
A2
330
2
100
AcDbSymbolTableRecord
100
AcDbLayerTableRecord
  2
STANDARD
 70
     0
 62
     7
  6
Continuous
370
     0
390
F
347
3E
  0
ENDTAB
  0
TABLE
  2
STYLE
  5
3
330
0
100
AcDbSymbolTable
 70
     3
  0
STYLE
  5
11
330
3
100
AcDbSymbolTableRecord
100
AcDbTextStyleTableRecord
  2
Standard
 70
     0
 40
0.0
 41
1.0
 50
0.0
 71
     0
 42
0.2
  3
txt
  4

  0
STYLE
  5
B5
330
3
100
AcDbSymbolTableRecord
100
AcDbTextStyleTableRecord
  2
Style0
 70
     0
 40
0.0
 41
1.0
 50
0.0
 71
     0
 42
0.2
  3
arial.ttf
  4

1001
ACAD
1000
Arial
1071
        0
  0
STYLE
  5
B6
330
3
100
AcDbSymbolTableRecord
100
AcDbTextStyleTableRecord
  2
Style1
 70
     0
 40
0.0
 41
1.0
 50
0.0
 71
     0
 42
0.2
  3
ariblk.ttf
  4

1001
ACAD
1000
Arial Black
1071
        0
  0
ENDTAB
  0
TABLE
  2
VIEW
  5
6
330
0
100
AcDbSymbolTable
 70
     0
  0
ENDTAB
  0
TABLE
  2
UCS
  5
7
330
0
100
AcDbSymbolTable
 70
     0
  0
ENDTAB
  0
TABLE
  2
APPID
  5
9
330
0
100
AcDbSymbolTable
 70
     1
  0
APPID
  5
12
330
9
100
AcDbSymbolTableRecord
100
AcDbRegAppTableRecord
  2
ACAD
 70
     0
  0
ENDTAB
  0
TABLE
  2
DIMSTYLE
  5
A
330
0
100
AcDbSymbolTable
 70
     1
100
AcDbDimStyleTable
  0
DIMSTYLE
105
27
330
A
100
AcDbSymbolTableRecord
100
AcDbDimStyleTableRecord
  2
Standard
 70
     0
178
     0
340
11
  0
ENDTAB
  0
TABLE
  2
BLOCK_RECORD
  5
1
330
0
100
AcDbSymbolTable
 70
     3
  0
BLOCK_RECORD
  5
1F
330
1
100
AcDbSymbolTableRecord
100
AcDbBlockTableRecord
  2
*Model_Space
340
22
 70
     0
280
     1
281
     0
  0
BLOCK_RECORD
  5
1B
330
1
100
AcDbSymbolTableRecord
100
AcDbBlockTableRecord
  2
*Paper_Space
340
1E
 70
     0
280
     1
281
     0
  0
BLOCK_RECORD
  5
23
330
1
100
AcDbSymbolTableRecord
100
AcDbBlockTableRecord
  2
*Paper_Space0
340
26
 70
     0
280
     1
281
     0
  0
BLOCK_RECORD
  5
A3
330
1
100
AcDbSymbolTableRecord
100
AcDbBlockTableRecord
  2
printlayout(id_1)
340
0
102
{BLKREFS
331
B0
102
}
 70
     0
280
     1
281
     0
  0
BLOCK_RECORD
  5
B7
330
1
100
AcDbSymbolTableRecord
100
AcDbBlockTableRecord
  2
dokument alle 2d details_asc(id_4)
340
0
102
{BLKREFS
331
337
102
}
 70
     0
280
     1
281
     0
  0
ENDTAB
  0
ENDSEC
  0
SECTION
  2
BLOCKS
  0
BLOCK
  5
20
330
1F
100
AcDbEntity
  8
0
100
AcDbBlockBegin
  2
*Model_Space
 70
     0
 10
0.0
 20
0.0
 30
0.0
  3
*Model_Space
  1

  0
ENDBLK
  5
21
330
1F
100
AcDbEntity
  8
0
100
AcDbBlockEnd
  0
BLOCK
  5
1C
330
1B
100
AcDbEntity
 67
     1
  8
0
100
AcDbBlockBegin
  2
*Paper_Space
 70
     0
 10
0.0
 20
0.0
 30
0.0
  3
*Paper_Space
  1

  0
ENDBLK
  5
1D
330
1B
100
AcDbEntity
 67
     1
  8
0
100
AcDbBlockEnd
  0
BLOCK
  5
24
330
23
100
AcDbEntity
  8
0
100
AcDbBlockBegin
  2
*Paper_Space0
 70
     0
 10
0.0
 20
0.0
 30
0.0
  3
*Paper_Space0
  1

  0
ENDBLK
  5
25
330
23
100
AcDbEntity
  8
0
100
AcDbBlockEnd
  0
BLOCK
  5
B1
330
A3
100
AcDbEntity
  8
0
100
AcDbBlockBegin
  2
printlayout(id_1)
 70
     0
 10
0.0
 20
0.0
 30
0.0
  3
printlayout(id_1)
  1

  0
POLYLINE
  5
A4
330
A3
100
AcDbEntity
  8
00_Allgemein
  6
Continuous
 62
     7
370
     0
100
AcDb2dPolyline
 66
     1
 10
0.0
 20
0.0
 30
0.0
 70
     1
  0
VERTEX
  5
A5
330
A4
100
AcDbEntity
  8
00_Allgemein
  6
Continuous
 62
     7
370
     0
100
AcDbVertex
100
AcDb2dVertex
 10
0.0
 20
0.0
 30
0.0
  0
VERTEX
  5
A6
330
A4
100
AcDbEntity
  8
00_Allgemein
  6
Continuous
 62
     7
370
     0
100
AcDbVertex
100
AcDb2dVertex
 10
297.0
 20
0.0
 30
0.0
  0
VERTEX
  5
A7
330
A4
100
AcDbEntity
  8
00_Allgemein
  6
Continuous
 62
     7
370
     0
100
AcDbVertex
100
AcDb2dVertex
 10
297.0
 20
210.0
 30
0.0
  0
VERTEX
  5
A8
330
A4
100
AcDbEntity
  8
00_Allgemein
  6
Continuous
 62
     7
370
     0
100
AcDbVertex
100
AcDb2dVertex
 10
0.0
 20
210.0
 30
0.0
  0
SEQEND
  5
A9
330
A4
100
AcDbEntity
  8
00_Allgemein
  6
Continuous
 62
     7
370
     0
  0
POLYLINE
  5
AA
330
A3
100
AcDbEntity
  8
00_Allgemein
  6
Strichpunktierte
 62
     5
420
      255
 48
5.0
370
     0
100
AcDb2dPolyline
 66
     1
 10
0.0
 20
0.0
 30
0.0
 70
     1
  0
VERTEX
  5
AB
330
AA
100
AcDbEntity
  8
00_Allgemein
  6
Strichpunktierte
 62
     5
420
      255
370
     0
100
AcDbVertex
100
AcDb2dVertex
 10
3.0
 20
3.0
 30
0.0
  0
VERTEX
  5
AC
330
AA
100
AcDbEntity
  8
00_Allgemein
  6
Strichpunktierte
 62
     5
420
      255
370
     0
100
AcDbVertex
100
AcDb2dVertex
 10
294.0
 20
3.0
 30
0.0
  0
VERTEX
  5
AD
330
AA
100
AcDbEntity
  8
00_Allgemein
  6
Strichpunktierte
 62
     5
420
      255
370
     0
100
AcDbVertex
100
AcDb2dVertex
 10
294.0
 20
207.0
 30
0.0
  0
VERTEX
  5
AE
330
AA
100
AcDbEntity
  8
00_Allgemein
  6
Strichpunktierte
 62
     5
420
      255
370
     0
100
AcDbVertex
100
AcDb2dVertex
 10
3.0
 20
207.0
 30
0.0
  0
SEQEND
  5
AF
330
AA
100
AcDbEntity
  8
00_Allgemein
  6
Strichpunktierte
 62
     5
420
      255
 48
5.0
370
     0
  0
ENDBLK
  5
B2
330
A3
100
AcDbEntity
  8
0
100
AcDbBlockEnd
  0
BLOCK
  5
338
330
B7
100
AcDbEntity
  8
0
100
AcDbBlockBegin
  2
dokument alle 2d details_asc(id_4)
 70
     0
 10
0.0
 20
0.0
 30
0.0
  3
dokument alle 2d details_asc(id_4)
  1

  0
LINE
  5
B8
330
B7
100
AcDbEntity
  8
Folie _ 3
  6
Continuous
 62
     7
370
    20
100
AcDbLine
 10
97.34322571793638
 20
105.0698763766588
 30
0.0
 11
183.5932257179364
 21
105.0698763766588
 31
0.0
  0
IMAGE
  5
B9
330
B7
100
AcDbEntity
  8
37_Bilder
  6
Continuous
 62
     7
370
     0
160
               140
310
8C00000001000000840000000600000005000000663F38DD7DC76E40807D7E0819A431400000000000000000B31F9CDEEF237240807D7E0819A431400000000000000000B31F9CDEEF237240C03E3F74D92D40400000000000000000663F38DD7DC76E40C03E3F74D92D40400000000000000000663F38DD7DC76E40807D7E
310
0819A431400000000000000000
100
AcDbRasterImage
 90
        0
 10
246.2341142748439
 20
17.64100697601452
 30
0.0
 11
0.0279263627105558
 21
0.0
 31
0.0
 12
0.0
 22
0.02792635995477608
 32
0.0
 13
1576.0
 23
527.0
340
B4
 70
     3
280
     0
281
    50
282
    50
283
     0
360
0
 71
     1
 91
        2
 14
-0.5
 24
-0.5
 14
1575.5
 24
526.5
290
     0
  0
LINE
  5
BA
330
B7
100
AcDbEntity
  8
STANDARD
  6
Continuous
 62
     7
370
    20
100
AcDbLine
 10
96.04322571793637
 20
102.1269134658776
 30
0.0
 11
96.04322571793637
 21
83.06987637665897
 31
0.0
  0
LINE
  5
BB
330
B7
100
AcDbEntity
  8
STANDARD
  6
Continuous
 62
     7
370
    20
100
AcDbLine
 10
96.04322571793637
 20
98.06987637665897
 30
0.0
 11
97.04322571793637
 21
98.06987637665897
 31
0.0
  0
LINE
  5
BC
330
B7
100
AcDbEntity
  8
STANDARD
  6
Continuous
 62
     7
370
    20
100
AcDbLine
 10
97.04322571793637
 20
103.069876376659
 30
0.0
 11
97.04322571793637
 21
84.06987637665897
 31
0.0
  0
LINE
  5
BD
330
B7
100
AcDbEntity
  8
12_Linie
 62
     7
100
AcDbLine
 10
96.34322571793638
 20
104.069876376659
 30
0.0
 11
96.04322571793637
 21
104.069876376659
 31
0.0
  0
LINE
  5
BE
330
B7
100
AcDbEntity
  8
STANDARD
  6
Continuous
 62
     7
370
    20
100
AcDbLine
 10
96.04322571793637
 20
104.069876376659
 30
0.0
 11
96.04322571793637
 21
103.6547620499387
 31
0.0
  0
LINE
  5
BF
330
B7
100
AcDbEntity
  8
Folie _ 3
  6
Continuous
 62
     7
370
    40
100
AcDbLine
 10
96.44322571793637
 20
103.069876376659
 30
0.0
 11
183.5432257179364
 21
103.069876376659
 31
0.0
  0
HATCH
  5
C0
330
B7
100
AcDbEntity
  8
18_Schraffur
 62
   251
100
AcDbHatch
 10
0.0
 20
0.0
 30
0.0
210
0.0
220
0.0
230
1.0
  2
SOLID
 70
     1
 71
     0
 91
        1
 92
        0
 93
       17
 72
     2
 10
96.96619645452047
 20
103.7366928451764
 40
0.9266000409017052
 50
185.0727682376003
 51
256.3965745084141
 73
     1
 72
     2
 10
96.04322571793637
 20
102.1269134658776
 40
1.000000000000008
 50
314.8323071506861
 51
360.0
 73
     0
 72
     1
 10
97.04322571793637
 20
102.1269134658776
 11
97.04322571793637
 21
98.06987637665897
 72
     1
 10
97.04322571793637
 20
98.06987637665897
 11
96.05058413507868
 21
98.06987637665897
 72
     2
 10
95.05627571793649
 20
98.17641637665892
 40
1.0
 50
353.8841001918852
 51
369.2665124885181
 73
     1
 72
     1
 10
96.04322571793637
 20
98.33744338526375
 11
96.04322571793637
 21
100.0368207187275
 72
     2
 10
95.05301571793643
 20
100.176406376659
 40
1.0
 50
351.9761292252659
 51
368.0238707747341
 73
     1
 72
     1
 10
96.04322571793637
 20
100.3159920345905
 11
96.04322571793637
 21
102.0623998435121
 72
     2
 10
95.04974571793646
 20
102.176406376659
 40
1.0
 50
353.4536732698949
 51
357.1631061068412
 73
     1
 72
     1
 10
96.04852019287173
 20
102.1269134658776
 11
96.04322571793601
 21
102.1269134658776
 72
     2
 10
96.13498045762772
 20
103.2363413382631
 40
1.113215673749522
 50
94.72786200793664
 51
168.7313349767699
 73
     0
 72
     1
 10
95.04322571793637
 20
103.0188080657664
 11
95.04322571793637
 21
103.1747674937364
 72
     1
 10
95.04322571793637
 20
103.1747674937364
 11
95.04811571793635
 21
103.176406376659
 72
     1
 10
95.04811571793635
 20
103.176406376659
 11
95.04322571793637
 21
103.1780275088438
 72
     1
 10
95.04322571793637
 20
103.1780275088438
 11
95.04322571793637
 21
104.4317529578127
 72
     1
 10
95.04322571793637
 20
104.4317529578127
 11
96.04322571793637
 21
104.4317529578127
 72
     1
 10
96.04322571793637
 20
104.4317529578127
 11
96.04322571793637
 21
103.6547620499387
 97
        0
 75
     0
 76
     1
 98
        0
  0
ARC
  5
C1
330
B7
100
AcDbEntity
  8
STANDARD
  6
Continuous
 62
     7
370
    20
100
AcDbCircle
 10
92.06444571793637
 20
87.17175516581082
 30
0.0
 40
1.0
100
AcDbArc
 50
90.09352199999995
 51
179.993522
  0
ARC
  5
C2
330
B7
100
AcDbEntity
  8
STANDARD
  6
Continuous
 62
     7
370
    20
100
AcDbCircle
 10
92.06444571793637
 20
87.15585835113251
 30
0.0
 40
1.0
100
AcDbArc
 50
180.006478
 51
269.9064780000001
  0
ARC
  5
C3
330
B7
100
AcDbEntity
  8
STANDARD
  6
Continuous
 62
     7
370
    20
100
AcDbCircle
 10
95.06607571793649
 20
84.16709129066821
 30
0.0
 40
1.0
100
AcDbArc
 50
269.906478
 51
359.906478
  0
LINE
  5
C4
330
B7
100
AcDbEntity
  8
STANDARD
  6
Continuous
 62
     7
370
    20
100
AcDbLine
 10
92.06607571793649
 20
84.17198129066819
 30
0.0
 11
95.06443571793643
 21
83.16709129066821
 31
0.0
  0
ARC
  5
C5
330
B7
100
AcDbEntity
  8
STANDARD
  6
Continuous
 62
     7
370
    20
100
AcDbCircle
 10
95.06933571793653
 20
86.1670812906681
 30
0.0
 40
1.0
100
AcDbArc
 50
269.906478
 51
359.906478
  0
LINE
  5
C6
330
B7
100
AcDbEntity
  8
STANDARD
  6
Continuous
 62
     7
370
    20
100
AcDbLine
 10
92.06933571793653
 20
86.17198129066819
 30
0.0
 11
95.0677057179364
 21
85.16709129066821
 31
0.0
  0
ARC
  5
C7
330
B7
100
AcDbEntity
  8
STANDARD
  6
Continuous
 62
     7
370
    20
100
AcDbCircle
 10
92.0677057179364
 20
85.17198129066819
 30
0.0
 40
1.0
100
AcDbArc
 50
180.006478
 51
269.9064780000001
  0
ARC
  5
C8
330
B7
100
AcDbEntity
  8
STANDARD
  6
Continuous
 62
     7
370
    20
100
AcDbCircle
 10
92.0677057179364
 20
85.17198129066819
 30
0.0
 40
1.0
100
AcDbArc
 50
89.90647799999999
 51
179.906478
  0
LINE
  5
C9
330
B7
100
AcDbEntity
  8
STANDARD
  6
Continuous
 62
     7
370
    20
100
AcDbLine
 10
95.07096571793646
 20
87.1670812906681
 30
0.0
 11
92.06933571793653
 21
86.17198129066819
 31
0.0
  0
ARC
  5
CA
330
B7
100
AcDbEntity
  8
STANDARD
  6
Continuous
 62
     7
370
    20
100
AcDbCircle
 10
95.06933345183825
 20
88.16053355842232
 30
0.0
 40
1.0
100
AcDbArc
 50
270.093522
 51
0.0935219999999768
  0
ARC
  5
CB
330
B7
100
AcDbEntity
  8
STANDARD
  6
Continuous
 62
     7
370
    20
100
AcDbCircle
 10
95.06933345183825
 20
86.16708262281536
 30
0.0
 40
1.0
100
AcDbArc
 50
13.12171421313775
 51
89.90647800000005
  0
LINE
  5
CC
330
B7
100
AcDbEntity
  8
STANDARD
  6
Continuous
 62
     7
370
    20
100
AcDbLine
 10
95.06444118574001
 20
87.1766525015164
 30
0.0
 11
92.06281118574007
 21
88.17175250151631
 31
0.0
  0
LINE
  5
CD
330
B7
100
AcDbEntity
  8
STANDARD
  6
Continuous
 62
     7
370
    20
100
AcDbLine
 10
95.07422798403478
 20
85.15751141196705
 30
0.0
 11
92.07259798403484
 21
84.16241141196714
 31
0.0
  0
ARC
  5
CE
330
B7
100
AcDbEntity
  8
STANDARD
  6
Continuous
 62
     7
370
    20
100
AcDbCircle
 10
95.06607118574011
 20
84.1670839549626
 30
0.0
 40
1.0
100
AcDbArc
 50
13.12171421313775
 51
89.90647800000005
  0
ARC
  5
CF
330
B7
100
AcDbEntity
  8
STANDARD
  6
Continuous
 62
     7
370
    20
100
AcDbCircle
 10
92.06118571793633
 20
83.18810423020386
 30
0.0
 40
1.0
100
AcDbArc
 50
90.09352199999995
 51
168.7540442274043
  0
LINE
  5
D0
330
B7
100
AcDbEntity
  8
34_Gruppe
  6
Continuous
 62
     7
370
    20
100
AcDbLine
 10
97.84322571793638
 20
106.0698763766588
 30
0.0
 11
97.84322571793638
 21
110.0698763766588
 31
0.0
  0
LINE
  5
D1
330
B7
100
AcDbEntity
  8
34_Gruppe
  6
Continuous
 62
     7
370
    20
100
AcDbLine
 10
137.8432257179364
 20
106.0698763766588
 30
0.0
 11
137.8432257179364
 21
110.0698763766588
 31
0.0
  0
LINE
  5
D2
330
B7
100
AcDbEntity
  8
34_Gruppe
  6
Continuous
 62
     7
370
    20
100
AcDbLine
 10
97.84322571793638
 20
110.0698763766588
 30
0.0
 11
137.8432257179364
 21
110.0698763766588
 31
0.0
  0
LINE
  5
D3
330
B7
100
AcDbEntity
  8
34_Gruppe
  6
Continuous
 62
     7
370
    20
100
AcDbLine
 10
97.84322571793638
 20
106.0698763766588
 30
0.0
 11
137.8432257179364
 21
106.0698763766588
 31
0.0
  0
LINE
  5
D4
330
B7
100
AcDbEntity
  8
34_Gruppe
  6
Continuous
 62
     7
370
    20
100
AcDbLine
 10
97.84322571793638
 20
106.0698763766588
 30
0.0
 11
97.84322571793638
 21
105.0698763766588
 31
0.0
  0
LINE
  5
D5
330
B7
100
AcDbEntity
  8
34_Gruppe
  6
Continuous
 62
     7
370
    20
100
AcDbLine
 10
107.8432257179364
 20
106.0698763766588
 30
0.0
 11
107.8432257179364
 21
105.0698763766588
 31
0.0
  0
HATCH
  5
D6
330
B7
100
AcDbEntity
  8
Schraff_Dämmung
 62
   253
100
AcDbHatch
 10
0.0
 20
0.0
 30
0.0
210
0.0
220
0.0
230
1.0
  2
SOLID
 70
     1
 71
     0
 91
        1
 92
        0
 93
        4
 72
     1
 10
107.8432257179364
 20
106.0698763766588
 11
97.84322571793638
 21
106.0698763766588
 72
     1
 10
97.84322571793638
 20
106.0698763766588
 11
97.84322571793638
 21
105.0698763766588
 72
     1
 10
97.84322571793638
 20
105.0698763766588
 11
107.8432257179364
 21
105.0698763766588
 72
     1
 10
107.8432257179364
 20
105.0698763766588
 11
107.8432257179364
 21
106.0698763766588
 97
        0
 75
     0
 76
     1
 98
        0
  0
LINE
  5
D7
330
B7
100
AcDbEntity
  8
34_Gruppe
  6
Continuous
 62
     7
370
    20
100
AcDbLine
 10
133.0932257179364
 20
106.0698763766588
 30
0.0
 11
133.0932257179364
 21
105.0698763766588
 31
0.0
  0
LINE
  5
D8
330
B7
100
AcDbEntity
  8
34_Gruppe
  6
Continuous
 62
     7
370
    20
100
AcDbLine
 10
143.0932257179364
 20
106.0698763766588
 30
0.0
 11
143.0932257179364
 21
105.0698763766588
 31
0.0
  0
HATCH
  5
D9
330
B7
100
AcDbEntity
  8
Schraff_Dämmung
 62
   253
100
AcDbHatch
 10
0.0
 20
0.0
 30
0.0
210
0.0
220
0.0
230
1.0
  2
SOLID
 70
     1
 71
     0
 91
        1
 92
        0
 93
        4
 72
     1
 10
143.0932257179364
 20
106.0698763766588
 11
133.0932257179364
 21
106.0698763766588
 72
     1
 10
133.0932257179364
 20
106.0698763766588
 11
133.0932257179364
 21
105.0698763766588
 72
     1
 10
133.0932257179364
 20
105.0698763766588
 11
143.0932257179364
 21
105.0698763766588
 72
     1
 10
143.0932257179364
 20
105.0698763766588
 11
143.0932257179364
 21
106.0698763766588
 97
        0
 75
     0
 76
     1
 98
        0
  0
HATCH
  5
DA
330
B7
100
AcDbEntity
  8
34_Gruppe
  6
Continuous
 62
     7
370
    20
100
AcDbHatch
 10
0.0
 20
0.0
 30
0.0
210
0.0
220
0.0
230
1.0
  2
ANSI32
 70
     0
 71
     0
 91
        1
 92
        0
 93
        4
 72
     1
 10
137.8432257179364
 20
110.0698763766588
 11
97.84322571793638
 21
110.0698763766588
 72
     1
 10
97.84322571793638
 20
110.0698763766588
 11
97.84322571793638
 21
106.0698763766588
 72
     1
 10
97.84322571793638
 20
106.0698763766588
 11
137.8432257179364
 21
106.0698763766588
 72
     1
 10
137.8432257179364
 20
106.0698763766588
 11
137.8432257179364
 21
110.0698763766588
 97
        0
 75
     0
 76
     1
 52
0.0
 41
10.5
 77
     0
 78
     2
 53
45.0
 43
-699.2879116937944
 44
446.6903162624398
 45
-2.784232950922031
 46
2.784232950922032
 79
     0
 53
45.0
 43
-697.4317563962944
 44
446.6903162624398
 45
-2.784232950922031
 46
2.784232950922032
 79
     0
 98
        0
  0
LINE
  5
DB
330
B7
100
AcDbEntity
  8
34_Gruppe
  6
Continuous
 62
     7
370
    20
100
AcDbLine
 10
178.3432257179364
 20
106.0698763766588
 30
0.0
 11
178.3432257179364
 21
110.0698763766588
 31
0.0
  0
LINE
  5
DC
330
B7
100
AcDbEntity
  8
34_Gruppe
  6
Continuous
 62
     7
370
    20
100
AcDbLine
 10
138.3432257179364
 20
106.0698763766588
 30
0.0
 11
138.3432257179364
 21
110.0698763766588
 31
0.0
  0
LINE
  5
DD
330
B7
100
AcDbEntity
  8
34_Gruppe
  6
Continuous
 62
     7
370
    20
100
AcDbLine
 10
178.3432257179364
 20
110.0698763766588
 30
0.0
 11
138.3432257179364
 21
110.0698763766588
 31
0.0
  0
LINE
  5
DE
330
B7
100
AcDbEntity
  8
34_Gruppe
  6
Continuous
 62
     7
370
    20
100
AcDbLine
 10
183.5932257179364
 20
106.0698763766588
 30
0.0
 11
137.8432257179364
 21
106.0698763766588
 31
0.0
  0
HATCH
  5
DF
330
B7
100
AcDbEntity
  8
34_Gruppe
  6
Continuous
 62
     7
370
    20
100
AcDbHatch
 10
0.0
 20
0.0
 30
0.0
210
0.0
220
0.0
230
1.0
  2
ANSI32
 70
     0
 71
     0
 91
        1
 92
        0
 93
        4
 72
     1
 10
138.3432257179364
 20
110.0698763766588
 11
178.3432257179364
 21
110.0698763766588
 72
     1
 10
178.3432257179364
 20
110.0698763766588
 11
178.3432257179364
 21
106.0698763766588
 72
     1
 10
178.3432257179364
 20
106.0698763766588
 11
138.3432257179364
 21
106.0698763766588
 72
     1
 10
138.3432257179364
 20
106.0698763766588
 11
138.3432257179364
 21
110.0698763766588
 97
        0
 75
     0
 76
     1
 52
90.0
 41
10.5
 77
     0
 78
     2
 53
135.0
 43
975.4743631296675
 44
446.6903162624398
 45
-2.784232950922032
 46
-2.784232950922031
 79
     0
 53
135.0
 43
975.4743631296675
 44
448.5464715599397
 45
-2.784232950922032
 46
-2.784232950922031
 79
     0
 98
        0
  0
LINE
  5
E0
330
B7
100
AcDbEntity
  8
34_Gruppe
  6
Continuous
 62
     7
370
    20
100
AcDbLine
 10
173.5932257179364
 20
106.0698763766588
 30
0.0
 11
173.5932257179364
 21
105.0698763766588
 31
0.0
  0
LINE
  5
E1
330
B7
100
AcDbEntity
  8
34_Gruppe
  6
Continuous
 62
     7
370
    20
100
AcDbLine
 10
183.5932257179364
 20
106.0698763766588
 30
0.0
 11
183.5932257179364
 21
105.0698763766588
 31
0.0
  0
HATCH
  5
E2
330
B7
100
AcDbEntity
  8
Schraff_Dämmung
 62
   253
100
AcDbHatch
 10
0.0
 20
0.0
 30
0.0
210
0.0
220
0.0
230
1.0
  2
SOLID
 70
     1
 71
     0
 91
        1
 92
        0
 93
        4
 72
     1
 10
183.5932257179364
 20
106.0698763766588
 11
173.5932257179364
 21
106.0698763766588
 72
     1
 10
173.5932257179364
 20
106.0698763766588
 11
173.5932257179364
 21
105.0698763766588
 72
     1
 10
173.5932257179364
 20
105.0698763766588
 11
183.5932257179364
 21
105.0698763766588
 72
     1
 10
183.5932257179364
 20
105.0698763766588
 11
183.5932257179364
 21
106.0698763766588
 97
        0
 75
     0
 76
     1
 98
        0
  0
LINE
  5
E3
330
B7
100
AcDbEntity
  8
STANDARD
  6
Continuous
 62
     7
100
AcDbLine
 10
96.95525255365793
 20
120.300479579418
 30
0.0
 11
96.95525255365793
 21
120.0484910804416
 31
0.0
  0
LINE
  5
E4
330
B7
100
AcDbEntity
  8
STANDARD
  6
Continuous
 62
     7
100
AcDbLine
 10
96.95525255365793
 20
120.300479579418
 30
0.0
 11
97.54322571793637
 21
120.468471912069
 31
0.0
  0
LINE
  5
E5
330
B7
100
AcDbEntity
  8
STANDARD
  6
Continuous
 62
     7
100
AcDbLine
 10
96.95525255365793
 20
120.0484910804416
 30
0.0
 11
97.54322571793637
 21
119.8804987477906
 31
0.0
  0
LINE
  5
E6
330
B7
100
AcDbEntity
  8
STANDARD
  6
Continuous
 62
     7
100
AcDbLine
 10
97.54322571793637
 20
120.468471912069
 30
0.0
 11
97.6272218842616
 21
120.468471912069
 31
0.0
  0
LINE
  5
E7
330
B7
100
AcDbEntity
  8
STANDARD
  6
Continuous
 62
     7
100
AcDbLine
 10
97.54322571793637
 20
119.8804987477906
 30
0.0
 11
97.6272218842616
 21
119.8804987477906
 31
0.0
  0
LINE
  5
E8
330
B7
100
AcDbEntity
  8
STANDARD
  6
Continuous
 62
     7
100
AcDbLine
 10
93.36775949066288
 20
120.300479579418
 30
0.0
 11
96.95525255365793
 21
120.300479579418
 31
0.0
  0
LINE
  5
E9
330
B7
100
AcDbEntity
  8
STANDARD
  6
Continuous
 62
     7
100
AcDbLine
 10
93.36775949066288
 20
120.0484910804416
 30
0.0
 11
96.95525255365793
 21
120.0484910804416
 31
0.0
  0
LINE
  5
EA
330
B7
100
AcDbEntity
  8
STANDARD
  6
Continuous
 62
     7
100
AcDbLine
 10
93.36775949066288
 20
120.300479579418
 30
0.0
 11
93.36775949066288
 21
120.0484910804416
 31
0.0
  0
LINE
  5
EB
330
B7
100
AcDbEntity
  8
STANDARD
  6
Continuous
 62
     7
100
AcDbLine
 10
97.54322571793637
 20
121.1404412426729
 30
0.0
 11
97.6272218842616
 21
121.1404412426729
 31
0.0
  0
LINE
  5
EC
330
B7
100
AcDbEntity
  8
STANDARD
  6
Continuous
 62
     7
100
AcDbLine
 10
97.54322571793637
 20
119.2085294171868
 30
0.0
 11
97.6272218842616
 21
119.2085294171868
 31
0.0
  0
LINE
  5
ED
330
B7
100
AcDbEntity
  8
STANDARD
  6
Continuous
 62
     7
100
AcDbLine
 10
97.54322571793637
 20
121.1404412426729
 30
0.0
 11
97.54322571793637
 21
119.2085294171868
 31
0.0
  0
LINE
  5
EE
330
B7
100
AcDbEntity
  8
STANDARD
  6
Continuous
 62
     7
100
AcDbLine
 10
97.6272218842616
 20
121.1404412426729
 30
0.0
 11
97.6272218842616
 21
119.2085294171868
 31
0.0
  0
HATCH
  5
EF
330
B7
100
AcDbEntity
  8
Schraff_Dämmung
 62
     7
100
AcDbHatch
 10
0.0
 20
0.0
 30
0.0
210
0.0
220
0.0
230
1.0
  2
SOLID
 70
     1
 71
     0
 91
        8
 92
        0
 93
        4
 72
     1
 10
97.54322571793637
 20
119.2085294171868
 11
97.62722188426179
 21
119.2085294171868
 72
     1
 10
97.62722188426179
 20
119.2085294171868
 11
97.62722188426179
 21
119.8804987477906
 72
     1
 10
97.62722188426179
 20
119.8804987477906
 11
97.54322571793637
 21
119.8804987477906
 72
     1
 10
97.54322571793637
 20
119.8804987477906
 11
97.54322571793637
 21
119.2085294171868
 97
        0
 92
        0
 93
        4
 72
     1
 10
97.54322571793637
 20
119.8804987477906
 11
97.62722188426179
 21
119.8804987477906
 72
     1
 10
97.62722188426179
 20
119.8804987477906
 11
97.62722188426179
 21
120.4684719120691
 72
     1
 10
97.62722188426179
 20
120.4684719120691
 11
97.54322571793637
 21
120.4684719120691
 72
     1
 10
97.54322571793637
 20
120.4684719120691
 11
97.54322571793637
 21
119.8804987477906
 97
        0
 92
        0
 93
        4
 72
     1
 10
97.29210237947319
 20
119.9522482730657
 11
97.54322571793637
 21
119.8804987477906
 72
     1
 10
97.54322571793637
 20
119.8804987477906
 11
97.54322571793637
 21
120.4684719120691
 72
     1
 10
97.54322571793637
 20
120.4684719120691
 11
97.29210237947319
 21
120.396722386794
 72
     1
 10
97.29210237947319
 20
120.396722386794
 11
97.29210237947319
 21
119.9522482730659
 97
        0
 92
        0
 93
        4
 72
     1
 10
97.54322571793637
 20
120.4684719120691
 11
97.62722188426179
 21
120.4684719120691
 72
     1
 10
97.62722188426179
 20
120.4684719120691
 11
97.62722188426179
 21
121.1404412426729
 72
     1
 10
97.62722188426179
 20
121.1404412426729
 11
97.54322571793637
 21
121.1404412426729
 72
     1
 10
97.54322571793637
 20
121.1404412426729
 11
97.54322571793637
 21
120.4684719120691
 97
        0
 92
        0
 93
        4
 72
     1
 10
97.2333050630452
 20
119.9690475063309
 11
97.29210237947319
 21
119.9522482730657
 72
     1
 10
97.29210237947319
 20
119.9522482730659
 11
97.29210237947319
 21
120.396722386794
 72
     1
 10
97.29210237947319
 20
120.396722386794
 11
97.2333050630452
 21
120.3799231535288
 72
     1
 10
97.2333050630452
 20
120.3799231535288
 11
97.2333050630452
 21
119.9690475063309
 97
        0
 92
        0
 93
        4
 72
     1
 10
96.95525255365793
 20
120.0484910804416
 11
97.2333050630452
 21
119.9690475063309
 72
     1
 10
97.2333050630452
 20
119.9690475063309
 11
97.2333050630452
 21
120.3799231535288
 72
     1
 10
97.2333050630452
 20
120.3799231535288
 11
96.95525255365793
 21
120.3004795794181
 72
     1
 10
96.95525255365793
 20
120.3004795794181
 11
96.95525255365793
 21
120.0484910804416
 97
        0
 92
        0
 93
        4
 72
     1
 10
96.39334339979033
 20
120.0484910804416
 11
96.95525255365793
 21
120.0484910804416
 72
     1
 10
96.95525255365793
 20
120.0484910804416
 11
96.95525255365793
 21
120.3004795794181
 72
     1
 10
96.95525255365793
 20
120.3004795794181
 11
96.39334339979033
 21
120.3004795794181
 72
     1
 10
96.39334339979033
 20
120.3004795794181
 11
96.39334339979033
 21
120.0484910804416
 97
        0
 92
        0
 93
        4
 72
     1
 10
93.36775949066305
 20
120.0484910804416
 11
96.39334339979033
 21
120.0484910804416
 72
     1
 10
96.39334339979033
 20
120.0484910804416
 11
96.39334339979033
 21
120.3004795794181
 72
     1
 10
96.39334339979033
 20
120.3004795794181
 11
93.36775949066305
 21
120.3004795794181
 72
     1
 10
93.36775949066305
 20
120.3004795794181
 11
93.36775949066305
 21
120.0484910804416
 97
        0
 75
     0
 76
     1
 98
        0
  0
LINE
  5
F0
330
B7
100
AcDbEntity
  8
12_Linie
 62
     7
100
AcDbLine
 10
97.54322571793637
 20
121.369876376659
 30
0.0
 11
97.54322571793637
 21
106.4442530361415
 31
0.0
  0
LINE
  5
F1
330
B7
100
AcDbEntity
  8
12_Linie
 62
     7
100
AcDbLine
 10
97.54322571793637
 20
106.4442530361415
 30
0.0
 11
97.34322571793638
 21
106.4442530361415
 31
0.0
  0
HATCH
  5
F2
330
B7
100
AcDbEntity
  8
18_Schraffur
 62
   254
420
 13421772
100
AcDbHatch
 10
0.0
 20
0.0
 30
0.0
210
0.0
220
0.0
230
1.0
  2
SOLID
 70
     1
 71
     0
 91
        2
 92
        0
 93
        4
 72
     1
 10
97.54322571793637
 20
121.369876376659
 11
97.34322571793638
 21
121.369876376659
 72
     1
 10
97.34322571793638
 20
121.369876376659
 11
97.34322571793638
 21
120.4113290549263
 72
     1
 10
97.34322571793638
 20
120.4113290549263
 11
97.54322571793637
 21
120.4684719120691
 72
     1
 10
97.54322571793637
 20
120.4684719120691
 11
97.54322571793637
 21
121.369876376659
 97
        0
 92
        0
 93
        4
 72
     1
 10
97.54322571793637
 20
119.8804987477906
 11
97.34322571793638
 21
119.9376416049334
 72
     1
 10
97.34322571793638
 20
119.9376416049334
 11
97.34322571793638
 21
106.4442530361415
 72
     1
 10
97.34322571793638
 20
106.4442530361415
 11
97.54322571793637
 21
106.4442530361415
 72
     1
 10
97.54322571793637
 20
106.4442530361415
 11
97.54322571793637
 21
119.8804987477906
 97
        0
 75
     0
 76
     1
 98
        0
  0
LINE
  5
F3
330
B7
100
AcDbEntity
  8
Folie _ 3
  6
Continuous
 62
     7
370
    30
100
AcDbLine
 10
109.1070303370436
 20
123.5255623197103
 30
0.0
 11
111.3700957179364
 21
123.5260252028467
 31
0.0
  0
LINE
  5
F4
330
B7
100
AcDbEntity
  8
Folie _ 3
  6
Continuous
 62
     7
370
    30
100
AcDbLine
 10
97.54322571793637
 20
111.950898505346
 30
0.0
 11
109.1070303370436
 21
123.5255623197103
 31
0.0
  0
LINE
  5
F5
330
B7
100
AcDbEntity
  8
Folie _ 3
  6
Continuous
 62
     7
370
    30
100
AcDbLine
 10
109.0464857179364
 20
136.5105232429054
 30
0.0
 11
111.5662857179365
 21
136.5105232429054
 31
0.0
  0
TEXT
  5
F6
330
B7
100
AcDbEntity
  8
Folie _ 3
  6
Continuous
 62
     7
100
AcDbText
 10
112.5812757179365
 20
135.6378432429054
 30
0.0
 40
3.177854776382446
  1
VERBUNDBLECH
 41
1.071865229477616
  7
Style0
100
AcDbText
  0
LINE
  5
F7
330
B7
100
AcDbEntity
  8
Folie _ 3
  6
Continuous
 62
     7
370
    30
100
AcDbLine
 10
109.0464857179364
 20
136.5105232429054
 30
0.0
 11
96.24322571793637
 21
115.4691210145047
 31
0.0
  0
TEXT
  5
F8
330
B7
100
AcDbEntity
  8
Folie _ 3
  6
Continuous
 62
     7
100
AcDbText
 10
112.9156201787699
 20
129.44953051997
 30
0.0
 40
3.177854776382446
  1
COVERiT NOVOtan EPDM Plane 1,3/1,5mm
 41
1.071865229477616
  7
Style0
100
AcDbText
  0
LINE
  5
F9
330
B7
100
AcDbEntity
  8
Folie _ 3
  6
Continuous
 62
     7
370
    30
100
AcDbLine
 10
107.4636457179364
 20
130.4411427425362
 30
0.0
 11
111.5380857179365
 21
130.4464427425362
 31
0.0
  0
TEXT
  5
FA
330
B7
100
AcDbEntity
  8
Folie _ 3
  6
Continuous
 62
     7
100
AcDbText
 10
112.8354657179365
 20
122.4715352028466
 30
0.0
 40
3.177854776382446
  1
SCHUTZBLECH
 41
1.071865229477616
  7
Style0
100
AcDbText
  0
LINE
  5
FB
330
B7
100
AcDbEntity
  8
STANDARD
  6
Continuous
 62
     7
370
    60
100
AcDbLine
 10
91.07306961328523
 20
83.06987637665897
 30
0.0
 11
183.5432257179364
 21
83.06987637665897
 31
0.0
  0
LINE
  5
FC
330
B7
100
AcDbEntity
  8
12_Linie
 62
     7
370
    20
100
AcDbLine
 10
97.04322571793637
 20
93.56987637665897
 30
0.0
 11
183.5432257179364
 21
93.56987637665897
 31
0.0
  0
ARC
  5
FD
330
B7
100
AcDbEntity
  8
STANDARD
  6
Continuous
 62
     7
370
    20
100
AcDbCircle
 10
92.06444571793637
 20
89.17175250151631
 30
0.0
 40
1.0
100
AcDbArc
 50
180.006478
 51
269.9064780000001
  0
HATCH
  5
FE
330
B7
100
AcDbEntity
  8
Folie _ 3
  6
Continuous
 62
     7
370
    20
100
AcDbHatch
 10
0.0
 20
0.0
 30
0.0
210
0.0
220
0.0
230
1.0
  2
ANSI33
 70
     0
 71
     0
 91
        1
 92
        0
 93
        6
 72
     1
 10
76.72110816184322
 20
106.169876376659
 11
91.03539781095952
 21
106.169876376659
 72
     1
 10
91.03539781095952
 20
106.169876376659
 11
91.07306961328523
 21
83.06987637665897
 72
     1
 10
91.07306961328523
 20
83.06987637665897
 11
183.5432257179364
 21
83.06987637665897
 72
     1
 10
183.5432257179364
 20
83.06987637665897
 11
183.5432257179364
 21
62.16987637665898
 72
     1
 10
183.5432257179364
 20
62.16987637665898
 11
76.72110816184322
 21
62.16987637665898
 72
     1
 10
76.72110816184322
 20
62.16987637665898
 11
76.72110816184322
 21
106.169876376659
 97
        0
 75
     0
 76
     1
 52
0.0
 41
25.0
 77
     0
 78
     2
 53
45.0
 43
-695.7164518783104
 44
207.0384184299521
 45
-4.419417382415922
 46
4.419417382415921
 79
     0
 53
45.0
 43
-691.2970345033104
 44
207.0384184299521
 45
-4.419417382415922
 46
4.419417382415921
 79
     2
 49
3.125
 49
-1.5625
 98
        0
  0
TEXT
  5
FF
330
B7
100
AcDbEntity
  8
Folie _ 3
  6
Continuous
 62
     7
100
AcDbText
 10
157.8079508743525
 20
143.0614435657268
 30
0.0
 40
3.177854776382446
  1
- Stahlbetondecke
 41
1.071865229477616
  7
Style0
100
AcDbText
  0
TEXT
  5
100
330
B7
100
AcDbEntity
  8
Folie _ 3
  6
Continuous
 62
     7
100
AcDbText
 10
157.8079508743525
 20
148.5219971989447
 30
0.0
 40
3.177854776382446
  1
- Voranstrich
 41
1.071865229477616
  7
Style0
100
AcDbText
  0
TEXT
  5
101
330
B7
100
AcDbEntity
  8
Folie _ 3
  6
Continuous
 62
     7
100
AcDbText
 10
157.8079508743525
 20
153.9825508321626
 30
0.0
 40
3.177854776382446
  1
- Dampfsperre (*3)
 41
1.071865229477616
  7
Style0
100
AcDbText
  0
TEXT
  5
102
330
B7
100
AcDbEntity
  8
Folie _ 3
  6
Continuous
 62
     7
100
AcDbText
 10
157.8079508743525
 20
159.4431044653806
 30
0.0
 40
3.177854776382446
  1
- Wärmedämmung (*2)
 41
1.071865229477616
  7
Style0
100
AcDbText
  0
TEXT
  5
103
330
B7
100
AcDbEntity
  8
Folie _ 3
  6
Continuous
 62
    30
100
AcDbText
 10
157.8079508743525
 20
164.9036580985985
 30
0.0
 40
3.177854776382446
  1
- COVERiT NOVOtan EPDM Plane 1,3/ 1,5 mm
 41
0.966666678754029
  7
Style0
100
AcDbText
  0
TEXT
  5
104
330
B7
100
AcDbEntity
  8
Folie _ 3
  6
Continuous
 62
     7
100
AcDbText
 10
157.8079508743525
 20
170.3642117318164
 30
0.0
 40
3.177854776382446
  1
- Schutzlage (*1)
 41
1.071865229477616
  7
Style0
100
AcDbText
  0
TEXT
  5
105
330
B7
100
AcDbEntity
  8
Folie _ 3
  6
Continuous
 62
     7
100
AcDbText
 10
157.8079508743525
 20
175.8247653650346
 30
0.0
 40
3.177854776382446
  1
- Plattenbelag auf Abstandhalter
 41
1.071865229477616
  7
Style0
100
AcDbText
  0
LINE
  5
106
330
B7
100
AcDbEntity
  8
Folie _ 3
  6
Continuous
 62
     7
370
    30
100
AcDbLine
 10
157.8079508743525
 20
73.5930972525255
 30
0.0
 11
157.8079508743525
 21
177.2187463472911
 31
0.0
  0
ARC
  5
107
330
B7
100
AcDbEntity
  8
STANDARD
  6
Continuous
 62
     7
370
    20
100
AcDbCircle
 10
92.06444571793637
 20
89.18764931619461
 30
0.0
 40
1.0
100
AcDbArc
 50
90.09352199999995
 51
179.993522
  0
ARC
  5
108
330
B7
100
AcDbEntity
  8
Folie _ 3
  6
Continuous
 62
     7
370
    40
100
AcDbCircle
 10
97.54322571793637
 20
104.269876376659
 30
0.0
 40
0.2
100
AcDbArc
 50
179.9999999999967
 51
270.0
  0
ARC
  5
109
330
B7
100
AcDbEntity
  8
STANDARD
  6
Continuous
 62
     7
370
    20
100
AcDbCircle
 10
95.06933571793653
 20
88.18297544105206
 30
0.0
 40
1.0
100
AcDbArc
 50
13.12171421313775
 51
89.90647800000005
  0
HATCH
  5
10A
330
B7
100
AcDbEntity
  8
18_Schraffur
 62
   251
100
AcDbHatch
 10
0.0
 20
0.0
 30
0.0
210
0.0
220
0.0
230
1.0
  2
SOLID
 70
     1
 71
     0
 91
        1
 92
        0
 93
        6
 72
     1
 10
101.0432257179364
 20
84.06987637665897
 11
97.04322571793637
 21
84.06987637665897
 72
     1
 10
97.04322571793637
 20
84.06987637665897
 11
97.04322571793637
 21
88.06987637665897
 72
     1
 10
97.04322571793637
 20
88.06987637665897
 11
96.04322571793637
 21
88.06987637665897
 72
     1
 10
96.04322571793637
 20
88.06987637665897
 11
96.04322571793637
 21
83.06987637665897
 72
     1
 10
96.04322571793637
 20
83.06987637665897
 11
101.0432257179364
 21
83.06987637665897
 72
     1
 10
101.0432257179364
 20
83.06987637665897
 11
101.0432257179364
 21
84.06987637665897
 97
        0
 75
     0
 76
     1
 98
        0
  0
HATCH
  5
10B
330
B7
100
AcDbEntity
  8
18_Schraffur
 62
   251
100
AcDbHatch
 10
0.0
 20
0.0
 30
0.0
210
0.0
220
0.0
230
1.0
  2
SOLID
 70
     1
 71
     0
 91
        1
 92
        0
 93
        4
 72
     1
 10
121.0432257179364
 20
84.06987637665897
 11
111.0432257179364
 21
84.06987637665897
 72
     1
 10
111.0432257179364
 20
84.06987637665897
 11
111.0432257179364
 21
83.06987637665897
 72
     1
 10
111.0432257179364
 20
83.06987637665897
 11
121.0432257179364
 21
83.06987637665897
 72
     1
 10
121.0432257179364
 20
83.06987637665897
 11
121.0432257179364
 21
84.06987637665897
 97
        0
 75
     0
 76
     1
 98
        0
  0
HATCH
  5
10C
330
B7
100
AcDbEntity
  8
18_Schraffur
 62
   251
100
AcDbHatch
 10
0.0
 20
0.0
 30
0.0
210
0.0
220
0.0
230
1.0
  2
SOLID
 70
     1
 71
     0
 91
        1
 92
        0
 93
        4
 72
     1
 10
141.0432257179364
 20
84.06987637665897
 11
131.0432257179364
 21
84.06987637665897
 72
     1
 10
131.0432257179364
 20
84.06987637665897
 11
131.0432257179364
 21
83.06987637665897
 72
     1
 10
131.0432257179364
 20
83.06987637665897
 11
141.0432257179364
 21
83.06987637665897
 72
     1
 10
141.0432257179364
 20
83.06987637665897
 11
141.0432257179364
 21
84.06987637665897
 97
        0
 75
     0
 76
     1
 98
        0
  0
HATCH
  5
10D
330
B7
100
AcDbEntity
  8
18_Schraffur
 62
   251
100
AcDbHatch
 10
0.0
 20
0.0
 30
0.0
210
0.0
220
0.0
230
1.0
  2
SOLID
 70
     1
 71
     0
 91
        1
 92
        0
 93
        4
 72
     1
 10
161.0432257179364
 20
84.06987637665897
 11
151.0432257179364
 21
84.06987637665897
 72
     1
 10
151.0432257179364
 20
84.06987637665897
 11
151.0432257179364
 21
83.06987637665897
 72
     1
 10
151.0432257179364
 20
83.06987637665897
 11
161.0432257179364
 21
83.06987637665897
 72
     1
 10
161.0432257179364
 20
83.06987637665897
 11
161.0432257179364
 21
84.06987637665897
 97
        0
 75
     0
 76
     1
 98
        0
  0
LINE
  5
10E
330
B7
100
AcDbEntity
  8
STANDARD
  6
Continuous
 62
     7
370
    20
100
AcDbLine
 10
96.04322571793637
 20
88.06987637665897
 30
0.0
 11
97.04322571793637
 21
88.06987637665897
 31
0.0
  0
HATCH
  5
10F
330
B7
100
AcDbEntity
  8
18_Schraffur
 62
   251
100
AcDbHatch
 10
0.0
 20
0.0
 30
0.0
210
0.0
220
0.0
230
1.0
  2
SOLID
 70
     1
 71
     0
 91
        1
 92
        0
 93
        4
 72
     1
 10
181.0432257179364
 20
84.06987637665897
 11
171.0432257179364
 21
84.06987637665897
 72
     1
 10
171.0432257179364
 20
84.06987637665897
 11
171.0432257179364
 21
83.06987637665897
 72
     1
 10
171.0432257179364
 20
83.06987637665897
 11
181.0432257179364
 21
83.06987637665897
 72
     1
 10
181.0432257179364
 20
83.06987637665897
 11
181.0432257179364
 21
84.06987637665897
 97
        0
 75
     0
 76
     1
 98
        0
  0
LINE
  5
110
330
B7
100
AcDbEntity
  8
STANDARD
  6
Continuous
 62
     7
370
    20
100
AcDbLine
 10
101.0432257179364
 20
83.06987637665897
 30
0.0
 11
101.0432257179364
 21
84.06987637665897
 31
0.0
  0
LINE
  5
111
330
B7
100
AcDbEntity
  8
12_Linie
 62
     7
370
    20
100
AcDbLine
 10
141.8432263855088
 20
103.069876376659
 30
0.0
 11
141.8432263855088
 21
93.56987637665897
 31
0.0
  0
LINE
  5
112
330
B7
100
AcDbEntity
  8
STANDARD
  6
Continuous
 62
     7
370
    20
100
AcDbLine
 10
111.0432257179364
 20
83.06987637665897
 30
0.0
 11
111.0432257179364
 21
84.06987637665897
 31
0.0
  0
LINE
  5
113
330
B7
100
AcDbEntity
  8
STANDARD
  6
Continuous
 62
     7
370
    20
100
AcDbLine
 10
121.0432257179364
 20
83.06987637665897
 30
0.0
 11
121.0432257179364
 21
84.06987637665897
 31
0.0
  0
LINE
  5
114
330
B7
100
AcDbEntity
  8
STANDARD
  6
Continuous
 62
     7
370
    20
100
AcDbLine
 10
131.0432257179364
 20
83.06987637665897
 30
0.0
 11
131.0432257179364
 21
84.06987637665897
 31
0.0
  0
LINE
  5
115
330
B7
100
AcDbEntity
  8
STANDARD
  6
Continuous
 62
     7
370
    20
100
AcDbLine
 10
141.0432257179364
 20
83.06987637665897
 30
0.0
 11
141.0432257179364
 21
84.06987637665897
 31
0.0
  0
LINE
  5
116
330
B7
100
AcDbEntity
  8
STANDARD
  6
Continuous
 62
     7
370
    20
100
AcDbLine
 10
151.0432257179364
 20
83.06987637665897
 30
0.0
 11
151.0432257179364
 21
84.06987637665897
 31
0.0
  0
LINE
  5
117
330
B7
100
AcDbEntity
  8
STANDARD
  6
Continuous
 62
     7
370
    20
100
AcDbLine
 10
161.0432257179364
 20
83.06987637665897
 30
0.0
 11
161.0432257179364
 21
84.06987637665897
 31
0.0
  0
LINE
  5
118
330
B7
100
AcDbEntity
  8
STANDARD
  6
Continuous
 62
     7
370
    20
100
AcDbLine
 10
171.0432257179364
 20
83.06987637665897
 30
0.0
 11
171.0432257179364
 21
84.06987637665897
 31
0.0
  0
LINE
  5
119
330
B7
100
AcDbEntity
  8
STANDARD
  6
Continuous
 62
     7
370
    20
100
AcDbLine
 10
181.0432257179364
 20
83.06987637665897
 30
0.0
 11
181.0432257179364
 21
84.06987637665897
 31
0.0
  0
LINE
  5
11A
330
B7
100
AcDbEntity
  8
12_Linie
 62
     7
100
AcDbLine
 10
96.04322571793637
 20
104.069876376659
 30
0.0
 11
96.04322571793637
 21
121.619876376659
 31
0.0
  0
LINE
  5
11B
330
B7
100
AcDbEntity
  8
STANDARD
  6
Continuous
 62
     7
370
    20
100
AcDbLine
 10
97.04322571793637
 20
84.06987637665897
 30
0.0
 11
183.5432257179364
 21
84.06987637665897
 31
0.0
  0
HATCH
  5
11C
330
B7
100
AcDbEntity
  8
Schraff_Dämmung
 62
     7
100
AcDbHatch
 10
0.0
 20
0.0
 30
0.0
210
0.0
220
0.0
230
1.0
  2
SOLID
 70
     1
 71
     0
 91
        1
 92
        0
 93
        4
 72
     1
 10
96.34322571793638
 20
121.619876376659
 11
96.04322571793637
 21
121.619876376659
 72
     1
 10
96.04322571793637
 20
121.619876376659
 11
96.04322571793637
 21
104.069876376659
 72
     1
 10
96.04322571793637
 20
104.069876376659
 11
96.34322571793638
 21
104.069876376659
 72
     1
 10
96.34322571793638
 20
104.069876376659
 11
96.34322571793638
 21
121.619876376659
 97
        0
 75
     0
 76
     1
 98
        0
  0
ARC
  5
11D
330
B7
100
AcDbEntity
  8
14_Kreis
  6
Continuous
 62
     7
370
     0
100
AcDbCircle
 10
96.44322571793637
 20
103.169876376659
 30
0.0
 40
0.1
100
AcDbArc
 50
180.0
 51
270.0
  0
LINE
  5
11E
330
B7
100
AcDbEntity
  8
Folie _ 3
  6
Continuous
 62
     7
370
    40
100
AcDbLine
 10
97.54322571793637
 20
104.069876376659
 30
0.0
 11
183.5432257179364
 21
104.069876376659
 31
0.0
  0
LINE
  5
11F
330
B7
100
AcDbEntity
  8
Folie _ 3
  6
Continuous
 62
     7
370
    40
100
AcDbLine
 10
97.34322571793638
 20
121.369876376659
 30
0.0
 11
97.34322571793638
 21
104.269876376659
 31
0.0
  0
ARC
  5
120
330
B7
100
AcDbEntity
  8
STANDARD
  6
Continuous
 62
     7
370
    20
100
AcDbCircle
 10
96.13498045762772
 20
103.2363413382631
 30
0.0
 40
1.113215673749522
100
AcDbArc
 50
191.2716493912844
 51
265.2721379920774
  0
HATCH
  5
121
330
B7
100
AcDbEntity
  8
18_Schraffur
 62
   251
100
AcDbHatch
 10
0.0
 20
0.0
 30
0.0
210
0.0
220
0.0
230
1.0
  2
SOLID
 70
     1
 71
     0
 91
        1
 92
        0
 93
        4
 72
     1
 10
96.04322571793637
 20
121.619876376659
 11
95.04322571793637
 21
121.619876376659
 72
     1
 10
95.04322571793637
 20
121.619876376659
 11
95.04322571793637
 21
114.4317529578127
 72
     1
 10
95.04322571793637
 20
114.4317529578127
 11
96.04322571793637
 21
114.4317529578127
 72
     1
 10
96.04322571793637
 20
114.4317529578127
 11
96.04322571793637
 21
121.619876376659
 97
        0
 75
     0
 76
     1
 98
        0
  0
ARC
  5
122
330
B7
100
AcDbEntity
  8
STANDARD
  6
Continuous
 62
     7
370
    20
100
AcDbCircle
 10
96.04322571793637
 20
102.1269134658776
 30
0.0
 40
1.000000000000008
100
AcDbArc
 50
0.0
 51
45.1676928493163
  0
ARC
  5
123
330
B7
100
AcDbEntity
  8
STANDARD
  6
Continuous
 62
     7
370
    20
100
AcDbCircle
 10
96.96619645452047
 20
103.7366928451764
 30
0.0
 40
0.9266000409017052
100
AcDbArc
 50
185.0727682376
 51
256.3965745084109
  0
LINE
  5
124
330
B7
100
AcDbEntity
  8
STANDARD
  6
Continuous
 62
     7
370
    20
100
AcDbLine
 10
95.04322571793637
 20
104.4317529578127
 30
0.0
 11
96.04322571793637
 21
104.4317529578127
 31
0.0
  0
LINE
  5
125
330
B7
100
AcDbEntity
  8
12_Linie
 62
     7
370
    20
100
AcDbLine
 10
169.8432268027422
 20
93.56987637665878
 30
0.0
 11
169.8432268027422
 21
84.06987637665897
 31
0.0
  0
LINE
  5
126
330
B7
100
AcDbEntity
  8
12_Linie
 62
     7
100
AcDbLine
 10
95.04322571793637
 20
114.4317529578127
 30
0.0
 11
96.04322571793637
 21
114.4317529578127
 31
0.0
  0
HATCH
  5
127
330
B7
100
AcDbEntity
  8
Folie _ 3
  6
Continuous
 62
    30
100
AcDbHatch
 10
0.0
 20
0.0
 30
0.0
210
0.0
220
0.0
230
1.0
  2
SOLID
 70
     1
 71
     0
 91
        1
 92
        0
 93
       11
 72
     1
 10
183.5432257179364
 20
104.069876376659
 11
97.54322571793637
 21
104.069876376659
 72
     2
 10
97.54322571793637
 20
104.269876376659
 40
0.2
 50
90.0
 51
180.0000000000004
 73
     0
 72
     1
 10
97.34322571793638
 20
104.269876376659
 11
97.34322571793638
 21
115.5775453062566
 72
     1
 10
97.34322571793638
 20
115.5775453062566
 11
97.34322571793638
 21
121.369876376659
 72
     1
 10
97.34322571793638
 20
121.369876376659
 11
96.79322571793637
 21
121.369876376659
 72
     1
 10
96.79322571793637
 20
121.369876376659
 11
96.79322571793637
 21
121.619876376659
 72
     1
 10
96.79322571793637
 20
121.619876376659
 11
96.34322571793638
 21
121.619876376659
 72
     1
 10
96.34322571793638
 20
121.619876376659
 11
96.34322571793638
 21
103.169876376659
 72
     2
 10
96.44322571793637
 20
103.169876376659
 40
0.1
 50
180.0
 51
270.0
 73
     1
 72
     1
 10
96.44322571793637
 20
103.069876376659
 11
183.5432257179364
 21
103.069876376659
 72
     1
 10
183.5432257179364
 20
103.069876376659
 11
183.5432257179364
 21
104.069876376659
 97
        0
 75
     0
 76
     1
 98
        0
  0
HATCH
  5
128
330
B7
100
AcDbEntity
  8
Folie _ 3
  6
Continuous
 62
    50
100
AcDbHatch
 10
0.0
 20
0.0
 30
0.0
210
0.0
220
0.0
230
1.0
  2
SOLID
 70
     1
 71
     0
 91
        1
 92
        0
 93
        4
 72
     1
 10
97.04322571793637
 20
103.069876376659
 11
97.04322571793637
 21
93.56987637665934
 72
     1
 10
97.04322571793637
 20
93.56987637665934
 11
183.5432257179364
 21
93.56987637665897
 72
     1
 10
183.5432257179364
 20
93.56987637665897
 11
183.5432257179364
 21
103.069876376659
 72
     1
 10
183.5432257179364
 20
103.069876376659
 11
97.04322571793637
 21
103.069876376659
 97
        0
 75
     0
 76
     1
 98
        0
  0
HATCH
  5
129
330
B7
100
AcDbEntity
  8
Folie _ 3
  6
Continuous
 62
    50
100
AcDbHatch
 10
0.0
 20
0.0
 30
0.0
210
0.0
220
0.0
230
1.0
  2
SOLID
 70
     1
 71
     0
 91
        1
 92
        0
 93
        4
 72
     1
 10
97.04322571793637
 20
93.56987637665897
 11
97.04322571793637
 21
84.06987637665897
 72
     1
 10
97.04322571793637
 20
84.06987637665897
 11
183.5432257179364
 21
84.06987637665897
 72
     1
 10
183.5432257179364
 20
84.06987637665897
 11
183.5432257179364
 21
93.56987637665897
 72
     1
 10
183.5432257179364
 20
93.56987637665897
 11
97.04322571793637
 21
93.56987637665897
 97
        0
 75
     0
 76
     1
 98
        0
  0
POLYLINE
  5
12A
330
B7
100
AcDbEntity
  8
Folie _ 3
  6
Continuous
 62
     7
370
    50
100
AcDb2dPolyline
 66
     1
 10
0.0
 20
0.0
 30
0.0
  0
VERTEX
  5
12B
330
12A
100
AcDbEntity
  8
Folie _ 3
  6
Continuous
 62
     7
370
    50
100
AcDbVertex
100
AcDb2dVertex
 10
0.0
 20
210.0
 30
0.0
  0
VERTEX
  5
12C
330
12A
100
AcDbEntity
  8
Folie _ 3
  6
Continuous
 62
     7
370
    50
100
AcDbVertex
100
AcDb2dVertex
 10
0.0
 20
0.0
 30
0.0
  0
SEQEND
  5
12D
330
12A
100
AcDbEntity
  8
Folie _ 3
  6
Continuous
 62
     7
370
    50
  0
POLYLINE
  5
12E
330
B7
100
AcDbEntity
  8
Folie _ 3
  6
Continuous
 62
     7
370
    50
100
AcDb2dPolyline
 66
     1
 10
0.0
 20
0.0
 30
0.0
  0
VERTEX
  5
12F
330
12E
100
AcDbEntity
  8
Folie _ 3
  6
Continuous
 62
     7
370
    50
100
AcDbVertex
100
AcDb2dVertex
 10
0.0
 20
0.0
 30
0.0
  0
VERTEX
  5
130
330
12E
100
AcDbEntity
  8
Folie _ 3
  6
Continuous
 62
     7
370
    50
100
AcDbVertex
100
AcDb2dVertex
 10
296.9999999999998
 20
0.0
 30
0.0
  0
SEQEND
  5
131
330
12E
100
AcDbEntity
  8
Folie _ 3
  6
Continuous
 62
     7
370
    50
  0
POLYLINE
  5
132
330
B7
100
AcDbEntity
  8
Folie _ 3
  6
Continuous
 62
     7
370
    50
100
AcDb2dPolyline
 66
     1
 10
0.0
 20
0.0
 30
0.0
  0
VERTEX
  5
133
330
132
100
AcDbEntity
  8
Folie _ 3
  6
Continuous
 62
     7
370
    50
100
AcDbVertex
100
AcDb2dVertex
 10
296.9999999999998
 20
0.0
 30
0.0
  0
VERTEX
  5
134
330
132
100
AcDbEntity
  8
Folie _ 3
  6
Continuous
 62
     7
370
    50
100
AcDbVertex
100
AcDb2dVertex
 10
296.9999999999998
 20
210.0
 30
0.0
  0
SEQEND
  5
135
330
132
100
AcDbEntity
  8
Folie _ 3
  6
Continuous
 62
     7
370
    50
  0
POLYLINE
  5
136
330
B7
100
AcDbEntity
  8
Folie _ 3
  6
Continuous
 62
     7
370
    50
100
AcDb2dPolyline
 66
     1
 10
0.0
 20
0.0
 30
0.0
  0
VERTEX
  5
137
330
136
100
AcDbEntity
  8
Folie _ 3
  6
Continuous
 62
     7
370
    50
100
AcDbVertex
100
AcDb2dVertex
 10
296.9999999999998
 20
210.0
 30
0.0
  0
VERTEX
  5
138
330
136
100
AcDbEntity
  8
Folie _ 3
  6
Continuous
 62
     7
370
    50
100
AcDbVertex
100
AcDb2dVertex
 10
0.0
 20
210.0
 30
0.0
  0
SEQEND
  5
139
330
136
100
AcDbEntity
  8
Folie _ 3
  6
Continuous
 62
     7
370
    50
  0
POLYLINE
  5
13A
330
B7
100
AcDbEntity
  8
Folie _ 3
  6
Continuous
 62
     7
370
    50
100
AcDb2dPolyline
 66
     1
 10
0.0
 20
0.0
 30
0.0
 70
     1
  0
VERTEX
  5
13B
330
13A
100
AcDbEntity
  8
Folie _ 3
  6
Continuous
 62
     7
370
    50
100
AcDbVertex
100
AcDb2dVertex
 10
25.0
 20
205.0
 30
0.0
  0
VERTEX
  5
13C
330
13A
100
AcDbEntity
  8
Folie _ 3
  6
Continuous
 62
     7
370
    50
100
AcDbVertex
100
AcDb2dVertex
 10
291.9999999999998
 20
205.0
 30
0.0
  0
VERTEX
  5
13D
330
13A
100
AcDbEntity
  8
Folie _ 3
  6
Continuous
 62
     7
370
    50
100
AcDbVertex
100
AcDb2dVertex
 10
291.9999999999998
 20
5.0
 30
0.0
  0
VERTEX
  5
13E
330
13A
100
AcDbEntity
  8
Folie _ 3
  6
Continuous
 62
     7
370
    50
100
AcDbVertex
100
AcDb2dVertex
 10
25.0
 20
5.0
 30
0.0
  0
SEQEND
  5
13F
330
13A
100
AcDbEntity
  8
Folie _ 3
  6
Continuous
 62
     7
370
    50
  0
POLYLINE
  5
140
330
B7
100
AcDbEntity
  8
Folie _ 3
  6
Continuous
 62
     7
370
    50
100
AcDb2dPolyline
 66
     1
 10
0.0
 20
0.0
 30
0.0
  0
VERTEX
  5
141
330
140
100
AcDbEntity
  8
Folie _ 3
  6
Continuous
 62
     7
370
    50
100
AcDbVertex
100
AcDb2dVertex
 10
157.0000000000002
 20
5.0
 30
0.0
  0
VERTEX
  5
142
330
140
100
AcDbEntity
  8
Folie _ 3
  6
Continuous
 62
     7
370
    50
100
AcDbVertex
100
AcDb2dVertex
 10
157.0000000000002
 20
50.0
 30
0.0
  0
VERTEX
  5
143
330
140
100
AcDbEntity
  8
Folie _ 3
  6
Continuous
 62
     7
370
    50
100
AcDbVertex
100
AcDb2dVertex
 10
291.9999999999998
 20
50.0
 30
0.0
  0
SEQEND
  5
144
330
140
100
AcDbEntity
  8
Folie _ 3
  6
Continuous
 62
     7
370
    50
  0
LINE
  5
145
330
B7
100
AcDbEntity
  8
Folie _ 3
  6
Continuous
 62
     7
100
AcDbLine
 10
157.0000000000002
 20
15.0
 30
0.0
 11
291.9999999999998
 21
15.0
 31
0.0
  0
LINE
  5
146
330
B7
100
AcDbEntity
  8
Folie _ 3
  6
Continuous
 62
     7
100
AcDbLine
 10
157.0000000000002
 20
35.0
 30
0.0
 11
291.9999999999998
 21
35.0
 31
0.0
  0
LINE
  5
147
330
B7
100
AcDbEntity
  8
Folie _ 3
  6
Continuous
 62
     7
100
AcDbLine
 10
184.0000000000002
 20
15.0
 30
0.0
 11
184.0000000000002
 21
5.0
 31
0.0
  0
LINE
  5
148
330
B7
100
AcDbEntity
  8
Folie _ 3
  6
Continuous
 62
     7
100
AcDbLine
 10
211.0000000000002
 20
15.0
 30
0.0
 11
211.0000000000002
 21
5.0
 31
0.0
  0
LINE
  5
149
330
B7
100
AcDbEntity
  8
Folie _ 3
  6
Continuous
 62
     7
100
AcDbLine
 10
238.0000000000002
 20
15.0
 30
0.0
 11
238.0000000000002
 21
5.0
 31
0.0
  0
LINE
  5
14A
330
B7
100
AcDbEntity
  8
Folie _ 3
  6
Continuous
 62
     7
100
AcDbLine
 10
265.0000000000002
 20
15.0
 30
0.0
 11
265.0000000000002
 21
5.0
 31
0.0
  0
TEXT
  5
14B
330
B7
100
AcDbEntity
  8
Folie _ 3
  6
Continuous
 62
     7
100
AcDbText
 10
159.0000000000002
 20
47.0
 30
0.0
 40
2.269896030426025
  1
PLANINHALT:
 41
0.9569915226000473
  7
Style0
100
AcDbText
  0
TEXT
  5
14C
330
B7
100
AcDbEntity
  8
Folie _ 3
  6
Continuous
 62
     7
100
AcDbText
 10
159.0000000000002
 20
12.0
 30
0.0
 40
2.269896030426025
  1
MASSSTAB:
 41
1.016258694886636
  7
Style0
100
AcDbText
  0
TEXT
  5
14D
330
B7
100
AcDbEntity
  8
Folie _ 3
  6
Continuous
 62
     7
100
AcDbText
 10
186.0000000000002
 20
12.0
 30
0.0
 40
2.269896030426025
  1
ERSTELLT:
 41
1.016258694886636
  7
Style0
100
AcDbText
  0
TEXT
  5
14E
330
B7
100
AcDbEntity
  8
Folie _ 3
  6
Continuous
 62
     7
100
AcDbText
 10
213.0000000000002
 20
12.0
 30
0.0
 40
2.269896030426025
  1
BLATT NR.:
 41
1.016258694886636
  7
Style0
100
AcDbText
  0
TEXT
  5
14F
330
B7
100
AcDbEntity
  8
Folie _ 3
  6
Continuous
 62
     7
100
AcDbText
 10
240.0000000000002
 20
12.0
 30
0.0
 40
2.269896030426025
  1
DETAIL NR.:
 41
1.016258694886636
  7
Style0
100
AcDbText
  0
TEXT
  5
150
330
B7
100
AcDbEntity
  8
Folie _ 3
  6
Continuous
 62
     7
100
AcDbText
 10
267.0000000000002
 20
12.0
 30
0.0
 40
2.269896030426025
  1
GEZEICHNET:
 41
1.016258694886636
  7
Style0
100
AcDbText
  0
TEXT
  5
151
330
B7
100
AcDbEntity
  8
Folie _ 3
  6
Continuous
 62
     7
100
AcDbText
 10
159.1274604630973
 20
32.40944652925626
 30
0.0
 40
0.9079585075378418
  1
Die oben dargestellte Detailzeichnung bezieht sich auf eine Regelkonstruktion, d.h. sie ist zu überprüfen,
 41
0.9399217426440335
  7
Style0
100
AcDbText
  0
TEXT
  5
152
330
B7
100
AcDbEntity
  8
Folie _ 3
  6
Continuous
 62
     7
100
AcDbText
 10
159.1274604630973
 20
30.49214549119404
 30
0.0
 40
0.9079585075378418
  1
objektgebunden anzupassen, abzustimmen und gegebenfalls zu ergänzen.
 41
0.9399217426440335
  7
Style0
100
AcDbText
  0
TEXT
  5
153
330
B7
100
AcDbEntity
  8
Folie _ 3
  6
Continuous
 62
     7
100
AcDbText
 10
159.1274604630973
 20
28.57484445313185
 30
0.0
 40
0.9079585075378418
  1
Die empfohlenen Anwendungsbereiche sind auf Grund der Erfahrungen und Normen ausgearbeitet.
 41
0.9399217426440335
  7
Style0
100
AcDbText
  0
TEXT
  5
154
330
B7
100
AcDbEntity
  8
Folie _ 3
  6
Continuous
 62
     7
100
AcDbText
 10
159.1274604630973
 20
26.65754341506943
 30
0.0
 40
0.9079585075378418
  1
Eine Verbindlichkeit kann hieraus nicht abgeleitet werden. Technische Änderungen sind vorbehalten.
 41
0.9399217426440335
  7
Style0
100
AcDbText
  0
TEXT
  5
155
330
B7
100
AcDbEntity
  8
Folie _ 3
  6
Continuous
 62
     7
100
AcDbText
 10
159.1274604630973
 20
24.74024237700704
 30
0.0
 40
0.9079585075378418
  1
Die vorliegende Detailzeichnung verliert bei Erscheinen einer Neuausgabe ihre Gültigkeit.
 41
0.9399217426440335
  7
Style0
100
AcDbText
  0
TEXT
  5
156
330
B7
100
AcDbEntity
  8
Folie _ 3
  6
Continuous
 62
     7
100
AcDbText
 10
159.1274604630973
 20
22.82294133894501
 30
0.0
 40
0.9079585075378418
  1
Jede Haftung von COVERiT bei leichter Fahrlässigkeit sowie für Beratung ohne nachfolgende Warenlieferung
 41
0.9399217426440335
  7
Style0
100
AcDbText
  0
TEXT
  5
157
330
B7
100
AcDbEntity
  8
Folie _ 3
  6
Continuous
 62
     7
100
AcDbText
 10
159.1274604630973
 20
20.90564030088262
 30
0.0
 40
0.9079585075378418
  1
von COVERiT und gegenüber Dritten (andere als COVERiT-Vertragspartner) ist ausgeschlossen.
 41
0.9399217426440335
  7
Style0
100
AcDbText
  0
TEXT
  5
158
330
B7
100
AcDbEntity
  8
Folie _ 3
  6
Continuous
 62
     7
100
AcDbText
 10
159.1274604630973
 20
18.9883392628202
 30
0.0
 40
0.9079585075378418
  1
Verkauf und Lieferung von COVERiT erfolgt ausschließlich zu den allgemeinen Liefer-, Zahlungs- und Gewährleistungsbedingungen von COVERiT.
 41
0.9399217426440335
  7
Style0
100
AcDbText
  0
TEXT
  5
159
330
B7
100
AcDbEntity
  8
Folie _ 3
  6
Continuous
 62
     7
100
AcDbText
 10
159.1274604630973
 20
17.07103822475801
 30
0.0
 40
0.9079585075378418
  1
Es gilt österreichisches Recht (ohne UN Kaufrecht). Gerichtsstand ist Wels.
 41
0.9399217426440335
  7
Style0
100
AcDbText
  0
TEXT
  5
15A
330
B7
100
AcDbEntity
  8
Folie _ 3
  6
Continuous
 62
     7
100
AcDbText
 10
159.0000000000002
 20
6.000000000000171
 30
0.0
 40
3.177854776382446
  1
1:1
 41
0.647972360387026
  7
Style1
100
AcDbText
  0
TEXT
  5
15B
330
B7
100
AcDbEntity
  8
Folie _ 3
  6
Continuous
 62
     7
100
AcDbText
 10
186.0000000000002
 20
6.000000000000171
 30
0.0
 40
3.177854776382446
  1
07/15
 41
0.647972360387026
  7
Style1
100
AcDbText
  0
TEXT
  5
15C
330
B7
100
AcDbEntity
  8
Folie _ 3
  6
Continuous
 62
     7
100
AcDbText
 10
213.0000000000002
 20
6.000000000000171
 30
0.0
 40
3.177854776382446
  1
08
 41
0.647972360387026
  7
Style1
100
AcDbText
  0
TEXT
  5
15D
330
B7
100
AcDbEntity
  8
Folie _ 3
  6
Continuous
 62
     7
100
AcDbText
 10
240.0000000000002
 20
6.000000000000171
 30
0.0
 40
3.177854776382446
  1
08
 41
0.647972360387026
  7
Style1
100
AcDbText
  0
TEXT
  5
15E
330
B7
100
AcDbEntity
  8
Folie _ 3
  6
Continuous
 62
     7
100
AcDbText
 10
267.0000000000002
 20
6.000000000000171
 30
0.0
 40
3.177854776382446
  1
TR/AP
 41
1.081452562675454
  7
Style0
100
AcDbText
  0
LINE
  5
15F
330
B7
100
AcDbEntity
  8
Folie _ 3
  6
Continuous
 62
     7
100
AcDbLine
 10
244.4801761815237
 20
35.0
 30
0.0
 11
244.4801761815237
 21
15.0
 31
0.0
  0
TEXT
  5
160
330
B7
100
AcDbEntity
  8
Folie _ 3
  6
Continuous
 62
     7
100
AcDbText
 10
158.2682329170477
 20
40.12999610452277
 30
0.0
 40
3.177854776382446
  1
Türanschluss- Plane lose verlegt
 41
1.021345735900753
  7
Style0
100
AcDbText
  0
LINE
  5
161
330
B7
100
AcDbEntity
  8
STANDARD
  6
Continuous
 62
     7
370
    20
100
AcDbLine
 10
95.54322571793637
 20
128.369876376659
 30
0.0
 11
95.54322571793637
 21
125.669876376659
 31
0.0
  0
LINE
  5
162
330
B7
100
AcDbEntity
  8
STANDARD
  6
Continuous
 62
     7
370
    20
100
AcDbLine
 10
95.84322571793638
 20
127.369876376659
 30
0.0
 11
95.84322571793638
 21
125.369876376659
 31
0.0
  0
LINE
  5
163
330
B7
100
AcDbEntity
  8
STANDARD
  6
Continuous
 62
     7
370
    20
100
AcDbLine
 10
95.84322571793638
 20
127.369876376659
 30
0.0
 11
95.54322571793637
 21
127.369876376659
 31
0.0
  0
LINE
  5
164
330
B7
100
AcDbEntity
  8
STANDARD
  6
Continuous
 62
     7
370
    20
100
AcDbLine
 10
95.54322571793637
 20
125.669876376659
 30
0.0
 11
94.48468571793637
 21
126.014396376659
 31
0.0
  0
LINE
  5
165
330
B7
100
AcDbEntity
  8
STANDARD
  6
Continuous
 62
     7
370
    20
100
AcDbLine
 10
94.48468571793637
 20
126.014396376659
 30
0.0
 11
93.84322571793638
 21
127.369876376659
 31
0.0
  0
LINE
  5
166
330
B7
100
AcDbEntity
  8
STANDARD
  6
Continuous
 62
     7
370
    20
100
AcDbLine
 10
93.84322571793638
 20
127.369876376659
 30
0.0
 11
93.54322571793637
 21
127.369876376659
 31
0.0
  0
LINE
  5
167
330
B7
100
AcDbEntity
  8
STANDARD
  6
Continuous
 62
     7
370
    20
100
AcDbLine
 10
94.26884571793636
 20
125.769156376659
 30
0.0
 11
93.84322571793638
 21
126.668536376659
 31
0.0
  0
LINE
  5
168
330
B7
100
AcDbEntity
  8
STANDARD
  6
Continuous
 62
     7
370
    20
100
AcDbLine
 10
94.57388571793636
 20
125.669876376659
 30
0.0
 11
94.26884571793636
 21
125.769156376659
 31
0.0
  0
LINE
  5
169
330
B7
100
AcDbEntity
  8
STANDARD
  6
Continuous
 62
     7
370
    20
100
AcDbLine
 10
93.34322571793638
 20
125.069876376659
 30
0.0
 11
93.04322571793637
 21
125.069876376659
 31
0.0
  0
LINE
  5
16A
330
B7
100
AcDbEntity
  8
STANDARD
  6
Continuous
 62
     7
370
    20
100
AcDbLine
 10
94.57388571793636
 20
125.669876376659
 30
0.0
 11
93.34322571793638
 21
125.669876376659
 31
0.0
  0
LINE
  5
16B
330
B7
100
AcDbEntity
  8
STANDARD
  6
Continuous
 62
     7
370
    20
100
AcDbLine
 10
93.34322571793638
 20
125.069876376659
 30
0.0
 11
93.34322571793638
 21
125.369876376659
 31
0.0
  0
LINE
  5
16C
330
B7
100
AcDbEntity
  8
STANDARD
  6
Continuous
 62
     7
370
    20
100
AcDbLine
 10
95.84322571793638
 20
125.369876376659
 30
0.0
 11
93.34322571793638
 21
125.369876376659
 31
0.0
  0
LINE
  5
16D
330
B7
100
AcDbEntity
  8
STANDARD
  6
Continuous
 62
     7
370
    20
100
AcDbLine
 10
96.72779571793636
 20
127.9254963766589
 30
0.0
 11
96.72779571793636
 21
127.7721263766589
 31
0.0
  0
LINE
  5
16E
330
B7
100
AcDbEntity
  8
STANDARD
  6
Continuous
 62
     7
370
    20
100
AcDbLine
 10
88.54322571793637
 20
124.826126376659
 30
0.0
 11
88.54322571793637
 21
131.326126376659
 31
0.0
  0
LINE
  5
16F
330
B7
100
AcDbEntity
  8
STANDARD
  6
Continuous
 62
     7
370
    20
100
AcDbLine
 10
95.54322571793637
 20
131.326126376659
 30
0.0
 11
95.54322571793637
 21
128.369876376659
 31
0.0
  0
LINE
  5
170
330
B7
100
AcDbEntity
  8
STANDARD
  6
Continuous
 62
     7
370
    20
100
AcDbLine
 10
93.84322571793638
 20
126.2147963766589
 30
0.0
 11
93.34322571793638
 21
126.2147963766589
 31
0.0
  0
LINE
  5
171
330
B7
100
AcDbEntity
  8
STANDARD
  6
Continuous
 62
     7
370
    20
100
AcDbLine
 10
93.54322571793637
 20
126.5147963766589
 30
0.0
 11
93.04322571793637
 21
126.5147963766589
 31
0.0
  0
LINE
  5
172
330
B7
100
AcDbEntity
  8
STANDARD
  6
Continuous
 62
     7
370
    20
100
AcDbLine
 10
93.54322571793637
 20
127.369876376659
 30
0.0
 11
93.54322571793637
 21
126.5147963766589
 31
0.0
  0
LINE
  5
173
330
B7
100
AcDbEntity
  8
STANDARD
  6
Continuous
 62
     7
370
    20
100
AcDbLine
 10
93.84322571793638
 20
126.668536376659
 30
0.0
 11
93.84322571793638
 21
126.2147963766589
 31
0.0
  0
LINE
  5
174
330
B7
100
AcDbEntity
  8
STANDARD
  6
Continuous
 62
     7
370
    20
100
AcDbLine
 10
93.04322571793637
 20
125.069876376659
 30
0.0
 11
93.04322571793637
 21
126.5147963766589
 31
0.0
  0
LINE
  5
175
330
B7
100
AcDbEntity
  8
STANDARD
  6
Continuous
 62
     7
370
    20
100
AcDbLine
 10
93.34322571793638
 20
125.669876376659
 30
0.0
 11
93.34322571793638
 21
126.2147963766589
 31
0.0
  0
LINE
  5
176
330
B7
100
AcDbEntity
  8
STANDARD
  6
Continuous
 62
     7
370
    20
100
AcDbLine
 10
93.04322571793637
 20
126.774986376659
 30
0.0
 11
93.04322571793637
 21
128.296186376659
 31
0.0
  0
LINE
  5
177
330
B7
100
AcDbEntity
  8
STANDARD
  6
Continuous
 62
     7
370
    20
100
AcDbLine
 10
93.34884571793646
 20
128.296186376659
 30
0.0
 11
93.04322571793637
 21
128.296186376659
 31
0.0
  0
LINE
  5
178
330
B7
100
AcDbEntity
  8
STANDARD
  6
Continuous
 62
     7
370
    20
100
AcDbLine
 10
93.34884571793646
 20
127.796186376659
 30
0.0
 11
93.34884571793646
 21
128.296186376659
 31
0.0
  0
LINE
  5
179
330
B7
100
AcDbEntity
  8
STANDARD
  6
Continuous
 62
     7
370
    20
100
AcDbLine
 10
93.19603571793651
 20
126.774986376659
 30
0.0
 11
93.19603571793651
 21
128.296186376659
 31
0.0
  0
LINE
  5
17A
330
B7
100
AcDbEntity
  8
STANDARD
  6
Continuous
 62
     7
370
    20
100
AcDbLine
 10
93.19603571793651
 20
127.614786376659
 30
0.0
 11
93.43054571793637
 21
127.4278063766589
 31
0.0
  0
LINE
  5
17B
330
B7
100
AcDbEntity
  8
STANDARD
  6
Continuous
 62
     7
370
    20
100
AcDbLine
 10
93.19603571793651
 20
127.230726376659
 30
0.0
 11
93.42043571793639
 21
127.038696376659
 31
0.0
  0
LINE
  5
17C
330
B7
100
AcDbEntity
  8
STANDARD
  6
Continuous
 62
     7
370
    20
100
AcDbLine
 10
90.04322571793637
 20
124.826126376659
 30
0.0
 11
90.04322571793637
 21
125.862976376659
 31
0.0
  0
LINE
  5
17D
330
B7
100
AcDbEntity
  8
STANDARD
  6
Continuous
 62
     7
370
    20
100
AcDbLine
 10
90.24322571793637
 20
125.862976376659
 30
0.0
 11
90.04322571793637
 21
125.862976376659
 31
0.0
  0
LINE
  5
17E
330
B7
100
AcDbEntity
  8
STANDARD
  6
Continuous
 62
     7
370
    20
100
AcDbLine
 10
90.04322571793637
 20
124.826126376659
 30
0.0
 11
88.54322571793637
 21
124.826126376659
 31
0.0
  0
LINE
  5
17F
330
B7
100
AcDbEntity
  8
STANDARD
  6
Continuous
 62
     7
370
    20
100
AcDbLine
 10
90.22930571793641
 20
124.826126376659
 30
0.0
 11
90.22930571793641
 21
125.862976376659
 31
0.0
  0
LINE
  5
180
330
B7
100
AcDbEntity
  8
STANDARD
  6
Continuous
 62
     7
370
    20
100
AcDbLine
 10
90.22930571793641
 20
125.6659263766589
 30
0.0
 11
90.46381571793646
 21
125.478946376659
 31
0.0
  0
LINE
  5
181
330
B7
100
AcDbEntity
  8
STANDARD
  6
Continuous
 62
     7
370
    20
100
AcDbLine
 10
90.22930571793641
 20
125.2818663766589
 30
0.0
 11
90.45370571793647
 21
125.089836376659
 31
0.0
  0
LINE
  5
182
330
B7
100
AcDbEntity
  8
STANDARD
  6
Continuous
 62
     7
370
    20
100
AcDbLine
 10
91.24322571793637
 20
132.662156376659
 30
0.0
 11
92.84322571793638
 21
132.662156376659
 31
0.0
  0
LINE
  5
183
330
B7
100
AcDbEntity
  8
STANDARD
  6
Continuous
 62
     7
370
    20
100
AcDbLine
 10
92.84322571793638
 20
131.326126376659
 30
0.0
 11
91.24322571793637
 21
132.662156376659
 31
0.0
  0
LINE
  5
184
330
B7
100
AcDbEntity
  8
STANDARD
  6
Continuous
 62
     7
370
    20
100
AcDbLine
 10
92.84322571793638
 20
132.662156376659
 30
0.0
 11
91.24322571793637
 21
131.326126376659
 31
0.0
  0
LINE
  5
185
330
B7
100
AcDbEntity
  8
STANDARD
  6
Continuous
 62
     7
370
    20
100
AcDbLine
 10
92.04322571793637
 20
121.169876376659
 30
0.0
 11
74.82338571793643
 21
121.169876376659
 31
0.0
  0
LINE
  5
186
330
B7
100
AcDbEntity
  8
STANDARD
  6
Continuous
 62
     7
370
    20
100
AcDbLine
 10
92.04322571793637
 20
120.169876376659
 30
0.0
 11
74.82338571793643
 21
120.169876376659
 31
0.0
  0
LINE
  5
187
330
B7
100
AcDbEntity
  8
STANDARD
  6
Continuous
 62
     7
370
    20
100
AcDbLine
 10
92.04322571793637
 20
114.169876376659
 30
0.0
 11
74.82338571793643
 21
114.169876376659
 31
0.0
  0
LINE
  5
188
330
B7
100
AcDbEntity
  8
STANDARD
  6
Continuous
 62
     7
370
    20
100
AcDbLine
 10
92.04322571793637
 20
110.669876376659
 30
0.0
 11
74.82338571793643
 21
110.669876376659
 31
0.0
  0
LINE
  5
189
330
B7
100
AcDbEntity
  8
STANDARD
  6
Continuous
 62
     7
370
    20
100
AcDbLine
 10
92.04322571793637
 20
121.369876376659
 30
0.0
 11
90.54322571793637
 21
121.369876376659
 31
0.0
  0
LINE
  5
18A
330
B7
100
AcDbEntity
  8
STANDARD
  6
Continuous
 62
     7
370
    20
100
AcDbLine
 10
97.54322571793637
 20
126.869876376659
 30
0.0
 11
97.54322571793637
 21
121.369876376659
 31
0.0
  0
LINE
  5
18B
330
B7
100
AcDbEntity
  8
Folie _ 3
  6
Continuous
 62
     7
370
    40
100
AcDbLine
 10
97.54322571793637
 20
121.369876376659
 30
0.0
 11
96.79322571793637
 21
121.369876376659
 31
0.0
  0
LINE
  5
18C
330
B7
100
AcDbEntity
  8
STANDARD
  6
Continuous
 62
     7
370
    20
100
AcDbLine
 10
93.04322571793637
 20
125.369876376659
 30
0.0
 11
90.54322571793637
 21
125.369876376659
 31
0.0
  0
ARC
  5
18D
330
B7
100
AcDbEntity
  8
STANDARD
  6
Continuous
 62
     7
370
    20
100
AcDbCircle
 10
96.4251157179364
 20
126.6789663766589
 30
0.0
 40
1.13429
100
AcDbArc
 50
9.689336000000003
 51
74.52308099999999
  0
ARC
  5
18E
330
B7
100
AcDbEntity
  8
STANDARD
  6
Continuous
 62
     7
370
    20
100
AcDbCircle
 10
95.43614571793643
 20
126.283376376659
 30
0.0
 40
2.08924
100
AcDbArc
 50
51.812131
 51
87.06213800000002
  0
POINT
  5
18F
330
B7
100
AcDbEntity
  8
STANDARD
  6
Continuous
 62
     7
370
    20
100
AcDbPoint
 10
95.43614571793643
 20
126.283376376659
 30
0.0
  0
ARC
  5
190
330
B7
100
AcDbEntity
  8
STANDARD
  6
Continuous
 62
     7
370
    20
100
AcDbCircle
 10
94.4251157179364
 20
131.135226376659
 30
0.0
 40
1.13429
100
AcDbArc
 50
9.689336000000003
 51
74.52308099999999
  0
ARC
  5
191
330
B7
100
AcDbEntity
  8
STANDARD
  6
Continuous
 62
     7
370
    20
100
AcDbCircle
 10
93.43614571793643
 20
130.7396363766589
 30
0.0
 40
2.08924
100
AcDbArc
 50
51.812131
 51
87.06213800000002
  0
LINE
  5
192
330
B7
100
AcDbEntity
  8
STANDARD
  6
Continuous
 62
     7
370
    20
100
AcDbLine
 10
94.72779571793636
 20
132.381756376659
 30
0.0
 11
94.72779571793636
 21
132.2283763766589
 31
0.0
  0
LINE
  5
193
330
B7
100
AcDbEntity
  8
STANDARD
  6
Continuous
 62
     7
370
    20
100
AcDbLine
 10
90.54322571793637
 20
131.326126376659
 30
0.0
 11
93.54322571793637
 21
131.326126376659
 31
0.0
  0
LINE
  5
194
330
B7
100
AcDbEntity
  8
STANDARD
  6
Continuous
 62
     7
370
    20
100
AcDbLine
 10
93.54322571793637
 20
132.826126376659
 30
0.0
 11
93.54322571793637
 21
131.326126376659
 31
0.0
  0
LINE
  5
195
330
B7
100
AcDbEntity
  8
STANDARD
  6
Continuous
 62
     7
370
    20
100
AcDbLine
 10
90.24322571793637
 20
125.862976376659
 30
0.0
 11
90.24322571793637
 21
127.6965263766589
 31
0.0
  0
LINE
  5
196
330
B7
100
AcDbEntity
  8
STANDARD
  6
Continuous
 62
     7
370
    20
100
AcDbLine
 10
91.78635571793639
 20
127.6965263766589
 30
0.0
 11
90.24322571793637
 21
127.6965263766589
 31
0.0
  0
LINE
  5
197
330
B7
100
AcDbEntity
  8
STANDARD
  6
Continuous
 62
     7
370
    20
100
AcDbLine
 10
93.04322571793637
 20
126.774986376659
 30
0.0
 11
91.78635571793639
 21
126.774986376659
 31
0.0
  0
LINE
  5
198
330
B7
100
AcDbEntity
  8
STANDARD
  6
Continuous
 62
     7
370
    20
100
AcDbLine
 10
91.78635571793639
 20
126.774986376659
 30
0.0
 11
91.78635571793639
 21
127.6965263766589
 31
0.0
  0
ARC
  5
199
330
B7
100
AcDbEntity
  8
STANDARD
  6
Continuous
 62
     7
370
    20
100
AcDbCircle
 10
89.66133571793635
 20
131.135226376659
 30
0.0
 40
1.13429
100
AcDbArc
 50
105.476919
 51
170.310664
  0
ARC
  5
19A
330
B7
100
AcDbEntity
  8
STANDARD
  6
Continuous
 62
     7
370
    20
100
AcDbCircle
 10
90.6503057179365
 20
130.7396363766589
 30
0.0
 40
2.08924
100
AcDbArc
 50
92.937862
 51
128.187869
  0
LINE
  5
19B
330
B7
100
AcDbEntity
  8
STANDARD
  6
Continuous
 62
     7
370
    20
100
AcDbLine
 10
89.35864571793645
 20
132.381756376659
 30
0.0
 11
89.35864571793645
 21
132.2283763766589
 31
0.0
  0
LINE
  5
19C
330
B7
100
AcDbEntity
  8
STANDARD
  6
Continuous
 62
     7
370
    20
100
AcDbLine
 10
90.54322571793637
 20
132.826126376659
 30
0.0
 11
90.54322571793637
 21
131.326126376659
 31
0.0
  0
LINE
  5
19D
330
B7
100
AcDbEntity
  8
STANDARD
  6
Continuous
 62
     7
370
    20
100
AcDbLine
 10
95.54322571793637
 20
127.796186376659
 30
0.0
 11
94.92765571793643
 21
127.796186376659
 31
0.0
  0
LINE
  5
19E
330
B7
100
AcDbEntity
  8
STANDARD
  6
Continuous
 62
     7
370
    20
100
AcDbLine
 10
94.82765571793644
 20
128.296186376659
 30
0.0
 11
94.92765571793643
 21
127.796186376659
 31
0.0
  0
LINE
  5
19F
330
B7
100
AcDbEntity
  8
STANDARD
  6
Continuous
 62
     7
370
    20
100
AcDbLine
 10
94.38845571793645
 20
128.296186376659
 30
0.0
 11
94.28845571793646
 21
127.796186376659
 31
0.0
  0
LINE
  5
1A0
330
B7
100
AcDbEntity
  8
STANDARD
  6
Continuous
 62
     7
370
    20
100
AcDbLine
 10
94.28845571793646
 20
127.796186376659
 30
0.0
 11
93.34884571793646
 21
127.796186376659
 31
0.0
  0
LINE
  5
1A1
330
B7
100
AcDbEntity
  8
STANDARD
  6
Continuous
 62
     7
370
    20
100
AcDbLine
 10
94.82765571793644
 20
128.296186376659
 30
0.0
 11
94.38845571793645
 21
128.296186376659
 31
0.0
  0
TEXT
  5
1A2
330
B7
100
AcDbEntity
  8
Folie _ 3
  6
Continuous
 62
     7
100
AcDbText
 10
74.14159571793644
 20
124.066556376659
 30
0.0
 40
3.177854776382446
  1
FBOK
 41
1.071865229477616
  7
Style0
100
AcDbText
  0
LINE
  5
1A3
330
B7
100
AcDbEntity
  8
STANDARD
  6
Continuous
 62
     7
370
    20
100
AcDbLine
 10
74.92001571793644
 20
116.9559263766589
 30
0.0
 11
78.13395571793644
 21
120.169876376659
 31
0.0
  0
LINE
  5
1A4
330
B7
100
AcDbEntity
  8
STANDARD
  6
Continuous
 62
     7
370
    20
100
AcDbLine
 10
76.46386571793646
 20
114.169876376659
 30
0.0
 11
82.46386571793647
 21
120.169876376659
 31
0.0
  0
LINE
  5
1A5
330
B7
100
AcDbEntity
  8
STANDARD
  6
Continuous
 62
     7
370
    20
100
AcDbLine
 10
80.79376571793637
 20
114.169876376659
 30
0.0
 11
86.79376571793637
 21
120.169876376659
 31
0.0
  0
LINE
  5
1A6
330
B7
100
AcDbEntity
  8
STANDARD
  6
Continuous
 62
     7
370
    20
100
AcDbLine
 10
85.12366571793646
 20
114.169876376659
 30
0.0
 11
91.12366571793646
 21
120.169876376659
 31
0.0
  0
LINE
  5
1A7
330
B7
100
AcDbEntity
  8
STANDARD
  6
Continuous
 62
     7
370
    20
100
AcDbLine
 10
89.45356571793637
 20
114.169876376659
 30
0.0
 11
91.04322571793637
 21
115.759536376659
 31
0.0
  0
LINE
  5
1A8
330
B7
100
AcDbEntity
  8
STANDARD
  6
Continuous
 62
     7
370
    20
100
AcDbLine
 10
91.04322571793637
 20
114.169876376659
 30
0.0
 11
91.04322571793637
 21
120.169876376659
 31
0.0
  0
LINE
  5
1A9
330
B7
100
AcDbEntity
  8
STANDARD
  6
Continuous
 62
     7
370
    20
100
AcDbLine
 10
90.84322571793638
 20
137.968616376659
 30
0.0
 11
90.84322571793638
 21
131.326126376659
 31
0.0
  0
LINE
  5
1AA
330
B7
100
AcDbEntity
  8
STANDARD
  6
Continuous
 62
     7
370
    20
100
AcDbLine
 10
91.24322571793637
 20
137.968616376659
 30
0.0
 11
91.24322571793637
 21
131.326126376659
 31
0.0
  0
LINE
  5
1AB
330
B7
100
AcDbEntity
  8
STANDARD
  6
Continuous
 62
     7
370
    20
100
AcDbLine
 10
92.84322571793638
 20
137.968616376659
 30
0.0
 11
92.84322571793638
 21
131.326126376659
 31
0.0
  0
LINE
  5
1AC
330
B7
100
AcDbEntity
  8
STANDARD
  6
Continuous
 62
     7
370
    20
100
AcDbLine
 10
93.24322571793637
 20
137.968616376659
 30
0.0
 11
93.24322571793637
 21
131.326126376659
 31
0.0
  0
LINE
  5
1AD
330
B7
100
AcDbEntity
  8
Folie _ 3
  6
Continuous
 62
     7
370
    40
100
AcDbLine
 10
96.79322571793637
 20
121.619876376659
 30
0.0
 11
95.04322571793637
 21
121.619876376659
 31
0.0
  0
LINE
  5
1AE
330
B7
100
AcDbEntity
  8
STANDARD
  6
Continuous
 62
     7
370
    20
100
AcDbLine
 10
92.04322571793637
 20
121.869876376659
 30
0.0
 11
95.04322571793637
 21
121.869876376659
 31
0.0
  0
LINE
  5
1AF
330
B7
100
AcDbEntity
  8
STANDARD
  6
Continuous
 62
     7
370
    20
100
AcDbLine
 10
92.04322571793637
 20
106.169876376659
 30
0.0
 11
92.04322571793637
 21
117.869876376659
 31
0.0
  0
LINE
  5
1B0
330
B7
100
AcDbEntity
  8
STANDARD
  6
Continuous
 62
     7
370
    20
100
AcDbLine
 10
95.04322571793637
 20
102.1269134658776
 30
0.0
 11
95.04322571793637
 21
117.869876376659
 31
0.0
  0
LINE
  5
1B1
330
B7
100
AcDbEntity
  8
Folie _ 3
  6
Continuous
 62
     7
370
    40
100
AcDbLine
 10
96.79322571793637
 20
121.619876376659
 30
0.0
 11
96.79322571793637
 21
121.369876376659
 31
0.0
  0
LINE
  5
1B2
330
B7
100
AcDbEntity
  8
STANDARD
  6
Continuous
 62
     7
370
    20
100
AcDbLine
 10
95.04322571793637
 20
117.869876376659
 30
0.0
 11
95.04322571793637
 21
121.619876376659
 31
0.0
  0
LINE
  5
1B3
330
B7
100
AcDbEntity
  8
STANDARD
  6
Continuous
 62
     7
370
    20
100
AcDbLine
 10
90.54322571793637
 20
121.369876376659
 30
0.0
 11
90.54322571793637
 21
125.369876376659
 31
0.0
  0
LINE
  5
1B4
330
B7
100
AcDbEntity
  8
STANDARD
  6
Continuous
 62
     7
370
    20
100
AcDbLine
 10
92.04322571793637
 20
121.369876376659
 30
0.0
 11
92.04322571793637
 21
121.869876376659
 31
0.0
  0
LINE
  5
1B5
330
B7
100
AcDbEntity
  8
STANDARD
  6
Continuous
 62
     7
370
    20
100
AcDbLine
 10
95.04322571793637
 20
121.619876376659
 30
0.0
 11
95.04322571793637
 21
121.869876376659
 31
0.0
  0
LINE
  5
1B6
330
B7
100
AcDbEntity
  8
STANDARD
  6
Continuous
 62
     7
370
    20
100
AcDbLine
 10
92.04322571793637
 20
117.869876376659
 30
0.0
 11
92.04322571793637
 21
121.369876376659
 31
0.0
  0
LINE
  5
1B7
330
B7
100
AcDbEntity
  8
STANDARD
  6
Continuous
 62
     7
370
    20
100
AcDbLine
 10
95.04322571793637
 20
117.869876376659
 30
0.0
 11
92.04322571793637
 21
117.869876376659
 31
0.0
  0
LINE
  5
1B8
330
B7
100
AcDbEntity
  8
Folie _ 3
  6
Continuous
 62
     7
370
    30
100
AcDbLine
 10
96.94322571793637
 20
113.1098185053463
 30
0.0
 11
107.4636457179364
 21
130.4411427425362
 31
0.0
  0
LINE
  5
1B9
330
B7
100
AcDbEntity
  8
STANDARD
  6
Continuous
 62
     7
370
    20
100
AcDbLine
 10
95.04322571793637
 20
102.1269134658776
 30
0.0
 11
96.04852019287173
 21
102.1269134658776
 31
0.0
  0
LINE
  5
1BA
330
B7
100
AcDbEntity
  8
Folie _ 3
  6
Continuous
 62
     7
370
    40
100
AcDbLine
 10
96.34322571793638
 20
103.169876376659
 30
0.0
 11
96.34322571793638
 21
121.619876376659
 31
0.0
  0
LINE
  5
1BB
330
B7
100
AcDbEntity
  8
STANDARD
  6
Continuous
 62
     7
370
    20
100
AcDbLine
 10
92.04648571793642
 20
104.1715063766589
 30
0.0
 11
95.04485571793649
 21
105.176406376659
 31
0.0
  0
LINE
  5
1BC
330
B7
100
AcDbEntity
  8
STANDARD
  6
Continuous
 62
     7
370
    20
100
AcDbLine
 10
95.04485571793649
 20
105.176406376659
 30
0.0
 11
92.04322571793637
 21
106.1715063766589
 31
0.0
  0
ARC
  5
1BD
330
B7
100
AcDbEntity
  8
STANDARD
  6
Continuous
 62
     7
370
    20
100
AcDbCircle
 10
92.04485571793649
 20
105.1715063766589
 30
0.0
 40
1.0
100
AcDbArc
 50
90.093522
 51
179.993522
  0
ARC
  5
1BE
330
B7
100
AcDbEntity
  8
STANDARD
  6
Continuous
 62
     7
370
    20
100
AcDbCircle
 10
92.04485571793649
 20
105.1715063766589
 30
0.0
 40
1.0
100
AcDbArc
 50
180.093522
 51
270.093522
  0
LINE
  5
1BF
330
B7
100
AcDbEntity
  8
STANDARD
  6
Continuous
 62
     7
370
    20
100
AcDbLine
 10
92.04975571793639
 20
102.1715063766589
 30
0.0
 11
95.04811571793635
 21
103.176406376659
 31
0.0
  0
LINE
  5
1C0
330
B7
100
AcDbEntity
  8
STANDARD
  6
Continuous
 62
     7
370
    20
100
AcDbLine
 10
95.04811571793635
 20
103.176406376659
 30
0.0
 11
92.04648571793642
 21
104.1715063766589
 31
0.0
  0
ARC
  5
1C1
330
B7
100
AcDbEntity
  8
STANDARD
  6
Continuous
 62
     7
370
    20
100
AcDbCircle
 10
92.04811571793635
 20
103.1715063766589
 30
0.0
 40
1.0
100
AcDbArc
 50
90.093522
 51
179.993522
  0
ARC
  5
1C2
330
B7
100
AcDbEntity
  8
STANDARD
  6
Continuous
 62
     7
370
    20
100
AcDbCircle
 10
92.04811571793635
 20
103.1715063766589
 30
0.0
 40
1.0
100
AcDbArc
 50
180.093522
 51
270.093522
  0
ARC
  5
1C3
330
B7
100
AcDbEntity
  8
STANDARD
  6
Continuous
 62
     7
370
    20
100
AcDbCircle
 10
95.05301571793643
 20
100.176406376659
 30
0.0
 40
1.0
100
AcDbArc
 50
0.093522
 51
90.09352199999998
  0
ARC
  5
1C4
330
B7
100
AcDbEntity
  8
STANDARD
  6
Continuous
 62
     7
370
    20
100
AcDbCircle
 10
95.04974571793646
 20
102.176406376659
 30
0.0
 40
1.0
100
AcDbArc
 50
270.093522
 51
357.1631061068412
  0
LINE
  5
1C5
330
B7
100
AcDbEntity
  8
STANDARD
  6
Continuous
 62
     7
370
    20
100
AcDbLine
 10
92.05301571793643
 20
100.171516376659
 30
0.0
 11
95.0513757179364
 21
101.1764063766588
 31
0.0
  0
LINE
  5
1C6
330
B7
100
AcDbEntity
  8
STANDARD
  6
Continuous
 62
     7
370
    20
100
AcDbLine
 10
95.0513757179364
 20
101.1764063766588
 30
0.0
 11
92.04975571793639
 21
102.1715063766589
 31
0.0
  0
ARC
  5
1C7
330
B7
100
AcDbEntity
  8
STANDARD
  6
Continuous
 62
     7
370
    20
100
AcDbCircle
 10
92.05138571793651
 20
101.1715063766589
 30
0.0
 40
1.0
100
AcDbArc
 50
90.093522
 51
179.993522
  0
ARC
  5
1C8
330
B7
100
AcDbEntity
  8
STANDARD
  6
Continuous
 62
     7
370
    20
100
AcDbCircle
 10
92.05138571793651
 20
101.1715063766589
 30
0.0
 40
1.0
100
AcDbArc
 50
180.093522
 51
270.093522
  0
ARC
  5
1C9
330
B7
100
AcDbEntity
  8
STANDARD
  6
Continuous
 62
     7
370
    20
100
AcDbCircle
 10
95.05627571793649
 20
98.17641637665892
 30
0.0
 40
1.0
100
AcDbArc
 50
0.093522
 51
90.09352199999998
  0
ARC
  5
1CA
330
B7
100
AcDbEntity
  8
STANDARD
  6
Continuous
 62
     7
370
    20
100
AcDbCircle
 10
95.05301571793643
 20
100.176406376659
 30
0.0
 40
1.0
100
AcDbArc
 50
270.093522
 51
0.0935219999999768
  0
LINE
  5
1CB
330
B7
100
AcDbEntity
  8
STANDARD
  6
Continuous
 62
     7
370
    20
100
AcDbLine
 10
92.05628571793642
 20
98.17151637665901
 30
0.0
 11
95.05464571793637
 21
99.17640637665899
 31
0.0
  0
LINE
  5
1CC
330
B7
100
AcDbEntity
  8
STANDARD
  6
Continuous
 62
     7
370
    20
100
AcDbLine
 10
95.05464571793637
 20
99.17640637665899
 30
0.0
 11
92.05301571793643
 21
100.171516376659
 31
0.0
  0
ARC
  5
1CD
330
B7
100
AcDbEntity
  8
STANDARD
  6
Continuous
 62
     7
370
    20
100
AcDbCircle
 10
92.05464571793637
 20
99.17151637665901
 30
0.0
 40
1.0
100
AcDbArc
 50
90.093522
 51
179.993522
  0
ARC
  5
1CE
330
B7
100
AcDbEntity
  8
STANDARD
  6
Continuous
 62
     7
370
    20
100
AcDbCircle
 10
92.05464571793637
 20
99.17151637665901
 30
0.0
 40
1.0
100
AcDbArc
 50
180.093522
 51
270.093522
  0
ARC
  5
1CF
330
B7
100
AcDbEntity
  8
STANDARD
  6
Continuous
 62
     7
370
    20
100
AcDbCircle
 10
95.05954571793646
 20
96.17641637665892
 30
0.0
 40
1.0
100
AcDbArc
 50
0.093522
 51
90.09352199999998
  0
ARC
  5
1D0
330
B7
100
AcDbEntity
  8
STANDARD
  6
Continuous
 62
     7
370
    20
100
AcDbCircle
 10
95.05627571793649
 20
98.17641637665892
 30
0.0
 40
1.0
100
AcDbArc
 50
270.093522
 51
0.0935219999999768
  0
LINE
  5
1D1
330
B7
100
AcDbEntity
  8
STANDARD
  6
Continuous
 62
     7
370
    20
100
AcDbLine
 10
92.05954571793646
 20
96.17151637665901
 30
0.0
 11
95.05790571793642
 21
97.17641637665892
 31
0.0
  0
LINE
  5
1D2
330
B7
100
AcDbEntity
  8
STANDARD
  6
Continuous
 62
     7
370
    20
100
AcDbLine
 10
95.05790571793642
 20
97.17641637665892
 30
0.0
 11
92.05628571793642
 21
98.17151637665901
 31
0.0
  0
ARC
  5
1D3
330
B7
100
AcDbEntity
  8
STANDARD
  6
Continuous
 62
     7
370
    20
100
AcDbCircle
 10
92.05791571793652
 20
97.17151637665901
 30
0.0
 40
1.0
100
AcDbArc
 50
90.093522
 51
179.993522
  0
ARC
  5
1D4
330
B7
100
AcDbEntity
  8
STANDARD
  6
Continuous
 62
     7
370
    20
100
AcDbCircle
 10
92.05791571793652
 20
97.17151637665901
 30
0.0
 40
1.0
100
AcDbArc
 50
180.093522
 51
270.093522
  0
ARC
  5
1D5
330
B7
100
AcDbEntity
  8
STANDARD
  6
Continuous
 62
     7
370
    20
100
AcDbCircle
 10
95.0628057179365
 20
94.17641637665892
 30
0.0
 40
1.0
100
AcDbArc
 50
0.093522
 51
90.09352199999998
  0
ARC
  5
1D6
330
B7
100
AcDbEntity
  8
STANDARD
  6
Continuous
 62
     7
370
    20
100
AcDbCircle
 10
95.05954571793646
 20
96.17641637665892
 30
0.0
 40
1.0
100
AcDbArc
 50
270.093522
 51
0.0935219999999768
  0
LINE
  5
1D7
330
B7
100
AcDbEntity
  8
STANDARD
  6
Continuous
 62
     7
370
    20
100
AcDbLine
 10
92.0628057179365
 20
94.17151637665901
 30
0.0
 11
95.0611757179364
 21
95.17641637665892
 31
0.0
  0
LINE
  5
1D8
330
B7
100
AcDbEntity
  8
STANDARD
  6
Continuous
 62
     7
370
    20
100
AcDbLine
 10
95.0611757179364
 20
95.17641637665892
 30
0.0
 11
92.05954571793646
 21
96.17151637665901
 31
0.0
  0
ARC
  5
1D9
330
B7
100
AcDbEntity
  8
STANDARD
  6
Continuous
 62
     7
370
    20
100
AcDbCircle
 10
92.0611757179364
 20
95.17151637665901
 30
0.0
 40
1.0
100
AcDbArc
 50
90.093522
 51
179.993522
  0
ARC
  5
1DA
330
B7
100
AcDbEntity
  8
STANDARD
  6
Continuous
 62
     7
370
    20
100
AcDbCircle
 10
92.0611757179364
 20
95.17151637665901
 30
0.0
 40
1.0
100
AcDbArc
 50
180.093522
 51
270.093522
  0
ARC
  5
1DB
330
B7
100
AcDbEntity
  8
STANDARD
  6
Continuous
 62
     7
370
    20
100
AcDbCircle
 10
95.06607571793649
 20
92.17641637665892
 30
0.0
 40
1.0
100
AcDbArc
 50
0.093522
 51
90.09352199999998
  0
ARC
  5
1DC
330
B7
100
AcDbEntity
  8
STANDARD
  6
Continuous
 62
     7
370
    20
100
AcDbCircle
 10
95.0628057179365
 20
94.17641637665892
 30
0.0
 40
1.0
100
AcDbArc
 50
270.093522
 51
0.0935219999999768
  0
LINE
  5
1DD
330
B7
100
AcDbEntity
  8
STANDARD
  6
Continuous
 62
     7
370
    20
100
AcDbLine
 10
95.06443571793643
 20
93.17641637665892
 30
0.0
 11
92.0628057179365
 21
94.17151637665901
 31
0.0
  0
ARC
  5
1DE
330
B7
100
AcDbEntity
  8
STANDARD
  6
Continuous
 62
     7
370
    20
100
AcDbCircle
 10
92.06444571793637
 20
93.17152637665895
 30
0.0
 40
1.0
100
AcDbArc
 50
90.093522
 51
179.993522
  0
ARC
  5
1DF
330
B7
100
AcDbEntity
  8
STANDARD
  6
Continuous
 62
     7
370
    20
100
AcDbCircle
 10
92.06444571793637
 20
93.17152637665895
 30
0.0
 40
1.0
100
AcDbArc
 50
180.093522
 51
270.093522
  0
ARC
  5
1E0
330
B7
100
AcDbEntity
  8
STANDARD
  6
Continuous
 62
     7
370
    20
100
AcDbCircle
 10
95.06933571793653
 20
90.17642637665904
 30
0.0
 40
1.0
100
AcDbArc
 50
0.093522
 51
90.09352199999998
  0
ARC
  5
1E1
330
B7
100
AcDbEntity
  8
STANDARD
  6
Continuous
 62
     7
370
    20
100
AcDbCircle
 10
95.06607571793649
 20
92.17641637665892
 30
0.0
 40
1.0
100
AcDbArc
 50
270.093522
 51
0.0935219999999768
  0
LINE
  5
1E2
330
B7
100
AcDbEntity
  8
STANDARD
  6
Continuous
 62
     7
370
    20
100
AcDbLine
 10
92.06933571793653
 20
90.17152637665895
 30
0.0
 11
95.0677057179364
 21
91.17641637665892
 31
0.0
  0
LINE
  5
1E3
330
B7
100
AcDbEntity
  8
STANDARD
  6
Continuous
 62
     7
370
    20
100
AcDbLine
 10
95.0677057179364
 20
89.17970090885555
 30
0.0
 11
92.06607571793649
 21
88.18459090885534
 31
0.0
  0
ARC
  5
1E4
330
B7
100
AcDbEntity
  8
STANDARD
  6
Continuous
 62
     7
370
    20
100
AcDbCircle
 10
92.0677057179364
 20
91.17152637665895
 30
0.0
 40
1.0
100
AcDbArc
 50
90.093522
 51
179.993522
  0
ARC
  5
1E5
330
B7
100
AcDbEntity
  8
STANDARD
  6
Continuous
 62
     7
370
    20
100
AcDbCircle
 10
92.0677057179364
 20
91.17152637665895
 30
0.0
 40
1.0
100
AcDbArc
 50
180.093522
 51
270.093522
  0
ARC
  5
1E6
330
B7
100
AcDbEntity
  8
STANDARD
  6
Continuous
 62
     7
370
    20
100
AcDbCircle
 10
95.06933571793653
 20
90.17642637665904
 30
0.0
 40
1.0
100
AcDbArc
 50
270.093522
 51
0.0935219999999768
  0
LINE
  5
1E7
330
B7
100
AcDbEntity
  8
STANDARD
  6
Continuous
 62
     7
370
    20
100
AcDbLine
 10
95.07096571793646
 20
89.17642637665904
 30
0.0
 11
92.06933571793653
 21
90.17152637665895
 31
0.0
  0
ARC
  5
1E8
330
B7
100
AcDbEntity
  8
STANDARD
  6
Continuous
 62
     7
100
AcDbCircle
 10
92.07097571793639
 20
89.17152637665895
 30
0.0
 40
1.0
100
AcDbArc
 50
180.093522
 51
188.087138
  0
LINE
  5
1E9
330
B7
100
AcDbEntity
  8
STANDARD
  6
Continuous
 62
     7
370
    60
100
AcDbLine
 10
91.04322571793637
 20
106.169876376659
 30
0.0
 11
74.59344571793645
 21
106.169876376659
 31
0.0
  0
LINE
  5
1EA
330
B7
100
AcDbEntity
  8
STANDARD
  6
Continuous
 62
     7
370
    60
100
AcDbLine
 10
91.04322571793637
 20
106.169876376659
 30
0.0
 11
91.08089752026208
 21
83.06987637665897
 31
0.0
  0
LINE
  5
1EB
330
B7
100
AcDbEntity
  8
STANDARD
  6
Continuous
 62
     7
370
    20
100
AcDbLine
 10
95.04322571793637
 20
106.169876376659
 30
0.0
 11
91.04322571793637
 21
106.169876376659
 31
0.0
  0
ARC
  5
1EC
330
B7
100
AcDbEntity
  8
STANDARD
  6
Continuous
 62
     7
370
    20
100
AcDbCircle
 10
94.44322571793637
 20
116.669876376659
 30
0.0
 40
0.6000000000000001
100
AcDbArc
 50
0.0
 51
90.0
  0
ARC
  5
1ED
330
B7
100
AcDbEntity
  8
STANDARD
  6
Continuous
 62
     7
370
    20
100
AcDbCircle
 10
94.44322571793637
 20
117.869876376659
 30
0.0
 40
0.6000000000000001
100
AcDbArc
 50
270.0
 51
0.0
  0
LINE
  5
1EE
330
B7
100
AcDbEntity
  8
STANDARD
  6
Continuous
 62
     7
370
    20
100
AcDbLine
 10
92.64322571793637
 20
116.669876376659
 30
0.0
 11
94.44322571793637
 21
117.269876376659
 31
0.0
  0
LINE
  5
1EF
330
B7
100
AcDbEntity
  8
STANDARD
  6
Continuous
 62
     7
370
    20
100
AcDbLine
 10
94.44322571793637
 20
117.269876376659
 30
0.0
 11
92.64322571793637
 21
117.869876376659
 31
0.0
  0
ARC
  5
1F0
330
B7
100
AcDbEntity
  8
STANDARD
  6
Continuous
 62
     7
370
    20
100
AcDbCircle
 10
92.64322571793637
 20
117.269876376659
 30
0.0
 40
0.6000000000000001
100
AcDbArc
 50
90.0
 51
179.9
  0
ARC
  5
1F1
330
B7
100
AcDbEntity
  8
STANDARD
  6
Continuous
 62
     7
370
    20
100
AcDbCircle
 10
92.64322571793637
 20
117.269876376659
 30
0.0
 40
0.6000000000000001
100
AcDbArc
 50
180.0
 51
270.0
  0
ARC
  5
1F2
330
B7
100
AcDbEntity
  8
STANDARD
  6
Continuous
 62
     7
370
    20
100
AcDbCircle
 10
94.44322571793637
 20
115.469876376659
 30
0.0
 40
0.6000000000000001
100
AcDbArc
 50
0.0
 51
90.0
  0
ARC
  5
1F3
330
B7
100
AcDbEntity
  8
STANDARD
  6
Continuous
 62
     7
370
    20
100
AcDbCircle
 10
94.44322571793637
 20
116.669876376659
 30
0.0
 40
0.6000000000000001
100
AcDbArc
 50
270.0
 51
0.0
  0
LINE
  5
1F4
330
B7
100
AcDbEntity
  8
STANDARD
  6
Continuous
 62
     7
370
    20
100
AcDbLine
 10
92.64322571793637
 20
115.469876376659
 30
0.0
 11
94.44322571793637
 21
116.069876376659
 31
0.0
  0
LINE
  5
1F5
330
B7
100
AcDbEntity
  8
STANDARD
  6
Continuous
 62
     7
370
    20
100
AcDbLine
 10
94.44322571793637
 20
116.069876376659
 30
0.0
 11
92.64322571793637
 21
116.669876376659
 31
0.0
  0
ARC
  5
1F6
330
B7
100
AcDbEntity
  8
STANDARD
  6
Continuous
 62
     7
370
    20
100
AcDbCircle
 10
92.64322571793637
 20
116.069876376659
 30
0.0
 40
0.6000000000000001
100
AcDbArc
 50
90.0
 51
179.9
  0
ARC
  5
1F7
330
B7
100
AcDbEntity
  8
STANDARD
  6
Continuous
 62
     7
370
    20
100
AcDbCircle
 10
92.64322571793637
 20
116.069876376659
 30
0.0
 40
0.6000000000000001
100
AcDbArc
 50
180.0
 51
270.0
  0
ARC
  5
1F8
330
B7
100
AcDbEntity
  8
STANDARD
  6
Continuous
 62
     7
370
    20
100
AcDbCircle
 10
94.44322571793637
 20
114.269876376659
 30
0.0
 40
0.6000000000000001
100
AcDbArc
 50
0.0
 51
90.0
  0
ARC
  5
1F9
330
B7
100
AcDbEntity
  8
STANDARD
  6
Continuous
 62
     7
370
    20
100
AcDbCircle
 10
94.44322571793637
 20
115.469876376659
 30
0.0
 40
0.6000000000000001
100
AcDbArc
 50
270.0
 51
0.0
  0
LINE
  5
1FA
330
B7
100
AcDbEntity
  8
STANDARD
  6
Continuous
 62
     7
370
    20
100
AcDbLine
 10
92.64322571793637
 20
114.269876376659
 30
0.0
 11
94.44322571793637
 21
114.869876376659
 31
0.0
  0
LINE
  5
1FB
330
B7
100
AcDbEntity
  8
STANDARD
  6
Continuous
 62
     7
370
    20
100
AcDbLine
 10
94.44322571793637
 20
114.869876376659
 30
0.0
 11
92.64322571793637
 21
115.469876376659
 31
0.0
  0
ARC
  5
1FC
330
B7
100
AcDbEntity
  8
STANDARD
  6
Continuous
 62
     7
370
    20
100
AcDbCircle
 10
92.64322571793637
 20
114.869876376659
 30
0.0
 40
0.6000000000000001
100
AcDbArc
 50
90.0
 51
179.9
  0
ARC
  5
1FD
330
B7
100
AcDbEntity
  8
STANDARD
  6
Continuous
 62
     7
370
    20
100
AcDbCircle
 10
92.64322571793637
 20
114.869876376659
 30
0.0
 40
0.6000000000000001
100
AcDbArc
 50
180.0
 51
270.0
  0
ARC
  5
1FE
330
B7
100
AcDbEntity
  8
STANDARD
  6
Continuous
 62
     7
370
    20
100
AcDbCircle
 10
94.44322571793637
 20
113.069876376659
 30
0.0
 40
0.6000000000000001
100
AcDbArc
 50
0.0
 51
90.0
  0
ARC
  5
1FF
330
B7
100
AcDbEntity
  8
STANDARD
  6
Continuous
 62
     7
370
    20
100
AcDbCircle
 10
94.44322571793637
 20
114.269876376659
 30
0.0
 40
0.6000000000000001
100
AcDbArc
 50
270.0
 51
0.0
  0
LINE
  5
200
330
B7
100
AcDbEntity
  8
STANDARD
  6
Continuous
 62
     7
370
    20
100
AcDbLine
 10
92.64322571793637
 20
113.069876376659
 30
0.0
 11
94.44322571793637
 21
113.669876376659
 31
0.0
  0
LINE
  5
201
330
B7
100
AcDbEntity
  8
STANDARD
  6
Continuous
 62
     7
370
    20
100
AcDbLine
 10
94.44322571793637
 20
113.669876376659
 30
0.0
 11
92.64322571793637
 21
114.269876376659
 31
0.0
  0
ARC
  5
202
330
B7
100
AcDbEntity
  8
STANDARD
  6
Continuous
 62
     7
370
    20
100
AcDbCircle
 10
92.64322571793637
 20
113.669876376659
 30
0.0
 40
0.6000000000000001
100
AcDbArc
 50
90.0
 51
179.9
  0
ARC
  5
203
330
B7
100
AcDbEntity
  8
STANDARD
  6
Continuous
 62
     7
370
    20
100
AcDbCircle
 10
92.64322571793637
 20
113.669876376659
 30
0.0
 40
0.6000000000000001
100
AcDbArc
 50
180.0
 51
270.0
  0
ARC
  5
204
330
B7
100
AcDbEntity
  8
STANDARD
  6
Continuous
 62
     7
370
    20
100
AcDbCircle
 10
94.44322571793637
 20
111.869876376659
 30
0.0
 40
0.6000000000000001
100
AcDbArc
 50
0.0
 51
90.0
  0
ARC
  5
205
330
B7
100
AcDbEntity
  8
STANDARD
  6
Continuous
 62
     7
370
    20
100
AcDbCircle
 10
94.44322571793637
 20
113.069876376659
 30
0.0
 40
0.6000000000000001
100
AcDbArc
 50
270.0
 51
0.0
  0
LINE
  5
206
330
B7
100
AcDbEntity
  8
STANDARD
  6
Continuous
 62
     7
370
    20
100
AcDbLine
 10
92.64322571793637
 20
111.869876376659
 30
0.0
 11
94.44322571793637
 21
112.469876376659
 31
0.0
  0
LINE
  5
207
330
B7
100
AcDbEntity
  8
STANDARD
  6
Continuous
 62
     7
370
    20
100
AcDbLine
 10
94.44322571793637
 20
112.469876376659
 30
0.0
 11
92.64322571793637
 21
113.069876376659
 31
0.0
  0
ARC
  5
208
330
B7
100
AcDbEntity
  8
STANDARD
  6
Continuous
 62
     7
370
    20
100
AcDbCircle
 10
92.64322571793637
 20
112.469876376659
 30
0.0
 40
0.6000000000000001
100
AcDbArc
 50
90.0
 51
179.9
  0
ARC
  5
209
330
B7
100
AcDbEntity
  8
STANDARD
  6
Continuous
 62
     7
370
    20
100
AcDbCircle
 10
92.64322571793637
 20
112.469876376659
 30
0.0
 40
0.6000000000000001
100
AcDbArc
 50
180.0
 51
270.0
  0
ARC
  5
20A
330
B7
100
AcDbEntity
  8
STANDARD
  6
Continuous
 62
     7
370
    20
100
AcDbCircle
 10
94.44322571793637
 20
110.669876376659
 30
0.0
 40
0.6000000000000001
100
AcDbArc
 50
0.0
 51
90.0
  0
ARC
  5
20B
330
B7
100
AcDbEntity
  8
STANDARD
  6
Continuous
 62
     7
370
    20
100
AcDbCircle
 10
94.44322571793637
 20
111.869876376659
 30
0.0
 40
0.6000000000000001
100
AcDbArc
 50
270.0
 51
0.0
  0
LINE
  5
20C
330
B7
100
AcDbEntity
  8
STANDARD
  6
Continuous
 62
     7
370
    20
100
AcDbLine
 10
92.64322571793637
 20
110.669876376659
 30
0.0
 11
94.44322571793637
 21
111.269876376659
 31
0.0
  0
LINE
  5
20D
330
B7
100
AcDbEntity
  8
STANDARD
  6
Continuous
 62
     7
370
    20
100
AcDbLine
 10
94.44322571793637
 20
111.269876376659
 30
0.0
 11
92.64322571793637
 21
111.869876376659
 31
0.0
  0
ARC
  5
20E
330
B7
100
AcDbEntity
  8
STANDARD
  6
Continuous
 62
     7
370
    20
100
AcDbCircle
 10
92.64322571793637
 20
111.269876376659
 30
0.0
 40
0.6000000000000001
100
AcDbArc
 50
90.0
 51
179.9
  0
ARC
  5
20F
330
B7
100
AcDbEntity
  8
STANDARD
  6
Continuous
 62
     7
370
    20
100
AcDbCircle
 10
92.64322571793637
 20
111.269876376659
 30
0.0
 40
0.6000000000000001
100
AcDbArc
 50
180.0
 51
270.0
  0
ARC
  5
210
330
B7
100
AcDbEntity
  8
STANDARD
  6
Continuous
 62
     7
370
    20
100
AcDbCircle
 10
94.44322571793637
 20
109.469876376659
 30
0.0
 40
0.6000000000000001
100
AcDbArc
 50
0.0
 51
90.0
  0
ARC
  5
211
330
B7
100
AcDbEntity
  8
STANDARD
  6
Continuous
 62
     7
370
    20
100
AcDbCircle
 10
94.44322571793637
 20
110.669876376659
 30
0.0
 40
0.6000000000000001
100
AcDbArc
 50
270.0
 51
0.0
  0
LINE
  5
212
330
B7
100
AcDbEntity
  8
STANDARD
  6
Continuous
 62
     7
370
    20
100
AcDbLine
 10
92.64322571793637
 20
109.469876376659
 30
0.0
 11
94.44322571793637
 21
110.069876376659
 31
0.0
  0
LINE
  5
213
330
B7
100
AcDbEntity
  8
STANDARD
  6
Continuous
 62
     7
370
    20
100
AcDbLine
 10
94.44322571793637
 20
110.069876376659
 30
0.0
 11
92.64322571793637
 21
110.669876376659
 31
0.0
  0
ARC
  5
214
330
B7
100
AcDbEntity
  8
STANDARD
  6
Continuous
 62
     7
370
    20
100
AcDbCircle
 10
92.64322571793637
 20
110.069876376659
 30
0.0
 40
0.6000000000000001
100
AcDbArc
 50
90.0
 51
179.9
  0
ARC
  5
215
330
B7
100
AcDbEntity
  8
STANDARD
  6
Continuous
 62
     7
370
    20
100
AcDbCircle
 10
92.64322571793637
 20
110.069876376659
 30
0.0
 40
0.6000000000000001
100
AcDbArc
 50
180.0
 51
270.0
  0
ARC
  5
216
330
B7
100
AcDbEntity
  8
STANDARD
  6
Continuous
 62
     7
370
    20
100
AcDbCircle
 10
94.44322571793637
 20
108.269876376659
 30
0.0
 40
0.6000000000000001
100
AcDbArc
 50
0.0
 51
90.0
  0
ARC
  5
217
330
B7
100
AcDbEntity
  8
STANDARD
  6
Continuous
 62
     7
370
    20
100
AcDbCircle
 10
94.44322571793637
 20
109.469876376659
 30
0.0
 40
0.6000000000000001
100
AcDbArc
 50
270.0
 51
0.0
  0
LINE
  5
218
330
B7
100
AcDbEntity
  8
STANDARD
  6
Continuous
 62
     7
370
    20
100
AcDbLine
 10
92.64322571793637
 20
108.269876376659
 30
0.0
 11
94.44322571793637
 21
108.869876376659
 31
0.0
  0
LINE
  5
219
330
B7
100
AcDbEntity
  8
STANDARD
  6
Continuous
 62
     7
370
    20
100
AcDbLine
 10
94.44322571793637
 20
108.869876376659
 30
0.0
 11
92.64322571793637
 21
109.469876376659
 31
0.0
  0
ARC
  5
21A
330
B7
100
AcDbEntity
  8
STANDARD
  6
Continuous
 62
     7
370
    20
100
AcDbCircle
 10
92.64322571793637
 20
108.869876376659
 30
0.0
 40
0.6000000000000001
100
AcDbArc
 50
90.0
 51
179.9
  0
ARC
  5
21B
330
B7
100
AcDbEntity
  8
STANDARD
  6
Continuous
 62
     7
370
    20
100
AcDbCircle
 10
92.64322571793637
 20
108.869876376659
 30
0.0
 40
0.6000000000000001
100
AcDbArc
 50
180.0
 51
270.0
  0
ARC
  5
21C
330
B7
100
AcDbEntity
  8
STANDARD
  6
Continuous
 62
     7
370
    20
100
AcDbCircle
 10
94.44322571793637
 20
107.069876376659
 30
0.0
 40
0.6000000000000001
100
AcDbArc
 50
0.0
 51
90.0
  0
ARC
  5
21D
330
B7
100
AcDbEntity
  8
STANDARD
  6
Continuous
 62
     7
370
    20
100
AcDbCircle
 10
94.44322571793637
 20
108.269876376659
 30
0.0
 40
0.6000000000000001
100
AcDbArc
 50
270.0
 51
0.0
  0
LINE
  5
21E
330
B7
100
AcDbEntity
  8
STANDARD
  6
Continuous
 62
     7
370
    20
100
AcDbLine
 10
92.64322571793637
 20
107.069876376659
 30
0.0
 11
94.44322571793637
 21
107.669876376659
 31
0.0
  0
LINE
  5
21F
330
B7
100
AcDbEntity
  8
STANDARD
  6
Continuous
 62
     7
370
    20
100
AcDbLine
 10
94.44322571793637
 20
107.669876376659
 30
0.0
 11
92.64322571793637
 21
108.269876376659
 31
0.0
  0
ARC
  5
220
330
B7
100
AcDbEntity
  8
STANDARD
  6
Continuous
 62
     7
370
    20
100
AcDbCircle
 10
92.64322571793637
 20
107.669876376659
 30
0.0
 40
0.6000000000000001
100
AcDbArc
 50
90.0
 51
179.9
  0
ARC
  5
221
330
B7
100
AcDbEntity
  8
STANDARD
  6
Continuous
 62
     7
370
    20
100
AcDbCircle
 10
92.64322571793637
 20
107.669876376659
 30
0.0
 40
0.6000000000000001
100
AcDbArc
 50
180.0
 51
270.0
  0
ARC
  5
222
330
B7
100
AcDbEntity
  8
STANDARD
  6
Continuous
 62
     7
370
    20
100
AcDbCircle
 10
94.44322571793637
 20
105.869876376659
 30
0.0
 40
0.6000000000000001
100
AcDbArc
 50
29.933863
 51
90.0
  0
ARC
  5
223
330
B7
100
AcDbEntity
  8
STANDARD
  6
Continuous
 62
     7
370
    20
100
AcDbCircle
 10
94.44322571793637
 20
107.069876376659
 30
0.0
 40
0.6000000000000001
100
AcDbArc
 50
270.0
 51
0.0
  0
LINE
  5
224
330
B7
100
AcDbEntity
  8
STANDARD
  6
Continuous
 62
     7
370
    20
100
AcDbLine
 10
93.54142571793636
 20
106.1692763766588
 30
0.0
 11
94.44322571793637
 21
106.469876376659
 31
0.0
  0
LINE
  5
225
330
B7
100
AcDbEntity
  8
STANDARD
  6
Continuous
 62
     7
370
    20
100
AcDbLine
 10
94.44322571793637
 20
106.469876376659
 30
0.0
 11
92.64322571793637
 21
107.069876376659
 31
0.0
  0
ARC
  5
226
330
B7
100
AcDbEntity
  8
STANDARD
  6
Continuous
 62
     7
370
    20
100
AcDbCircle
 10
92.64322571793637
 20
106.469876376659
 30
0.0
 40
0.6000000000000001
100
AcDbArc
 50
90.0
 51
179.9
  0
ARC
  5
227
330
B7
100
AcDbEntity
  8
STANDARD
  6
Continuous
 62
     7
370
    20
100
AcDbCircle
 10
92.64322571793637
 20
106.469876376659
 30
0.0
 40
0.6000000000000001
100
AcDbArc
 50
180.0
 51
210.066182
  0
LINE
  5
228
330
B7
100
AcDbEntity
  8
STANDARD
  6
Continuous
 62
     7
370
    20
100
AcDbLine
 10
76.27239571793635
 20
122.9075363766589
 30
0.0
 11
79.74772571793638
 21
122.9075363766589
 31
0.0
  0
LINE
  5
229
330
B7
100
AcDbEntity
  8
STANDARD
  6
Continuous
 62
     7
370
    20
100
AcDbLine
 10
78.0100557179365
 20
121.169876376659
 30
0.0
 11
79.74772571793638
 21
122.9075363766589
 31
0.0
  0
LINE
  5
22A
330
B7
100
AcDbEntity
  8
STANDARD
  6
Continuous
 62
     7
370
    20
100
AcDbLine
 10
78.0100557179365
 20
121.169876376659
 30
0.0
 11
76.27239571793635
 21
122.9075363766589
 31
0.0
  0
TEXT
  5
22B
330
B7
100
AcDbEntity
  8
34_Gruppe
  6
Continuous
 62
     7
100
AcDbText
 10
33.25164199587889
 20
41.34734781664301
 30
0.0
 40
3.177854776382446
  1
(*2) Wärmedämmung entsprechend druckfest,
 41
0.9804659138007177
  7
Style0
100
AcDbText
  0
TEXT
  5
22C
330
B7
100
AcDbEntity
  8
34_Gruppe
  6
Continuous
 62
     7
100
AcDbText
 10
33.25164199587889
 20
35.88679418342508
 30
0.0
 40
3.177854776382446
  1
2-lagig lt. ÖNORM B 3691
 41
0.9804659138007177
  7
Style0
100
AcDbText
  0
TEXT
  5
22D
330
B7
100
AcDbEntity
  8
34_Gruppe
  6
Continuous
 62
     7
100
AcDbText
 10
33.25164199587889
 20
30.6908708527364
 30
0.0
 40
3.177854776382446
  1
(*3) Ohne vorhandene bauphysikalische
 41
0.9804659138007177
  7
Style0
100
AcDbText
  0
TEXT
  5
22E
330
B7
100
AcDbEntity
  8
34_Gruppe
  6
Continuous
 62
     7
100
AcDbText
 10
33.25164199587889
 20
25.23031721951847
 30
0.0
 40
3.177854776382446
  1
Berechnung, Dampfsperre >1000m sd-Wert
 41
0.9804659138007177
  7
Style0
100
AcDbText
  0
TEXT
  5
22F
330
B7
100
AcDbEntity
  8
34_Gruppe
  6
Continuous
 62
     7
100
AcDbText
 10
33.25164199587889
 20
19.76976358630054
 30
0.0
 40
3.177854776382446
  1
lt. ÖNORM B 3691 erforderlich
 41
0.9804659138007177
  7
Style0
100
AcDbText
  0
TEXT
  5
230
330
B7
100
AcDbEntity
  8
34_Gruppe
  6
Continuous
 62
     7
100
AcDbText
 10
33.25164199587889
 20
46.87403652082574
 30
0.0
 40
3.177854776382446
  1
(*1) Schutzlage lt. ÖNORM B 3691 erforderlich
 41
0.9804659138007177
  7
Style0
100
AcDbText
  0
LINE
  5
231
330
B7
100
AcDbEntity
  8
Folie _ 3
  6
Continuous
 62
     7
370
    20
100
AcDbLine
 10
97.04322571793637
 20
84.06987637665934
 30
0.0
 11
102.6432258013827
 21
93.56987637665934
 31
0.0
  0
LINE
  5
232
330
B7
100
AcDbEntity
  8
Folie _ 3
  6
Continuous
 62
     7
370
    20
100
AcDbLine
 10
102.6432258013829
 20
93.56987637665897
 30
0.0
 11
108.2432258848294
 21
84.06987637665897
 31
0.0
  0
LINE
  5
233
330
B7
100
AcDbEntity
  8
Folie _ 3
  6
Continuous
 62
     7
370
    20
100
AcDbLine
 10
108.2432258848294
 20
84.06987637665897
 30
0.0
 11
113.8432259682759
 21
93.56987637665897
 31
0.0
  0
LINE
  5
234
330
B7
100
AcDbEntity
  8
Folie _ 3
  6
Continuous
 62
     7
370
    20
100
AcDbLine
 10
113.8432259682761
 20
93.56987637665897
 30
0.0
 11
119.4432260517224
 21
84.06987637665915
 31
0.0
  0
LINE
  5
235
330
B7
100
AcDbEntity
  8
Folie _ 3
  6
Continuous
 62
     7
370
    20
100
AcDbLine
 10
119.4432260517224
 20
84.06987637665897
 30
0.0
 11
125.0432261351691
 21
93.56987637665897
 31
0.0
  0
LINE
  5
236
330
B7
100
AcDbEntity
  8
Folie _ 3
  6
Continuous
 62
     7
370
    20
100
AcDbLine
 10
125.0432261351691
 20
93.56987637665897
 30
0.0
 11
130.6432262186156
 21
84.06987637665915
 31
0.0
  0
LINE
  5
237
330
B7
100
AcDbEntity
  8
Folie _ 3
  6
Continuous
 62
     7
370
    20
100
AcDbLine
 10
130.6432262186156
 20
84.06987637665897
 30
0.0
 11
136.2432263020621
 21
93.56987637665897
 31
0.0
  0
LINE
  5
238
330
B7
100
AcDbEntity
  8
Folie _ 3
  6
Continuous
 62
     7
370
    20
100
AcDbLine
 10
136.2432263020623
 20
93.56987637665915
 30
0.0
 11
141.8432263855088
 21
84.06987637665915
 31
0.0
  0
LINE
  5
239
330
B7
100
AcDbEntity
  8
Folie _ 3
  6
Continuous
 62
     7
370
    20
100
AcDbLine
 10
153.0432265524019
 20
84.06987637665897
 30
0.0
 11
147.4432264689554
 21
93.56987637665897
 31
0.0
  0
LINE
  5
23A
330
B7
100
AcDbEntity
  8
Folie _ 3
  6
Continuous
 62
     7
370
    20
100
AcDbLine
 10
147.4432264689553
 20
93.56987637665915
 30
0.0
 11
141.8432263855088
 21
84.06987637665915
 31
0.0
  0
LINE
  5
23B
330
B7
100
AcDbEntity
  8
Folie _ 3
  6
Continuous
 62
     7
370
    20
100
AcDbLine
 10
153.0432265524019
 20
84.06987637665897
 30
0.0
 11
158.6432266358485
 21
93.56987637665897
 31
0.0
  0
LINE
  5
23C
330
B7
100
AcDbEntity
  8
Folie _ 3
  6
Continuous
 62
     7
370
    20
100
AcDbLine
 10
158.6432266358486
 20
93.56987637665915
 30
0.0
 11
164.2432267192951
 21
84.06987637665915
 31
0.0
  0
LINE
  5
23D
330
B7
100
AcDbEntity
  8
Folie _ 3
  6
Continuous
 62
     7
370
    20
100
AcDbLine
 10
175.4432268861883
 20
84.06987637665897
 30
0.0
 11
169.8432268027418
 21
93.56987637665897
 31
0.0
  0
LINE
  5
23E
330
B7
100
AcDbEntity
  8
Folie _ 3
  6
Continuous
 62
     7
370
    20
100
AcDbLine
 10
169.8432268027416
 20
93.56987637665915
 30
0.0
 11
164.2432267192951
 21
84.06987637665915
 31
0.0
  0
LINE
  5
23F
330
B7
100
AcDbEntity
  8
Folie _ 3
  6
Continuous
 62
     7
370
    20
100
AcDbLine
 10
175.4432268861883
 20
84.06987637665897
 30
0.0
 11
181.0432269696348
 21
93.56987637665897
 31
0.0
  0
LINE
  5
240
330
B7
100
AcDbEntity
  8
Folie _ 3
  6
Continuous
 62
     7
370
    20
100
AcDbLine
 10
97.04322571793637
 20
93.56987637665934
 30
0.0
 11
102.6432258013829
 21
103.0698763766592
 31
0.0
  0
LINE
  5
241
330
B7
100
AcDbEntity
  8
Folie _ 3
  6
Continuous
 62
     7
370
    20
100
AcDbLine
 10
102.6432258013829
 20
103.069876376659
 30
0.0
 11
108.2432258848294
 21
93.56987637665897
 31
0.0
  0
LINE
  5
242
330
B7
100
AcDbEntity
  8
Folie _ 3
  6
Continuous
 62
     7
370
    20
100
AcDbLine
 10
108.2432258848294
 20
93.56987637665897
 30
0.0
 11
113.8432259682759
 21
103.069876376659
 31
0.0
  0
LINE
  5
243
330
B7
100
AcDbEntity
  8
Folie _ 3
  6
Continuous
 62
     7
370
    20
100
AcDbLine
 10
113.8432259682761
 20
103.069876376659
 30
0.0
 11
119.4432260517224
 21
93.56987637665897
 31
0.0
  0
LINE
  5
244
330
B7
100
AcDbEntity
  8
Folie _ 3
  6
Continuous
 62
     7
370
    20
100
AcDbLine
 10
119.4432260517224
 20
93.56987637665897
 30
0.0
 11
125.0432261351691
 21
103.069876376659
 31
0.0
  0
LINE
  5
245
330
B7
100
AcDbEntity
  8
Folie _ 3
  6
Continuous
 62
     7
370
    20
100
AcDbLine
 10
125.0432261351691
 20
103.069876376659
 30
0.0
 11
130.6432262186156
 21
93.56987637665915
 31
0.0
  0
LINE
  5
246
330
B7
100
AcDbEntity
  8
Folie _ 3
  6
Continuous
 62
     7
370
    20
100
AcDbLine
 10
141.8432263855088
 20
93.56987637665897
 30
0.0
 11
136.2432263020621
 21
103.069876376659
 31
0.0
  0
LINE
  5
247
330
B7
100
AcDbEntity
  8
Folie _ 3
  6
Continuous
 62
     7
370
    20
100
AcDbLine
 10
136.2432263020621
 20
103.069876376659
 30
0.0
 11
130.6432262186156
 21
93.56987637665915
 31
0.0
  0
LINE
  5
248
330
B7
100
AcDbEntity
  8
Folie _ 3
  6
Continuous
 62
     7
370
    20
100
AcDbLine
 10
141.8432263855088
 20
93.56987637665934
 30
0.0
 11
147.4432264689553
 21
103.0698763766592
 31
0.0
  0
LINE
  5
249
330
B7
100
AcDbEntity
  8
Folie _ 3
  6
Continuous
 62
     7
370
    20
100
AcDbLine
 10
147.4432264689553
 20
103.069876376659
 30
0.0
 11
153.0432265524018
 21
93.56987637665897
 31
0.0
  0
LINE
  5
24A
330
B7
100
AcDbEntity
  8
Folie _ 3
  6
Continuous
 62
     7
370
    20
100
AcDbLine
 10
153.0432265524018
 20
93.56987637665897
 30
0.0
 11
158.6432266358483
 21
103.069876376659
 31
0.0
  0
LINE
  5
24B
330
B7
100
AcDbEntity
  8
Folie _ 3
  6
Continuous
 62
     7
370
    20
100
AcDbLine
 10
158.6432266358485
 20
103.069876376659
 30
0.0
 11
164.2432267192948
 21
93.56987637665897
 31
0.0
  0
LINE
  5
24C
330
B7
100
AcDbEntity
  8
Folie _ 3
  6
Continuous
 62
     7
370
    20
100
AcDbLine
 10
164.2432267192948
 20
93.56987637665897
 30
0.0
 11
169.8432268027415
 21
103.069876376659
 31
0.0
  0
LINE
  5
24D
330
B7
100
AcDbEntity
  8
Folie _ 3
  6
Continuous
 62
     7
370
    20
100
AcDbLine
 10
169.8432268027415
 20
103.069876376659
 30
0.0
 11
175.443226886188
 21
93.56987637665915
 31
0.0
  0
LINE
  5
24E
330
B7
100
AcDbEntity
  8
Folie _ 3
  6
Continuous
 62
     7
370
    20
100
AcDbLine
 10
183.5432257179364
 20
98.82880713470094
 30
0.0
 11
181.0432269696345
 21
103.069876376659
 31
0.0
  0
LINE
  5
24F
330
B7
100
AcDbEntity
  8
Folie _ 3
  6
Continuous
 62
     7
370
    20
100
AcDbLine
 10
181.0432269696345
 20
103.069876376659
 30
0.0
 11
175.443226886188
 21
93.56987637665915
 31
0.0
  0
LINE
  5
250
330
B7
100
AcDbEntity
  8
STANDARD
  6
Continuous
 62
     7
370
    20
100
AcDbLine
 10
92.04322571793637
 20
121.869876376659
 30
0.0
 11
95.04322571793637
 21
118.0258146672359
 31
0.0
  0
LINE
  5
251
330
B7
100
AcDbEntity
  8
STANDARD
  6
Continuous
 62
     7
370
    20
100
AcDbLine
 10
95.04322571793637
 20
121.869876376659
 30
0.0
 11
92.04322571793637
 21
117.869876376659
 31
0.0
  0
LINE
  5
252
330
B7
100
AcDbEntity
  8
STANDARD
  6
Continuous
 62
     7
370
    20
100
AcDbLine
 10
95.06443571793643
 20
93.17641371236454
 30
0.0
 11
92.0628057179365
 21
92.18131371236444
 31
0.0
  0
LINE
  5
253
330
B7
100
AcDbEntity
  8
STANDARD
  6
Continuous
 62
     7
370
    20
100
AcDbLine
 10
95.0677057179364
 20
91.17641637665892
 30
0.0
 11
92.06607571793649
 21
92.17151637665901
 31
0.0
  0
LINE
  5
254
330
B7
100
AcDbEntity
  8
STANDARD
  6
Continuous
 62
     7
370
    20
100
AcDbLine
 10
91.32338571793645
 20
110.669876376659
 30
0.0
 11
89.57338571793645
 21
114.1698763766589
 31
0.0
  0
LINE
  5
255
330
B7
100
AcDbEntity
  8
STANDARD
  6
Continuous
 62
     7
370
    20
100
AcDbLine
 10
89.57338571793645
 20
114.1698763766589
 30
0.0
 11
87.82689273196448
 21
110.669876376659
 31
0.0
  0
LINE
  5
256
330
B7
100
AcDbEntity
  8
STANDARD
  6
Continuous
 62
     7
370
    20
100
AcDbLine
 10
84.33039974599234
 20
110.669876376659
 30
0.0
 11
86.08039974599234
 21
114.1698763766589
 31
0.0
  0
LINE
  5
257
330
B7
100
AcDbEntity
  8
STANDARD
  6
Continuous
 62
     7
370
    20
100
AcDbLine
 10
86.08039974599234
 20
114.1698763766589
 30
0.0
 11
87.82689273196429
 21
110.669876376659
 31
0.0
  0
LINE
  5
258
330
B7
100
AcDbEntity
  8
STANDARD
  6
Continuous
 62
     7
370
    20
100
AcDbLine
 10
79.08741377404804
 20
114.1698763766589
 30
0.0
 11
80.83390676002
 21
110.669876376659
 31
0.0
  0
LINE
  5
259
330
B7
100
AcDbEntity
  8
STANDARD
  6
Continuous
 62
     7
370
    20
100
AcDbLine
 10
84.33039974599215
 20
110.669876376659
 30
0.0
 11
82.58039974599215
 21
114.1698763766589
 31
0.0
  0
LINE
  5
25A
330
B7
100
AcDbEntity
  8
STANDARD
  6
Continuous
 62
     7
370
    20
100
AcDbLine
 10
82.58039974599215
 20
114.1698763766589
 30
0.0
 11
80.83390676002018
 21
110.669876376659
 31
0.0
  0
LINE
  5
25B
330
B7
100
AcDbEntity
  8
STANDARD
  6
Continuous
 62
     7
370
    20
100
AcDbLine
 10
79.08741377404786
 20
114.1698763766589
 30
0.0
 11
77.34092078807589
 21
110.669876376659
 31
0.0
  0
LINE
  5
25C
330
B7
100
AcDbEntity
  8
STANDARD
  6
Continuous
 62
     7
370
    20
100
AcDbLine
 10
73.84442780210375
 20
110.669876376659
 30
0.0
 11
75.59442780210375
 21
114.1698763766589
 31
0.0
  0
LINE
  5
25D
330
B7
100
AcDbEntity
  8
STANDARD
  6
Continuous
 62
     7
370
    20
100
AcDbLine
 10
75.59442780210375
 20
114.1698763766589
 30
0.0
 11
77.34092078807572
 21
110.669876376659
 31
0.0
  0
LINE
  5
25E
330
B7
100
AcDbEntity
  8
STANDARD
  6
Continuous
 62
     7
370
    20
100
AcDbLine
 10
92.0447257179365
 20
112.115446376659
 30
0.0
 11
91.32338571793645
 21
110.669876376659
 31
0.0
  0
ARC
  5
25F
330
B7
100
AcDbEntity
  8
Folie _ 3
  6
Continuous
 62
     7
370
    20
100
AcDbCircle
 10
97.34322571793638
 20
104.7365430631936
 30
0.0
 40
0.3333288181230383
100
AcDbArc
 50
30.00044020598454
 51
90.00000000001172
  0
LINE
  5
260
330
B7
100
AcDbEntity
  8
Folie _ 3
  6
Continuous
 62
     7
370
    20
100
AcDbLine
 10
97.63190066853605
 20
104.9032096901238
 30
0.0
 11
98.0545507673367
 21
104.2365430780947
 31
0.0
  0
ARC
  5
261
330
B7
100
AcDbEntity
  8
Folie _ 3
  6
Continuous
 62
     7
370
    20
100
AcDbCircle
 10
98.34322571793638
 20
104.4032096901238
 30
0.0
 40
0.3333331466701038
100
AcDbArc
 50
210.0000076799411
 51
270.0
  0
ARC
  5
262
330
B7
100
AcDbEntity
  8
Folie _ 3
  6
Continuous
 62
     7
370
    20
100
AcDbCircle
 10
98.34322571793638
 20
104.4032096901238
 30
0.0
 40
0.3333333134651184
100
AcDbArc
 50
270.0
 51
329.9999974427038
  0
LINE
  5
263
330
B7
100
AcDbEntity
  8
Folie _ 3
  6
Continuous
 62
     7
370
    20
100
AcDbLine
 10
98.63190072814069
 20
104.2365430780947
 30
0.0
 11
99.05455070773206
 21
104.9032096901238
 31
0.0
  0
ARC
  5
264
330
B7
100
AcDbEntity
  8
Folie _ 3
  6
Continuous
 62
     7
370
    20
100
AcDbCircle
 10
99.34322571793638
 20
104.7365430631936
 30
0.0
 40
0.3333288181230383
100
AcDbArc
 50
30.00044020598454
 51
149.9999952245361
  0
LINE
  5
265
330
B7
100
AcDbEntity
  8
Folie _ 3
  6
Continuous
 62
     7
370
    20
100
AcDbLine
 10
99.63190066853605
 20
104.9032096901238
 30
0.0
 11
100.0545507673367
 21
104.2365430780947
 31
0.0
  0
ARC
  5
266
330
B7
100
AcDbEntity
  8
Folie _ 3
  6
Continuous
 62
     7
370
    20
100
AcDbCircle
 10
100.3432257179364
 20
104.4032096901238
 30
0.0
 40
0.3333331466701038
100
AcDbArc
 50
210.0000076799411
 51
270.0
  0
ARC
  5
267
330
B7
100
AcDbEntity
  8
Folie _ 3
  6
Continuous
 62
     7
370
    20
100
AcDbCircle
 10
100.3432257179364
 20
104.4032096901238
 30
0.0
 40
0.3333333134651184
100
AcDbArc
 50
270.0
 51
329.9999974427038
  0
LINE
  5
268
330
B7
100
AcDbEntity
  8
Folie _ 3
  6
Continuous
 62
     7
370
    20
100
AcDbLine
 10
100.6319007281407
 20
104.2365430780947
 30
0.0
 11
101.0545507077321
 21
104.9032096901238
 31
0.0
  0
ARC
  5
269
330
B7
100
AcDbEntity
  8
Folie _ 3
  6
Continuous
 62
     7
370
    20
100
AcDbCircle
 10
101.3432257179364
 20
104.7365430631936
 30
0.0
 40
0.3333288181230383
100
AcDbArc
 50
30.00044020598454
 51
149.9999952245361
  0
LINE
  5
26A
330
B7
100
AcDbEntity
  8
Folie _ 3
  6
Continuous
 62
     7
370
    20
100
AcDbLine
 10
101.631900668536
 20
104.9032096901238
 30
0.0
 11
102.0545507673367
 21
104.2365430780947
 31
0.0
  0
ARC
  5
26B
330
B7
100
AcDbEntity
  8
Folie _ 3
  6
Continuous
 62
     7
370
    20
100
AcDbCircle
 10
102.3432257179364
 20
104.4032096901238
 30
0.0
 40
0.3333331466701038
100
AcDbArc
 50
210.0000076799411
 51
270.0
  0
ARC
  5
26C
330
B7
100
AcDbEntity
  8
Folie _ 3
  6
Continuous
 62
     7
370
    20
100
AcDbCircle
 10
102.3432257179364
 20
104.4032096901238
 30
0.0
 40
0.3333333134651184
100
AcDbArc
 50
270.0
 51
329.9999974427038
  0
LINE
  5
26D
330
B7
100
AcDbEntity
  8
Folie _ 3
  6
Continuous
 62
     7
370
    20
100
AcDbLine
 10
102.6319007281407
 20
104.2365430780947
 30
0.0
 11
103.0545507077321
 21
104.9032096901238
 31
0.0
  0
ARC
  5
26E
330
B7
100
AcDbEntity
  8
Folie _ 3
  6
Continuous
 62
     7
370
    20
100
AcDbCircle
 10
103.3432257179364
 20
104.7365430631936
 30
0.0
 40
0.3333288181230383
100
AcDbArc
 50
30.00044020598454
 51
149.9999952245361
  0
LINE
  5
26F
330
B7
100
AcDbEntity
  8
Folie _ 3
  6
Continuous
 62
     7
370
    20
100
AcDbLine
 10
103.631900668536
 20
104.9032096901238
 30
0.0
 11
104.0545507673367
 21
104.2365430780947
 31
0.0
  0
ARC
  5
270
330
B7
100
AcDbEntity
  8
Folie _ 3
  6
Continuous
 62
     7
370
    20
100
AcDbCircle
 10
104.3432257179364
 20
104.4032096901238
 30
0.0
 40
0.3333331466701038
100
AcDbArc
 50
210.0000076799411
 51
270.0
  0
ARC
  5
271
330
B7
100
AcDbEntity
  8
Folie _ 3
  6
Continuous
 62
     7
370
    20
100
AcDbCircle
 10
104.3432257179364
 20
104.4032096901238
 30
0.0
 40
0.3333333134651184
100
AcDbArc
 50
270.0
 51
329.9999974427038
  0
LINE
  5
272
330
B7
100
AcDbEntity
  8
Folie _ 3
  6
Continuous
 62
     7
370
    20
100
AcDbLine
 10
104.6319007281409
 20
104.2365430780947
 30
0.0
 11
105.0545507077322
 21
104.9032096901238
 31
0.0
  0
ARC
  5
273
330
B7
100
AcDbEntity
  8
Folie _ 3
  6
Continuous
 62
     7
370
    20
100
AcDbCircle
 10
105.3432257179365
 20
104.7365430631936
 30
0.0
 40
0.3333288181230383
100
AcDbArc
 50
30.00044020598454
 51
149.9999952245361
  0
LINE
  5
274
330
B7
100
AcDbEntity
  8
Folie _ 3
  6
Continuous
 62
     7
370
    20
100
AcDbLine
 10
105.6319006685362
 20
104.9032096901238
 30
0.0
 11
106.0545507673369
 21
104.2365430780947
 31
0.0
  0
ARC
  5
275
330
B7
100
AcDbEntity
  8
Folie _ 3
  6
Continuous
 62
     7
370
    20
100
AcDbCircle
 10
106.3432257179365
 20
104.4032096901238
 30
0.0
 40
0.3333331466701038
100
AcDbArc
 50
210.0000076799411
 51
270.0
  0
ARC
  5
276
330
B7
100
AcDbEntity
  8
Folie _ 3
  6
Continuous
 62
     7
370
    20
100
AcDbCircle
 10
106.3432257179365
 20
104.4032096901238
 30
0.0
 40
0.3333333134651184
100
AcDbArc
 50
270.0
 51
329.9999974427038
  0
LINE
  5
277
330
B7
100
AcDbEntity
  8
Folie _ 3
  6
Continuous
 62
     7
370
    20
100
AcDbLine
 10
106.6319007281409
 20
104.2365430780947
 30
0.0
 11
107.0545507077322
 21
104.9032096901238
 31
0.0
  0
ARC
  5
278
330
B7
100
AcDbEntity
  8
Folie _ 3
  6
Continuous
 62
     7
370
    20
100
AcDbCircle
 10
107.3432257179365
 20
104.7365430631936
 30
0.0
 40
0.3333288181230383
100
AcDbArc
 50
30.00044020598454
 51
149.9999952245361
  0
LINE
  5
279
330
B7
100
AcDbEntity
  8
Folie _ 3
  6
Continuous
 62
     7
370
    20
100
AcDbLine
 10
107.6319006685362
 20
104.9032096901238
 30
0.0
 11
108.0545507673369
 21
104.2365430780947
 31
0.0
  0
ARC
  5
27A
330
B7
100
AcDbEntity
  8
Folie _ 3
  6
Continuous
 62
     7
370
    20
100
AcDbCircle
 10
108.3432257179365
 20
104.4032096901238
 30
0.0
 40
0.3333331466701038
100
AcDbArc
 50
210.0000076799411
 51
270.0
  0
ARC
  5
27B
330
B7
100
AcDbEntity
  8
Folie _ 3
  6
Continuous
 62
     7
370
    20
100
AcDbCircle
 10
108.3432257179365
 20
104.4032096901238
 30
0.0
 40
0.3333333134651184
100
AcDbArc
 50
270.0
 51
329.9999974427038
  0
LINE
  5
27C
330
B7
100
AcDbEntity
  8
Folie _ 3
  6
Continuous
 62
     7
370
    20
100
AcDbLine
 10
108.6319007281409
 20
104.2365430780947
 30
0.0
 11
109.0545507077322
 21
104.9032096901238
 31
0.0
  0
ARC
  5
27D
330
B7
100
AcDbEntity
  8
Folie _ 3
  6
Continuous
 62
     7
370
    20
100
AcDbCircle
 10
109.3432257179365
 20
104.7365430631936
 30
0.0
 40
0.3333288181230383
100
AcDbArc
 50
30.00044020598454
 51
149.9999952245361
  0
LINE
  5
27E
330
B7
100
AcDbEntity
  8
Folie _ 3
  6
Continuous
 62
     7
370
    20
100
AcDbLine
 10
109.6319006685362
 20
104.9032096901238
 30
0.0
 11
110.0545507673369
 21
104.2365430780947
 31
0.0
  0
ARC
  5
27F
330
B7
100
AcDbEntity
  8
Folie _ 3
  6
Continuous
 62
     7
370
    20
100
AcDbCircle
 10
110.3432257179365
 20
104.4032096901238
 30
0.0
 40
0.3333331466701038
100
AcDbArc
 50
210.0000076799411
 51
270.0
  0
ARC
  5
280
330
B7
100
AcDbEntity
  8
Folie _ 3
  6
Continuous
 62
     7
370
    20
100
AcDbCircle
 10
110.3432257179365
 20
104.4032096901238
 30
0.0
 40
0.3333333134651184
100
AcDbArc
 50
270.0
 51
329.9999974427038
  0
LINE
  5
281
330
B7
100
AcDbEntity
  8
Folie _ 3
  6
Continuous
 62
     7
370
    20
100
AcDbLine
 10
110.6319007281409
 20
104.2365430780947
 30
0.0
 11
111.0545507077322
 21
104.9032096901238
 31
0.0
  0
ARC
  5
282
330
B7
100
AcDbEntity
  8
Folie _ 3
  6
Continuous
 62
     7
370
    20
100
AcDbCircle
 10
111.3432257179365
 20
104.7365430631936
 30
0.0
 40
0.3333288181230383
100
AcDbArc
 50
30.00044020598454
 51
149.9999952245361
  0
LINE
  5
283
330
B7
100
AcDbEntity
  8
Folie _ 3
  6
Continuous
 62
     7
370
    20
100
AcDbLine
 10
111.6319006685362
 20
104.9032096901238
 30
0.0
 11
112.0545507673369
 21
104.2365430780947
 31
0.0
  0
ARC
  5
284
330
B7
100
AcDbEntity
  8
Folie _ 3
  6
Continuous
 62
     7
370
    20
100
AcDbCircle
 10
112.3432257179365
 20
104.4032096901238
 30
0.0
 40
0.3333331466701038
100
AcDbArc
 50
210.0000076799411
 51
270.0
  0
ARC
  5
285
330
B7
100
AcDbEntity
  8
Folie _ 3
  6
Continuous
 62
     7
370
    20
100
AcDbCircle
 10
112.3432257179365
 20
104.4032096901238
 30
0.0
 40
0.3333333134651184
100
AcDbArc
 50
270.0
 51
329.9999974427038
  0
LINE
  5
286
330
B7
100
AcDbEntity
  8
Folie _ 3
  6
Continuous
 62
     7
370
    20
100
AcDbLine
 10
112.631900728141
 20
104.2365430780947
 30
0.0
 11
113.0545507077324
 21
104.9032096901238
 31
0.0
  0
ARC
  5
287
330
B7
100
AcDbEntity
  8
Folie _ 3
  6
Continuous
 62
     7
370
    20
100
AcDbCircle
 10
113.3432257179367
 20
104.7365430631936
 30
0.0
 40
0.3333288181230383
100
AcDbArc
 50
30.00044020598454
 51
149.9999952245361
  0
LINE
  5
288
330
B7
100
AcDbEntity
  8
Folie _ 3
  6
Continuous
 62
     7
370
    20
100
AcDbLine
 10
113.6319006685364
 20
104.9032096901238
 30
0.0
 11
114.0545507673371
 21
104.2365430780947
 31
0.0
  0
ARC
  5
289
330
B7
100
AcDbEntity
  8
Folie _ 3
  6
Continuous
 62
     7
370
    20
100
AcDbCircle
 10
114.3432257179367
 20
104.4032096901238
 30
0.0
 40
0.3333331466701038
100
AcDbArc
 50
210.0000076799411
 51
270.0
  0
ARC
  5
28A
330
B7
100
AcDbEntity
  8
Folie _ 3
  6
Continuous
 62
     7
370
    20
100
AcDbCircle
 10
114.3432257179367
 20
104.4032096901238
 30
0.0
 40
0.3333333134651184
100
AcDbArc
 50
270.0
 51
329.9999974427038
  0
LINE
  5
28B
330
B7
100
AcDbEntity
  8
Folie _ 3
  6
Continuous
 62
     7
370
    20
100
AcDbLine
 10
114.631900728141
 20
104.2365430780947
 30
0.0
 11
115.0545507077324
 21
104.9032096901238
 31
0.0
  0
ARC
  5
28C
330
B7
100
AcDbEntity
  8
Folie _ 3
  6
Continuous
 62
     7
370
    20
100
AcDbCircle
 10
115.3432257179367
 20
104.7365430631936
 30
0.0
 40
0.3333288181230383
100
AcDbArc
 50
30.00044020598454
 51
149.9999952245361
  0
LINE
  5
28D
330
B7
100
AcDbEntity
  8
Folie _ 3
  6
Continuous
 62
     7
370
    20
100
AcDbLine
 10
115.6319006685364
 20
104.9032096901238
 30
0.0
 11
116.0545507673371
 21
104.2365430780947
 31
0.0
  0
ARC
  5
28E
330
B7
100
AcDbEntity
  8
Folie _ 3
  6
Continuous
 62
     7
370
    20
100
AcDbCircle
 10
116.3432257179367
 20
104.4032096901238
 30
0.0
 40
0.3333331466701038
100
AcDbArc
 50
210.0000076799411
 51
270.0
  0
ARC
  5
28F
330
B7
100
AcDbEntity
  8
Folie _ 3
  6
Continuous
 62
     7
370
    20
100
AcDbCircle
 10
116.3432257179367
 20
104.4032096901238
 30
0.0
 40
0.3333333134651184
100
AcDbArc
 50
270.0
 51
329.9999974427038
  0
LINE
  5
290
330
B7
100
AcDbEntity
  8
Folie _ 3
  6
Continuous
 62
     7
370
    20
100
AcDbLine
 10
116.631900728141
 20
104.2365430780947
 30
0.0
 11
117.0545507077324
 21
104.9032096901238
 31
0.0
  0
ARC
  5
291
330
B7
100
AcDbEntity
  8
Folie _ 3
  6
Continuous
 62
     7
370
    20
100
AcDbCircle
 10
117.3432257179367
 20
104.7365430631936
 30
0.0
 40
0.3333288181230383
100
AcDbArc
 50
30.00044020598454
 51
149.9999952245361
  0
LINE
  5
292
330
B7
100
AcDbEntity
  8
Folie _ 3
  6
Continuous
 62
     7
370
    20
100
AcDbLine
 10
117.6319006685364
 20
104.9032096901238
 30
0.0
 11
118.0545507673371
 21
104.2365430780947
 31
0.0
  0
ARC
  5
293
330
B7
100
AcDbEntity
  8
Folie _ 3
  6
Continuous
 62
     7
370
    20
100
AcDbCircle
 10
118.3432257179367
 20
104.4032096901238
 30
0.0
 40
0.3333331466701038
100
AcDbArc
 50
210.0000076799411
 51
270.0
  0
ARC
  5
294
330
B7
100
AcDbEntity
  8
Folie _ 3
  6
Continuous
 62
     7
370
    20
100
AcDbCircle
 10
118.3432257179367
 20
104.4032096901238
 30
0.0
 40
0.3333333134651184
100
AcDbArc
 50
270.0
 51
329.9999974427038
  0
LINE
  5
295
330
B7
100
AcDbEntity
  8
Folie _ 3
  6
Continuous
 62
     7
370
    20
100
AcDbLine
 10
118.631900728141
 20
104.2365430780947
 30
0.0
 11
119.0545507077324
 21
104.9032096901238
 31
0.0
  0
ARC
  5
296
330
B7
100
AcDbEntity
  8
Folie _ 3
  6
Continuous
 62
     7
370
    20
100
AcDbCircle
 10
119.3432257179367
 20
104.7365430631936
 30
0.0
 40
0.3333288181230383
100
AcDbArc
 50
30.00044020598454
 51
149.9999952245361
  0
LINE
  5
297
330
B7
100
AcDbEntity
  8
Folie _ 3
  6
Continuous
 62
     7
370
    20
100
AcDbLine
 10
119.6319006685364
 20
104.9032096901238
 30
0.0
 11
120.0545507673371
 21
104.2365430780947
 31
0.0
  0
ARC
  5
298
330
B7
100
AcDbEntity
  8
Folie _ 3
  6
Continuous
 62
     7
370
    20
100
AcDbCircle
 10
120.3432257179367
 20
104.4032096901238
 30
0.0
 40
0.3333331466701038
100
AcDbArc
 50
210.0000076799411
 51
270.0
  0
ARC
  5
299
330
B7
100
AcDbEntity
  8
Folie _ 3
  6
Continuous
 62
     7
370
    20
100
AcDbCircle
 10
120.3432257179367
 20
104.4032096901238
 30
0.0
 40
0.3333333134651184
100
AcDbArc
 50
270.0
 51
329.9999974427038
  0
LINE
  5
29A
330
B7
100
AcDbEntity
  8
Folie _ 3
  6
Continuous
 62
     7
370
    20
100
AcDbLine
 10
120.631900728141
 20
104.2365430780947
 30
0.0
 11
121.0545507077324
 21
104.9032096901238
 31
0.0
  0
ARC
  5
29B
330
B7
100
AcDbEntity
  8
Folie _ 3
  6
Continuous
 62
     7
370
    20
100
AcDbCircle
 10
121.3432257179367
 20
104.7365430631936
 30
0.0
 40
0.3333288181230383
100
AcDbArc
 50
30.00044020598454
 51
149.9999952245361
  0
LINE
  5
29C
330
B7
100
AcDbEntity
  8
Folie _ 3
  6
Continuous
 62
     7
370
    20
100
AcDbLine
 10
121.6319006685364
 20
104.9032096901238
 30
0.0
 11
122.0545507673371
 21
104.2365430780947
 31
0.0
  0
ARC
  5
29D
330
B7
100
AcDbEntity
  8
Folie _ 3
  6
Continuous
 62
     7
370
    20
100
AcDbCircle
 10
122.3432257179367
 20
104.4032096901238
 30
0.0
 40
0.3333331466701038
100
AcDbArc
 50
210.0000076799411
 51
270.0
  0
ARC
  5
29E
330
B7
100
AcDbEntity
  8
Folie _ 3
  6
Continuous
 62
     7
370
    20
100
AcDbCircle
 10
122.3432257179367
 20
104.4032096901238
 30
0.0
 40
0.3333333134651184
100
AcDbArc
 50
270.0
 51
329.9999974427038
  0
LINE
  5
29F
330
B7
100
AcDbEntity
  8
Folie _ 3
  6
Continuous
 62
     7
370
    20
100
AcDbLine
 10
122.631900728141
 20
104.2365430780947
 30
0.0
 11
123.0545507077324
 21
104.9032096901238
 31
0.0
  0
ARC
  5
2A0
330
B7
100
AcDbEntity
  8
Folie _ 3
  6
Continuous
 62
     7
370
    20
100
AcDbCircle
 10
123.3432257179367
 20
104.7365430631936
 30
0.0
 40
0.3333288181230383
100
AcDbArc
 50
30.00044020598454
 51
149.9999952245361
  0
LINE
  5
2A1
330
B7
100
AcDbEntity
  8
Folie _ 3
  6
Continuous
 62
     7
370
    20
100
AcDbLine
 10
123.6319006685364
 20
104.9032096901238
 30
0.0
 11
124.0545507673371
 21
104.2365430780947
 31
0.0
  0
ARC
  5
2A2
330
B7
100
AcDbEntity
  8
Folie _ 3
  6
Continuous
 62
     7
370
    20
100
AcDbCircle
 10
124.3432257179367
 20
104.4032096901238
 30
0.0
 40
0.3333331466701038
100
AcDbArc
 50
210.0000076799411
 51
270.0
  0
ARC
  5
2A3
330
B7
100
AcDbEntity
  8
Folie _ 3
  6
Continuous
 62
     7
370
    20
100
AcDbCircle
 10
124.3432257179367
 20
104.4032096901238
 30
0.0
 40
0.3333333134651184
100
AcDbArc
 50
270.0
 51
329.9999974427038
  0
LINE
  5
2A4
330
B7
100
AcDbEntity
  8
Folie _ 3
  6
Continuous
 62
     7
370
    20
100
AcDbLine
 10
124.631900728141
 20
104.2365430780947
 30
0.0
 11
125.0545507077324
 21
104.9032096901238
 31
0.0
  0
ARC
  5
2A5
330
B7
100
AcDbEntity
  8
Folie _ 3
  6
Continuous
 62
     7
370
    20
100
AcDbCircle
 10
125.3432257179367
 20
104.7365430631936
 30
0.0
 40
0.3333288181230383
100
AcDbArc
 50
30.00044020598454
 51
149.9999952245361
  0
LINE
  5
2A6
330
B7
100
AcDbEntity
  8
Folie _ 3
  6
Continuous
 62
     7
370
    20
100
AcDbLine
 10
125.6319006685364
 20
104.9032096901238
 30
0.0
 11
126.0545507673371
 21
104.2365430780947
 31
0.0
  0
ARC
  5
2A7
330
B7
100
AcDbEntity
  8
Folie _ 3
  6
Continuous
 62
     7
370
    20
100
AcDbCircle
 10
126.3432257179367
 20
104.4032096901238
 30
0.0
 40
0.3333331466701038
100
AcDbArc
 50
210.0000076799411
 51
270.0
  0
ARC
  5
2A8
330
B7
100
AcDbEntity
  8
Folie _ 3
  6
Continuous
 62
     7
370
    20
100
AcDbCircle
 10
126.3432257179367
 20
104.4032096901238
 30
0.0
 40
0.3333333134651184
100
AcDbArc
 50
270.0
 51
329.9999974427038
  0
LINE
  5
2A9
330
B7
100
AcDbEntity
  8
Folie _ 3
  6
Continuous
 62
     7
370
    20
100
AcDbLine
 10
126.631900728141
 20
104.2365430780947
 30
0.0
 11
127.0545507077324
 21
104.9032096901238
 31
0.0
  0
ARC
  5
2AA
330
B7
100
AcDbEntity
  8
Folie _ 3
  6
Continuous
 62
     7
370
    20
100
AcDbCircle
 10
127.3432257179367
 20
104.7365430631936
 30
0.0
 40
0.3333288181230383
100
AcDbArc
 50
30.00044020598454
 51
149.9999952245361
  0
LINE
  5
2AB
330
B7
100
AcDbEntity
  8
Folie _ 3
  6
Continuous
 62
     7
370
    20
100
AcDbLine
 10
127.6319006685364
 20
104.9032096901238
 30
0.0
 11
128.0545507673371
 21
104.2365430780947
 31
0.0
  0
ARC
  5
2AC
330
B7
100
AcDbEntity
  8
Folie _ 3
  6
Continuous
 62
     7
370
    20
100
AcDbCircle
 10
128.3432257179367
 20
104.4032096901238
 30
0.0
 40
0.3333331466701038
100
AcDbArc
 50
210.0000076799411
 51
270.0
  0
ARC
  5
2AD
330
B7
100
AcDbEntity
  8
Folie _ 3
  6
Continuous
 62
     7
370
    20
100
AcDbCircle
 10
128.3432257179367
 20
104.4032096901238
 30
0.0
 40
0.3333333134651184
100
AcDbArc
 50
270.0
 51
329.9999974427038
  0
LINE
  5
2AE
330
B7
100
AcDbEntity
  8
Folie _ 3
  6
Continuous
 62
     7
370
    20
100
AcDbLine
 10
128.6319007281411
 20
104.2365430780947
 30
0.0
 11
129.0545507077324
 21
104.9032096901238
 31
0.0
  0
ARC
  5
2AF
330
B7
100
AcDbEntity
  8
Folie _ 3
  6
Continuous
 62
     7
370
    20
100
AcDbCircle
 10
129.3432257179367
 20
104.7365430631936
 30
0.0
 40
0.3333288181230383
100
AcDbArc
 50
30.00044020598454
 51
149.9999952245361
  0
LINE
  5
2B0
330
B7
100
AcDbEntity
  8
Folie _ 3
  6
Continuous
 62
     7
370
    20
100
AcDbLine
 10
129.6319006685366
 20
104.9032096901238
 30
0.0
 11
130.0545507673371
 21
104.2365430780947
 31
0.0
  0
ARC
  5
2B1
330
B7
100
AcDbEntity
  8
Folie _ 3
  6
Continuous
 62
     7
370
    20
100
AcDbCircle
 10
130.3432257179369
 20
104.4032096901238
 30
0.0
 40
0.3333331466701038
100
AcDbArc
 50
210.0000076799411
 51
270.0
  0
ARC
  5
2B2
330
B7
100
AcDbEntity
  8
Folie _ 3
  6
Continuous
 62
     7
370
    20
100
AcDbCircle
 10
130.3432257179369
 20
104.4032096901238
 30
0.0
 40
0.3333333134651184
100
AcDbArc
 50
270.0
 51
329.9999974427038
  0
LINE
  5
2B3
330
B7
100
AcDbEntity
  8
Folie _ 3
  6
Continuous
 62
     7
370
    20
100
AcDbLine
 10
130.6319007281412
 20
104.2365430780947
 30
0.0
 11
131.0545507077326
 21
104.9032096901238
 31
0.0
  0
ARC
  5
2B4
330
B7
100
AcDbEntity
  8
Folie _ 3
  6
Continuous
 62
     7
370
    20
100
AcDbCircle
 10
131.3432257179369
 20
104.7365430631936
 30
0.0
 40
0.3333288181230383
100
AcDbArc
 50
30.00044020598454
 51
149.9999952245361
  0
LINE
  5
2B5
330
B7
100
AcDbEntity
  8
Folie _ 3
  6
Continuous
 62
     7
370
    20
100
AcDbLine
 10
131.6319006685366
 20
104.9032096901238
 30
0.0
 11
132.0545507673372
 21
104.2365430780947
 31
0.0
  0
ARC
  5
2B6
330
B7
100
AcDbEntity
  8
Folie _ 3
  6
Continuous
 62
     7
370
    20
100
AcDbCircle
 10
132.3432257179369
 20
104.4032096901238
 30
0.0
 40
0.3333331466701038
100
AcDbArc
 50
210.0000076799411
 51
270.0
  0
ARC
  5
2B7
330
B7
100
AcDbEntity
  8
Folie _ 3
  6
Continuous
 62
     7
370
    20
100
AcDbCircle
 10
132.3432257179369
 20
104.4032096901238
 30
0.0
 40
0.3333333134651184
100
AcDbArc
 50
270.0
 51
329.9999974427038
  0
LINE
  5
2B8
330
B7
100
AcDbEntity
  8
Folie _ 3
  6
Continuous
 62
     7
370
    20
100
AcDbLine
 10
132.6319007281412
 20
104.2365430780947
 30
0.0
 11
133.0545507077326
 21
104.9032096901238
 31
0.0
  0
ARC
  5
2B9
330
B7
100
AcDbEntity
  8
Folie _ 3
  6
Continuous
 62
     7
370
    20
100
AcDbCircle
 10
133.3432257179369
 20
104.7365430631936
 30
0.0
 40
0.3333288181230383
100
AcDbArc
 50
30.00044020598454
 51
149.9999952245361
  0
LINE
  5
2BA
330
B7
100
AcDbEntity
  8
Folie _ 3
  6
Continuous
 62
     7
370
    20
100
AcDbLine
 10
133.6319006685366
 20
104.9032096901238
 30
0.0
 11
134.0545507673372
 21
104.2365430780947
 31
0.0
  0
ARC
  5
2BB
330
B7
100
AcDbEntity
  8
Folie _ 3
  6
Continuous
 62
     7
370
    20
100
AcDbCircle
 10
134.3432257179369
 20
104.4032096901238
 30
0.0
 40
0.3333331466701038
100
AcDbArc
 50
210.0000076799411
 51
270.0
  0
ARC
  5
2BC
330
B7
100
AcDbEntity
  8
Folie _ 3
  6
Continuous
 62
     7
370
    20
100
AcDbCircle
 10
134.3432257179369
 20
104.4032096901238
 30
0.0
 40
0.3333333134651184
100
AcDbArc
 50
270.0
 51
329.9999974427038
  0
LINE
  5
2BD
330
B7
100
AcDbEntity
  8
Folie _ 3
  6
Continuous
 62
     7
370
    20
100
AcDbLine
 10
134.6319007281412
 20
104.2365430780947
 30
0.0
 11
135.0545507077326
 21
104.9032096901238
 31
0.0
  0
ARC
  5
2BE
330
B7
100
AcDbEntity
  8
Folie _ 3
  6
Continuous
 62
     7
370
    20
100
AcDbCircle
 10
135.3432257179369
 20
104.7365430631936
 30
0.0
 40
0.3333288181230383
100
AcDbArc
 50
30.00044020598454
 51
149.9999952245361
  0
LINE
  5
2BF
330
B7
100
AcDbEntity
  8
Folie _ 3
  6
Continuous
 62
     7
370
    20
100
AcDbLine
 10
135.6319006685366
 20
104.9032096901238
 30
0.0
 11
136.0545507673372
 21
104.2365430780947
 31
0.0
  0
ARC
  5
2C0
330
B7
100
AcDbEntity
  8
Folie _ 3
  6
Continuous
 62
     7
370
    20
100
AcDbCircle
 10
136.3432257179369
 20
104.4032096901238
 30
0.0
 40
0.3333331466701038
100
AcDbArc
 50
210.0000076799411
 51
270.0
  0
ARC
  5
2C1
330
B7
100
AcDbEntity
  8
Folie _ 3
  6
Continuous
 62
     7
370
    20
100
AcDbCircle
 10
136.3432257179369
 20
104.4032096901238
 30
0.0
 40
0.3333333134651184
100
AcDbArc
 50
270.0
 51
329.9999974427038
  0
LINE
  5
2C2
330
B7
100
AcDbEntity
  8
Folie _ 3
  6
Continuous
 62
     7
370
    20
100
AcDbLine
 10
136.6319007281412
 20
104.2365430780947
 30
0.0
 11
137.0545507077326
 21
104.9032096901238
 31
0.0
  0
ARC
  5
2C3
330
B7
100
AcDbEntity
  8
Folie _ 3
  6
Continuous
 62
     7
370
    20
100
AcDbCircle
 10
137.3432257179369
 20
104.7365430631936
 30
0.0
 40
0.3333288181230383
100
AcDbArc
 50
30.00044020598454
 51
149.9999952245361
  0
LINE
  5
2C4
330
B7
100
AcDbEntity
  8
Folie _ 3
  6
Continuous
 62
     7
370
    20
100
AcDbLine
 10
137.6319006685368
 20
104.9032096901238
 30
0.0
 11
138.0545507673372
 21
104.2365430780947
 31
0.0
  0
ARC
  5
2C5
330
B7
100
AcDbEntity
  8
Folie _ 3
  6
Continuous
 62
     7
370
    20
100
AcDbCircle
 10
138.3432257179371
 20
104.4032096901238
 30
0.0
 40
0.3333331466701038
100
AcDbArc
 50
210.0000076799411
 51
270.0
  0
ARC
  5
2C6
330
B7
100
AcDbEntity
  8
Folie _ 3
  6
Continuous
 62
     7
370
    20
100
AcDbCircle
 10
138.3432257179371
 20
104.4032096901238
 30
0.0
 40
0.3333333134651184
100
AcDbArc
 50
270.0
 51
329.9999974427038
  0
LINE
  5
2C7
330
B7
100
AcDbEntity
  8
Folie _ 3
  6
Continuous
 62
     7
370
    20
100
AcDbLine
 10
138.6319007281414
 20
104.2365430780947
 30
0.0
 11
139.0545507077328
 21
104.9032096901238
 31
0.0
  0
ARC
  5
2C8
330
B7
100
AcDbEntity
  8
Folie _ 3
  6
Continuous
 62
     7
370
    20
100
AcDbCircle
 10
139.3432257179371
 20
104.7365430631936
 30
0.0
 40
0.3333288181230383
100
AcDbArc
 50
30.00044020598454
 51
149.9999952245361
  0
LINE
  5
2C9
330
B7
100
AcDbEntity
  8
Folie _ 3
  6
Continuous
 62
     7
370
    20
100
AcDbLine
 10
139.6319006685368
 20
104.9032096901238
 30
0.0
 11
140.0545507673374
 21
104.2365430780947
 31
0.0
  0
ARC
  5
2CA
330
B7
100
AcDbEntity
  8
Folie _ 3
  6
Continuous
 62
     7
370
    20
100
AcDbCircle
 10
140.3432257179371
 20
104.4032096901238
 30
0.0
 40
0.3333331466701038
100
AcDbArc
 50
210.0000076799411
 51
270.0
  0
ARC
  5
2CB
330
B7
100
AcDbEntity
  8
Folie _ 3
  6
Continuous
 62
     7
370
    20
100
AcDbCircle
 10
140.3432257179371
 20
104.4032096901238
 30
0.0
 40
0.3333333134651184
100
AcDbArc
 50
270.0
 51
329.9999974427038
  0
LINE
  5
2CC
330
B7
100
AcDbEntity
  8
Folie _ 3
  6
Continuous
 62
     7
370
    20
100
AcDbLine
 10
140.6319007281414
 20
104.2365430780947
 30
0.0
 11
141.0545507077328
 21
104.9032096901238
 31
0.0
  0
ARC
  5
2CD
330
B7
100
AcDbEntity
  8
Folie _ 3
  6
Continuous
 62
     7
370
    20
100
AcDbCircle
 10
141.3432257179371
 20
104.7365430631936
 30
0.0
 40
0.3333288181230383
100
AcDbArc
 50
30.00044020598454
 51
149.9999952245361
  0
LINE
  5
2CE
330
B7
100
AcDbEntity
  8
Folie _ 3
  6
Continuous
 62
     7
370
    20
100
AcDbLine
 10
141.6319006685368
 20
104.9032096901238
 30
0.0
 11
142.0545507673374
 21
104.2365430780947
 31
0.0
  0
ARC
  5
2CF
330
B7
100
AcDbEntity
  8
Folie _ 3
  6
Continuous
 62
     7
370
    20
100
AcDbCircle
 10
142.3432257179371
 20
104.4032096901238
 30
0.0
 40
0.3333331466701038
100
AcDbArc
 50
210.0000076799411
 51
270.0
  0
ARC
  5
2D0
330
B7
100
AcDbEntity
  8
Folie _ 3
  6
Continuous
 62
     7
370
    20
100
AcDbCircle
 10
142.3432257179371
 20
104.4032096901238
 30
0.0
 40
0.3333333134651184
100
AcDbArc
 50
270.0
 51
329.9999974427038
  0
LINE
  5
2D1
330
B7
100
AcDbEntity
  8
Folie _ 3
  6
Continuous
 62
     7
370
    20
100
AcDbLine
 10
142.6319007281414
 20
104.2365430780947
 30
0.0
 11
143.0545507077328
 21
104.9032096901238
 31
0.0
  0
ARC
  5
2D2
330
B7
100
AcDbEntity
  8
Folie _ 3
  6
Continuous
 62
     7
370
    20
100
AcDbCircle
 10
143.3432257179371
 20
104.7365430631936
 30
0.0
 40
0.3333288181230383
100
AcDbArc
 50
30.00044020598454
 51
149.9999952245361
  0
LINE
  5
2D3
330
B7
100
AcDbEntity
  8
Folie _ 3
  6
Continuous
 62
     7
370
    20
100
AcDbLine
 10
143.6319006685368
 20
104.9032096901238
 30
0.0
 11
144.0545507673374
 21
104.2365430780947
 31
0.0
  0
ARC
  5
2D4
330
B7
100
AcDbEntity
  8
Folie _ 3
  6
Continuous
 62
     7
370
    20
100
AcDbCircle
 10
144.3432257179371
 20
104.4032096901238
 30
0.0
 40
0.3333331466701038
100
AcDbArc
 50
210.0000076799411
 51
270.0
  0
ARC
  5
2D5
330
B7
100
AcDbEntity
  8
Folie _ 3
  6
Continuous
 62
     7
370
    20
100
AcDbCircle
 10
144.3432257179371
 20
104.4032096901238
 30
0.0
 40
0.3333333134651184
100
AcDbArc
 50
270.0
 51
329.9999974427038
  0
LINE
  5
2D6
330
B7
100
AcDbEntity
  8
Folie _ 3
  6
Continuous
 62
     7
370
    20
100
AcDbLine
 10
144.6319007281414
 20
104.2365430780947
 30
0.0
 11
145.0545507077328
 21
104.9032096901238
 31
0.0
  0
ARC
  5
2D7
330
B7
100
AcDbEntity
  8
Folie _ 3
  6
Continuous
 62
     7
370
    20
100
AcDbCircle
 10
145.3432257179371
 20
104.7365430631936
 30
0.0
 40
0.3333288181230383
100
AcDbArc
 50
30.00044020598454
 51
149.9999952245361
  0
LINE
  5
2D8
330
B7
100
AcDbEntity
  8
Folie _ 3
  6
Continuous
 62
     7
370
    20
100
AcDbLine
 10
145.6319006685368
 20
104.9032096901238
 30
0.0
 11
146.0545507673374
 21
104.2365430780947
 31
0.0
  0
ARC
  5
2D9
330
B7
100
AcDbEntity
  8
Folie _ 3
  6
Continuous
 62
     7
370
    20
100
AcDbCircle
 10
146.3432257179371
 20
104.4032096901238
 30
0.0
 40
0.3333331466701038
100
AcDbArc
 50
210.0000076799411
 51
270.0
  0
ARC
  5
2DA
330
B7
100
AcDbEntity
  8
Folie _ 3
  6
Continuous
 62
     7
370
    20
100
AcDbCircle
 10
146.3432257179371
 20
104.4032096901238
 30
0.0
 40
0.3333333134651184
100
AcDbArc
 50
270.0
 51
329.9999974427038
  0
LINE
  5
2DB
330
B7
100
AcDbEntity
  8
Folie _ 3
  6
Continuous
 62
     7
370
    20
100
AcDbLine
 10
146.6319007281414
 20
104.2365430780947
 30
0.0
 11
147.0545507077328
 21
104.9032096901238
 31
0.0
  0
ARC
  5
2DC
330
B7
100
AcDbEntity
  8
Folie _ 3
  6
Continuous
 62
     7
370
    20
100
AcDbCircle
 10
147.3432257179371
 20
104.7365430631936
 30
0.0
 40
0.3333288181230383
100
AcDbArc
 50
30.00044020598454
 51
149.9999952245361
  0
LINE
  5
2DD
330
B7
100
AcDbEntity
  8
Folie _ 3
  6
Continuous
 62
     7
370
    20
100
AcDbLine
 10
147.6319006685368
 20
104.9032096901238
 30
0.0
 11
148.0545507673374
 21
104.2365430780947
 31
0.0
  0
ARC
  5
2DE
330
B7
100
AcDbEntity
  8
Folie _ 3
  6
Continuous
 62
     7
370
    20
100
AcDbCircle
 10
148.3432257179371
 20
104.4032096901238
 30
0.0
 40
0.3333331466701038
100
AcDbArc
 50
210.0000076799411
 51
270.0
  0
ARC
  5
2DF
330
B7
100
AcDbEntity
  8
Folie _ 3
  6
Continuous
 62
     7
370
    20
100
AcDbCircle
 10
148.3432257179371
 20
104.4032096901238
 30
0.0
 40
0.3333333134651184
100
AcDbArc
 50
270.0
 51
329.9999974427038
  0
LINE
  5
2E0
330
B7
100
AcDbEntity
  8
Folie _ 3
  6
Continuous
 62
     7
370
    20
100
AcDbLine
 10
148.6319007281414
 20
104.2365430780947
 30
0.0
 11
149.0545507077328
 21
104.9032096901238
 31
0.0
  0
ARC
  5
2E1
330
B7
100
AcDbEntity
  8
Folie _ 3
  6
Continuous
 62
     7
370
    20
100
AcDbCircle
 10
149.3432257179371
 20
104.7365430631936
 30
0.0
 40
0.3333288181230383
100
AcDbArc
 50
30.00044020598454
 51
149.9999952245361
  0
LINE
  5
2E2
330
B7
100
AcDbEntity
  8
Folie _ 3
  6
Continuous
 62
     7
370
    20
100
AcDbLine
 10
149.6319006685368
 20
104.9032096901238
 30
0.0
 11
150.0545507673374
 21
104.2365430780947
 31
0.0
  0
ARC
  5
2E3
330
B7
100
AcDbEntity
  8
Folie _ 3
  6
Continuous
 62
     7
370
    20
100
AcDbCircle
 10
150.3432257179371
 20
104.4032096901238
 30
0.0
 40
0.3333331466701038
100
AcDbArc
 50
210.0000076799411
 51
270.0
  0
ARC
  5
2E4
330
B7
100
AcDbEntity
  8
Folie _ 3
  6
Continuous
 62
     7
370
    20
100
AcDbCircle
 10
150.3432257179371
 20
104.4032096901238
 30
0.0
 40
0.3333333134651184
100
AcDbArc
 50
270.0
 51
329.9999974427038
  0
LINE
  5
2E5
330
B7
100
AcDbEntity
  8
Folie _ 3
  6
Continuous
 62
     7
370
    20
100
AcDbLine
 10
150.6319007281414
 20
104.2365430780947
 30
0.0
 11
151.0545507077328
 21
104.9032096901238
 31
0.0
  0
ARC
  5
2E6
330
B7
100
AcDbEntity
  8
Folie _ 3
  6
Continuous
 62
     7
370
    20
100
AcDbCircle
 10
151.3432257179371
 20
104.7365430631936
 30
0.0
 40
0.3333288181230383
100
AcDbArc
 50
30.00044020598454
 51
149.9999952245361
  0
LINE
  5
2E7
330
B7
100
AcDbEntity
  8
Folie _ 3
  6
Continuous
 62
     7
370
    20
100
AcDbLine
 10
151.6319006685368
 20
104.9032096901238
 30
0.0
 11
152.0545507673374
 21
104.2365430780947
 31
0.0
  0
ARC
  5
2E8
330
B7
100
AcDbEntity
  8
Folie _ 3
  6
Continuous
 62
     7
370
    20
100
AcDbCircle
 10
152.3432257179371
 20
104.4032096901238
 30
0.0
 40
0.3333331466701038
100
AcDbArc
 50
210.0000076799411
 51
270.0
  0
ARC
  5
2E9
330
B7
100
AcDbEntity
  8
Folie _ 3
  6
Continuous
 62
     7
370
    20
100
AcDbCircle
 10
152.3432257179371
 20
104.4032096901238
 30
0.0
 40
0.3333333134651184
100
AcDbArc
 50
270.0
 51
329.9999974427038
  0
LINE
  5
2EA
330
B7
100
AcDbEntity
  8
Folie _ 3
  6
Continuous
 62
     7
370
    20
100
AcDbLine
 10
152.6319007281414
 20
104.2365430780947
 30
0.0
 11
153.0545507077328
 21
104.9032096901238
 31
0.0
  0
ARC
  5
2EB
330
B7
100
AcDbEntity
  8
Folie _ 3
  6
Continuous
 62
     7
370
    20
100
AcDbCircle
 10
153.3432257179371
 20
104.7365430631936
 30
0.0
 40
0.3333288181230383
100
AcDbArc
 50
30.00044020598454
 51
149.9999952245361
  0
LINE
  5
2EC
330
B7
100
AcDbEntity
  8
Folie _ 3
  6
Continuous
 62
     7
370
    20
100
AcDbLine
 10
153.6319006685368
 20
104.9032096901238
 30
0.0
 11
154.0545507673374
 21
104.2365430780947
 31
0.0
  0
ARC
  5
2ED
330
B7
100
AcDbEntity
  8
Folie _ 3
  6
Continuous
 62
     7
370
    20
100
AcDbCircle
 10
154.3432257179371
 20
104.4032096901238
 30
0.0
 40
0.3333331466701038
100
AcDbArc
 50
210.0000076799411
 51
270.0
  0
ARC
  5
2EE
330
B7
100
AcDbEntity
  8
Folie _ 3
  6
Continuous
 62
     7
370
    20
100
AcDbCircle
 10
154.3432257179371
 20
104.4032096901238
 30
0.0
 40
0.3333333134651184
100
AcDbArc
 50
270.0
 51
329.9999974427038
  0
LINE
  5
2EF
330
B7
100
AcDbEntity
  8
Folie _ 3
  6
Continuous
 62
     7
370
    20
100
AcDbLine
 10
154.6319007281414
 20
104.2365430780947
 30
0.0
 11
155.0545507077328
 21
104.9032096901238
 31
0.0
  0
ARC
  5
2F0
330
B7
100
AcDbEntity
  8
Folie _ 3
  6
Continuous
 62
     7
370
    20
100
AcDbCircle
 10
155.3432257179371
 20
104.7365430631936
 30
0.0
 40
0.3333288181230383
100
AcDbArc
 50
30.00044020598454
 51
149.9999952245361
  0
LINE
  5
2F1
330
B7
100
AcDbEntity
  8
Folie _ 3
  6
Continuous
 62
     7
370
    20
100
AcDbLine
 10
155.631900668537
 20
104.9032096901238
 30
0.0
 11
156.0545507673376
 21
104.2365430780947
 31
0.0
  0
ARC
  5
2F2
330
B7
100
AcDbEntity
  8
Folie _ 3
  6
Continuous
 62
     7
370
    20
100
AcDbCircle
 10
156.3432257179373
 20
104.4032096901238
 30
0.0
 40
0.3333331466701038
100
AcDbArc
 50
210.0000076799411
 51
270.0
  0
ARC
  5
2F3
330
B7
100
AcDbEntity
  8
Folie _ 3
  6
Continuous
 62
     7
370
    20
100
AcDbCircle
 10
156.3432257179373
 20
104.4032096901238
 30
0.0
 40
0.3333333134651184
100
AcDbArc
 50
270.0
 51
329.9999974427038
  0
LINE
  5
2F4
330
B7
100
AcDbEntity
  8
Folie _ 3
  6
Continuous
 62
     7
370
    20
100
AcDbLine
 10
156.6319007281416
 20
104.2365430780947
 30
0.0
 11
157.054550707733
 21
104.9032096901238
 31
0.0
  0
ARC
  5
2F5
330
B7
100
AcDbEntity
  8
Folie _ 3
  6
Continuous
 62
     7
370
    20
100
AcDbCircle
 10
157.3432257179373
 20
104.7365430631936
 30
0.0
 40
0.3333288181230383
100
AcDbArc
 50
30.00044020598454
 51
149.9999952245361
  0
LINE
  5
2F6
330
B7
100
AcDbEntity
  8
Folie _ 3
  6
Continuous
 62
     7
370
    20
100
AcDbLine
 10
157.631900668537
 20
104.9032096901238
 30
0.0
 11
158.0545507673376
 21
104.2365430780947
 31
0.0
  0
ARC
  5
2F7
330
B7
100
AcDbEntity
  8
Folie _ 3
  6
Continuous
 62
     7
370
    20
100
AcDbCircle
 10
158.3432257179373
 20
104.4032096901238
 30
0.0
 40
0.3333331466701038
100
AcDbArc
 50
210.0000076799411
 51
270.0
  0
ARC
  5
2F8
330
B7
100
AcDbEntity
  8
Folie _ 3
  6
Continuous
 62
     7
370
    20
100
AcDbCircle
 10
158.3432257179373
 20
104.4032096901238
 30
0.0
 40
0.3333333134651184
100
AcDbArc
 50
270.0
 51
329.9999974427038
  0
LINE
  5
2F9
330
B7
100
AcDbEntity
  8
Folie _ 3
  6
Continuous
 62
     7
370
    20
100
AcDbLine
 10
158.6319007281416
 20
104.2365430780947
 30
0.0
 11
159.054550707733
 21
104.9032096901238
 31
0.0
  0
ARC
  5
2FA
330
B7
100
AcDbEntity
  8
Folie _ 3
  6
Continuous
 62
     7
370
    20
100
AcDbCircle
 10
159.3432257179373
 20
104.7365430631936
 30
0.0
 40
0.3333288181230383
100
AcDbArc
 50
30.00044020598454
 51
149.9999952245361
  0
LINE
  5
2FB
330
B7
100
AcDbEntity
  8
Folie _ 3
  6
Continuous
 62
     7
370
    20
100
AcDbLine
 10
159.631900668537
 20
104.9032096901238
 30
0.0
 11
160.0545507673376
 21
104.2365430780947
 31
0.0
  0
ARC
  5
2FC
330
B7
100
AcDbEntity
  8
Folie _ 3
  6
Continuous
 62
     7
370
    20
100
AcDbCircle
 10
160.3432257179373
 20
104.4032096901238
 30
0.0
 40
0.3333331466701192
100
AcDbArc
 50
210.0000076799395
 51
270.0
  0
ARC
  5
2FD
330
B7
100
AcDbEntity
  8
Folie _ 3
  6
Continuous
 62
     7
370
    20
100
AcDbCircle
 10
160.3432257179373
 20
104.4032096901238
 30
0.0
 40
0.3333333134651184
100
AcDbArc
 50
270.0
 51
329.9999974427008
  0
LINE
  5
2FE
330
B7
100
AcDbEntity
  8
Folie _ 3
  6
Continuous
 62
     7
370
    20
100
AcDbLine
 10
160.6319007281416
 20
104.2365430780947
 30
0.0
 11
161.054550707733
 21
104.9032096901238
 31
0.0
  0
ARC
  5
2FF
330
B7
100
AcDbEntity
  8
Folie _ 3
  6
Continuous
 62
     7
370
    20
100
AcDbCircle
 10
161.3432257179373
 20
104.7365430631936
 30
0.0
 40
0.3333288181230076
100
AcDbArc
 50
30.00044020598759
 51
149.9999952245391
  0
LINE
  5
300
330
B7
100
AcDbEntity
  8
Folie _ 3
  6
Continuous
 62
     7
370
    20
100
AcDbLine
 10
161.631900668537
 20
104.9032096901238
 30
0.0
 11
162.0545507673376
 21
104.2365430780947
 31
0.0
  0
ARC
  5
301
330
B7
100
AcDbEntity
  8
Folie _ 3
  6
Continuous
 62
     7
370
    20
100
AcDbCircle
 10
162.3432257179373
 20
104.4032096901238
 30
0.0
 40
0.3333331466701192
100
AcDbArc
 50
210.0000076799395
 51
270.0
  0
ARC
  5
302
330
B7
100
AcDbEntity
  8
Folie _ 3
  6
Continuous
 62
     7
370
    20
100
AcDbCircle
 10
162.3432257179373
 20
104.4032096901238
 30
0.0
 40
0.3333333134651184
100
AcDbArc
 50
270.0
 51
329.9999974427008
  0
LINE
  5
303
330
B7
100
AcDbEntity
  8
Folie _ 3
  6
Continuous
 62
     7
370
    20
100
AcDbLine
 10
162.6319007281416
 20
104.2365430780947
 30
0.0
 11
163.054550707733
 21
104.9032096901238
 31
0.0
  0
ARC
  5
304
330
B7
100
AcDbEntity
  8
Folie _ 3
  6
Continuous
 62
     7
370
    20
100
AcDbCircle
 10
163.3432257179375
 20
104.7365430631936
 30
0.0
 40
0.3333288181230076
100
AcDbArc
 50
30.00044020598759
 51
149.9999952245391
  0
LINE
  5
305
330
B7
100
AcDbEntity
  8
Folie _ 3
  6
Continuous
 62
     7
370
    20
100
AcDbLine
 10
163.6319006685371
 20
104.9032096901238
 30
0.0
 11
164.0545507673376
 21
104.2365430780947
 31
0.0
  0
ARC
  5
306
330
B7
100
AcDbEntity
  8
Folie _ 3
  6
Continuous
 62
     7
370
    20
100
AcDbCircle
 10
164.3432257179375
 20
104.4032096901238
 30
0.0
 40
0.3333331466701192
100
AcDbArc
 50
210.0000076799395
 51
270.0
  0
ARC
  5
307
330
B7
100
AcDbEntity
  8
Folie _ 3
  6
Continuous
 62
     7
370
    20
100
AcDbCircle
 10
164.3432257179375
 20
104.4032096901238
 30
0.0
 40
0.3333333134651184
100
AcDbArc
 50
270.0
 51
329.9999974427008
  0
LINE
  5
308
330
B7
100
AcDbEntity
  8
Folie _ 3
  6
Continuous
 62
     7
370
    20
100
AcDbLine
 10
164.6319007281416
 20
104.2365430780947
 30
0.0
 11
165.054550707733
 21
104.9032096901238
 31
0.0
  0
ARC
  5
309
330
B7
100
AcDbEntity
  8
Folie _ 3
  6
Continuous
 62
     7
370
    20
100
AcDbCircle
 10
165.3432257179375
 20
104.7365430631936
 30
0.0
 40
0.3333288181230076
100
AcDbArc
 50
30.00044020598759
 51
149.9999952245391
  0
LINE
  5
30A
330
B7
100
AcDbEntity
  8
Folie _ 3
  6
Continuous
 62
     7
370
    20
100
AcDbLine
 10
165.6319006685371
 20
104.9032096901238
 30
0.0
 11
166.0545507673378
 21
104.2365430780947
 31
0.0
  0
ARC
  5
30B
330
B7
100
AcDbEntity
  8
Folie _ 3
  6
Continuous
 62
     7
370
    20
100
AcDbCircle
 10
166.3432257179375
 20
104.4032096901238
 30
0.0
 40
0.3333331466701192
100
AcDbArc
 50
210.0000076799395
 51
270.0
  0
ARC
  5
30C
330
B7
100
AcDbEntity
  8
Folie _ 3
  6
Continuous
 62
     7
370
    20
100
AcDbCircle
 10
166.3432257179375
 20
104.4032096901238
 30
0.0
 40
0.3333333134651184
100
AcDbArc
 50
270.0
 51
329.9999974427008
  0
LINE
  5
30D
330
B7
100
AcDbEntity
  8
Folie _ 3
  6
Continuous
 62
     7
370
    20
100
AcDbLine
 10
166.6319007281418
 20
104.2365430780947
 30
0.0
 11
167.0545507077331
 21
104.9032096901238
 31
0.0
  0
ARC
  5
30E
330
B7
100
AcDbEntity
  8
Folie _ 3
  6
Continuous
 62
     7
370
    20
100
AcDbCircle
 10
167.3432257179375
 20
104.7365430631936
 30
0.0
 40
0.3333288181230076
100
AcDbArc
 50
30.00044020598759
 51
149.9999952245391
  0
LINE
  5
30F
330
B7
100
AcDbEntity
  8
Folie _ 3
  6
Continuous
 62
     7
370
    20
100
AcDbLine
 10
167.6319006685371
 20
104.9032096901238
 30
0.0
 11
168.0545507673378
 21
104.2365430780947
 31
0.0
  0
ARC
  5
310
330
B7
100
AcDbEntity
  8
Folie _ 3
  6
Continuous
 62
     7
370
    20
100
AcDbCircle
 10
168.3432257179375
 20
104.4032096901238
 30
0.0
 40
0.3333331466701192
100
AcDbArc
 50
210.0000076799395
 51
270.0
  0
ARC
  5
311
330
B7
100
AcDbEntity
  8
Folie _ 3
  6
Continuous
 62
     7
370
    20
100
AcDbCircle
 10
168.3432257179375
 20
104.4032096901238
 30
0.0
 40
0.3333333134651184
100
AcDbArc
 50
270.0
 51
329.9999974427008
  0
LINE
  5
312
330
B7
100
AcDbEntity
  8
Folie _ 3
  6
Continuous
 62
     7
370
    20
100
AcDbLine
 10
168.6319007281418
 20
104.2365430780947
 30
0.0
 11
169.0545507077331
 21
104.9032096901238
 31
0.0
  0
ARC
  5
313
330
B7
100
AcDbEntity
  8
Folie _ 3
  6
Continuous
 62
     7
370
    20
100
AcDbCircle
 10
169.3432257179375
 20
104.7365430631936
 30
0.0
 40
0.3333288181230076
100
AcDbArc
 50
30.00044020598759
 51
149.9999952245391
  0
LINE
  5
314
330
B7
100
AcDbEntity
  8
Folie _ 3
  6
Continuous
 62
     7
370
    20
100
AcDbLine
 10
169.6319006685371
 20
104.9032096901238
 30
0.0
 11
170.0545507673378
 21
104.2365430780947
 31
0.0
  0
ARC
  5
315
330
B7
100
AcDbEntity
  8
Folie _ 3
  6
Continuous
 62
     7
370
    20
100
AcDbCircle
 10
170.3432257179375
 20
104.4032096901238
 30
0.0
 40
0.3333331466701192
100
AcDbArc
 50
210.0000076799395
 51
270.0
  0
ARC
  5
316
330
B7
100
AcDbEntity
  8
Folie _ 3
  6
Continuous
 62
     7
370
    20
100
AcDbCircle
 10
170.3432257179375
 20
104.4032096901238
 30
0.0
 40
0.3333333134651184
100
AcDbArc
 50
270.0
 51
329.9999974427008
  0
LINE
  5
317
330
B7
100
AcDbEntity
  8
Folie _ 3
  6
Continuous
 62
     7
370
    20
100
AcDbLine
 10
170.6319007281418
 20
104.2365430780947
 30
0.0
 11
171.0545507077331
 21
104.9032096901238
 31
0.0
  0
ARC
  5
318
330
B7
100
AcDbEntity
  8
Folie _ 3
  6
Continuous
 62
     7
370
    20
100
AcDbCircle
 10
171.3432257179375
 20
104.7365430631936
 30
0.0
 40
0.3333288181230076
100
AcDbArc
 50
30.00044020598759
 51
149.9999952245391
  0
LINE
  5
319
330
B7
100
AcDbEntity
  8
Folie _ 3
  6
Continuous
 62
     7
370
    20
100
AcDbLine
 10
171.6319006685371
 20
104.9032096901238
 30
0.0
 11
172.0545507673378
 21
104.2365430780947
 31
0.0
  0
ARC
  5
31A
330
B7
100
AcDbEntity
  8
Folie _ 3
  6
Continuous
 62
     7
370
    20
100
AcDbCircle
 10
172.3432257179375
 20
104.4032096901238
 30
0.0
 40
0.3333331466701192
100
AcDbArc
 50
210.0000076799395
 51
270.0
  0
ARC
  5
31B
330
B7
100
AcDbEntity
  8
Folie _ 3
  6
Continuous
 62
     7
370
    20
100
AcDbCircle
 10
172.3432257179375
 20
104.4032096901238
 30
0.0
 40
0.3333333134651184
100
AcDbArc
 50
270.0
 51
329.9999974427008
  0
LINE
  5
31C
330
B7
100
AcDbEntity
  8
Folie _ 3
  6
Continuous
 62
     7
370
    20
100
AcDbLine
 10
172.6319007281418
 20
104.2365430780947
 30
0.0
 11
173.0545507077331
 21
104.9032096901238
 31
0.0
  0
ARC
  5
31D
330
B7
100
AcDbEntity
  8
Folie _ 3
  6
Continuous
 62
     7
370
    20
100
AcDbCircle
 10
173.3432257179375
 20
104.7365430631936
 30
0.0
 40
0.3333288181230076
100
AcDbArc
 50
30.00044020598759
 51
149.9999952245391
  0
LINE
  5
31E
330
B7
100
AcDbEntity
  8
Folie _ 3
  6
Continuous
 62
     7
370
    20
100
AcDbLine
 10
173.6319006685371
 20
104.9032096901238
 30
0.0
 11
174.0545507673378
 21
104.2365430780947
 31
0.0
  0
ARC
  5
31F
330
B7
100
AcDbEntity
  8
Folie _ 3
  6
Continuous
 62
     7
370
    20
100
AcDbCircle
 10
174.3432257179375
 20
104.4032096901238
 30
0.0
 40
0.3333331466701192
100
AcDbArc
 50
210.0000076799395
 51
270.0
  0
ARC
  5
320
330
B7
100
AcDbEntity
  8
Folie _ 3
  6
Continuous
 62
     7
370
    20
100
AcDbCircle
 10
174.3432257179375
 20
104.4032096901238
 30
0.0
 40
0.3333333134651184
100
AcDbArc
 50
270.0
 51
329.9999974427008
  0
LINE
  5
321
330
B7
100
AcDbEntity
  8
Folie _ 3
  6
Continuous
 62
     7
370
    20
100
AcDbLine
 10
174.6319007281418
 20
104.2365430780947
 30
0.0
 11
175.0545507077331
 21
104.9032096901238
 31
0.0
  0
ARC
  5
322
330
B7
100
AcDbEntity
  8
Folie _ 3
  6
Continuous
 62
     7
370
    20
100
AcDbCircle
 10
175.3432257179375
 20
104.7365430631936
 30
0.0
 40
0.3333288181230076
100
AcDbArc
 50
30.00044020598759
 51
149.9999952245391
  0
LINE
  5
323
330
B7
100
AcDbEntity
  8
Folie _ 3
  6
Continuous
 62
     7
370
    20
100
AcDbLine
 10
175.6319006685371
 20
104.9032096901238
 30
0.0
 11
176.0545507673378
 21
104.2365430780947
 31
0.0
  0
ARC
  5
324
330
B7
100
AcDbEntity
  8
Folie _ 3
  6
Continuous
 62
     7
370
    20
100
AcDbCircle
 10
176.3432257179375
 20
104.4032096901238
 30
0.0
 40
0.3333331466701192
100
AcDbArc
 50
210.0000076799395
 51
270.0
  0
ARC
  5
325
330
B7
100
AcDbEntity
  8
Folie _ 3
  6
Continuous
 62
     7
370
    20
100
AcDbCircle
 10
176.3432257179375
 20
104.4032096901238
 30
0.0
 40
0.3333333134651184
100
AcDbArc
 50
270.0
 51
329.9999974427008
  0
LINE
  5
326
330
B7
100
AcDbEntity
  8
Folie _ 3
  6
Continuous
 62
     7
370
    20
100
AcDbLine
 10
176.6319007281418
 20
104.2365430780947
 30
0.0
 11
177.0545507077331
 21
104.9032096901238
 31
0.0
  0
ARC
  5
327
330
B7
100
AcDbEntity
  8
Folie _ 3
  6
Continuous
 62
     7
370
    20
100
AcDbCircle
 10
177.3432257179375
 20
104.7365430631936
 30
0.0
 40
0.3333288181230076
100
AcDbArc
 50
30.00044020598759
 51
149.9999952245391
  0
LINE
  5
328
330
B7
100
AcDbEntity
  8
Folie _ 3
  6
Continuous
 62
     7
370
    20
100
AcDbLine
 10
177.6319006685371
 20
104.9032096901238
 30
0.0
 11
178.0545507673378
 21
104.2365430780947
 31
0.0
  0
ARC
  5
329
330
B7
100
AcDbEntity
  8
Folie _ 3
  6
Continuous
 62
     7
370
    20
100
AcDbCircle
 10
178.3432257179375
 20
104.4032096901238
 30
0.0
 40
0.3333331466701192
100
AcDbArc
 50
210.0000076799395
 51
270.0
  0
ARC
  5
32A
330
B7
100
AcDbEntity
  8
Folie _ 3
  6
Continuous
 62
     7
370
    20
100
AcDbCircle
 10
178.3432257179375
 20
104.4032096901238
 30
0.0
 40
0.3333333134651184
100
AcDbArc
 50
270.0
 51
329.9999974427008
  0
LINE
  5
32B
330
B7
100
AcDbEntity
  8
Folie _ 3
  6
Continuous
 62
     7
370
    20
100
AcDbLine
 10
178.6319007281418
 20
104.2365430780947
 30
0.0
 11
179.0545507077331
 21
104.9032096901238
 31
0.0
  0
ARC
  5
32C
330
B7
100
AcDbEntity
  8
Folie _ 3
  6
Continuous
 62
     7
370
    20
100
AcDbCircle
 10
179.3432257179375
 20
104.7365430631936
 30
0.0
 40
0.3333288181230076
100
AcDbArc
 50
30.00044020598759
 51
149.9999952245391
  0
LINE
  5
32D
330
B7
100
AcDbEntity
  8
Folie _ 3
  6
Continuous
 62
     7
370
    20
100
AcDbLine
 10
179.6319006685371
 20
104.9032096901238
 30
0.0
 11
180.0545507673378
 21
104.2365430780947
 31
0.0
  0
ARC
  5
32E
330
B7
100
AcDbEntity
  8
Folie _ 3
  6
Continuous
 62
     7
370
    20
100
AcDbCircle
 10
180.3432257179377
 20
104.4032096901238
 30
0.0
 40
0.3333331466701192
100
AcDbArc
 50
210.0000076799395
 51
270.0
  0
ARC
  5
32F
330
B7
100
AcDbEntity
  8
Folie _ 3
  6
Continuous
 62
     7
370
    20
100
AcDbCircle
 10
180.3432257179377
 20
104.4032096901238
 30
0.0
 40
0.3333333134651184
100
AcDbArc
 50
270.0
 51
329.9999974427008
  0
LINE
  5
330
330
B7
100
AcDbEntity
  8
Folie _ 3
  6
Continuous
 62
     7
370
    20
100
AcDbLine
 10
180.6319007281418
 20
104.2365430780947
 30
0.0
 11
181.0545507077331
 21
104.9032096901238
 31
0.0
  0
ARC
  5
331
330
B7
100
AcDbEntity
  8
Folie _ 3
  6
Continuous
 62
     7
370
    20
100
AcDbCircle
 10
181.3432257179377
 20
104.7365430631936
 30
0.0
 40
0.3333288181230076
100
AcDbArc
 50
30.00044020598759
 51
149.9999952245391
  0
LINE
  5
332
330
B7
100
AcDbEntity
  8
Folie _ 3
  6
Continuous
 62
     7
370
    20
100
AcDbLine
 10
181.6319006685373
 20
104.9032096901238
 30
0.0
 11
182.054550767338
 21
104.2365430780947
 31
0.0
  0
ARC
  5
333
330
B7
100
AcDbEntity
  8
Folie _ 3
  6
Continuous
 62
     7
370
    20
100
AcDbCircle
 10
182.3432257179377
 20
104.4032096901238
 30
0.0
 40
0.3333331466701192
100
AcDbArc
 50
210.0000076799395
 51
270.0
  0
ARC
  5
334
330
B7
100
AcDbEntity
  8
Folie _ 3
  6
Continuous
 62
     7
370
    20
100
AcDbCircle
 10
182.3432257179377
 20
104.4032096901238
 30
0.0
 40
0.3333333134651184
100
AcDbArc
 50
270.0
 51
329.9999974427008
  0
LINE
  5
335
330
B7
100
AcDbEntity
  8
Folie _ 3
  6
Continuous
 62
     7
370
    20
100
AcDbLine
 10
182.631900728142
 20
104.2365430780947
 30
0.0
 11
183.0545507077333
 21
104.9032096901238
 31
0.0
  0
ARC
  5
336
330
B7
100
AcDbEntity
  8
Folie _ 3
  6
Continuous
 62
     7
370
    20
100
AcDbCircle
 10
183.3432257179377
 20
104.7365430631936
 30
0.0
 40
0.3333288181230076
100
AcDbArc
 50
30.00044020598759
 51
149.9999952245391
  0
ENDBLK
  5
339
330
B7
100
AcDbEntity
  8
0
100
AcDbBlockEnd
  0
ENDSEC
  0
SECTION
  2
ENTITIES
  0
INSERT
  5
B0
330
1F
100
AcDbEntity
  8
00_Allgemein
  6
Continuous
 62
     7
370
     0
100
AcDbBlockReference
  2
printlayout(id_1)
 10
0.0
 20
0.0
 30
0.0
  0
INSERT
  5
337
330
1F
100
AcDbEntity
  8
34_Gruppe
  6
Continuous
 62
     7
370
     0
100
AcDbBlockReference
  2
dokument alle 2d details_asc(id_4)
 10
0.0
 20
0.0
 30
0.0
  0
IMAGE
  5
33B
330
1F
100
AcDbEntity
  8
37_Bilder
  6
Continuous
 62
     7
370
     0
160
               140
310
8C00000001000000840000000600000005000000663F38DD7DC76E40807D7E0819A431400000000000000000B31F9CDEEF237240807D7E0819A431400000000000000000B31F9CDEEF237240C03E3F74D92D40400000000000000000663F38DD7DC76E40C03E3F74D92D40400000000000000000663F38DD7DC76E40807D7E
310
0819A431400000000000000000
100
AcDbRasterImage
 90
        0
 10
246.2341142748439
 20
17.64100697601452
 30
0.0
 11
0.0279263627105558
 21
0.0
 31
0.0
 12
0.0
 22
0.02792635995477608
 32
0.0
 13
1576.0
 23
527.0
340
33A
 70
     3
280
     0
281
    50
282
    50
283
     0
360
33C
 71
     1
 91
        2
 14
-0.5
 24
-0.5
 14
1575.5
 24
526.5
290
     0
  0
ENDSEC
  0
SECTION
  2
OBJECTS
  0
DICTIONARY
  5
C
330
0
100
AcDbDictionary
281
     1
  3
ACAD_GROUP
350
D
  3
ACAD_IMAGE_DICT
350
B3
  3
ACAD_LAYOUT
350
1A
  3
ACAD_MATERIAL
350
3B
  3
ACAD_MLEADERSTYLE
350
33E
  3
ACAD_MLINESTYLE
350
17
  3
ACAD_PLOTSETTINGS
350
19
  3
ACAD_PLOTSTYLENAME
350
E
  3
ACAD_TABLESTYLE
350
33D
  3
ACAD_VISUALSTYLE
350
2A
  0
IMAGEDEF_REACTOR
  5
33C
330
33B
100
AcDbRasterImageDefReactor
 90
        2
330
33B
  0
DICTIONARY
  5
D
102
{ACAD_REACTORS
330
C
102
}
330
C
100
AcDbDictionary
281
     1
  0
DICTIONARY
  5
B3
102
{ACAD_REACTORS
330
C
102
}
330
C
100
AcDbDictionary
281
     1
  3
Image0
350
B4
  3
Image1
350
33A
  0
DICTIONARY
  5
1A
102
{ACAD_REACTORS
330
C
102
}
330
C
100
AcDbDictionary
281
     1
  3
Layout1
350
1E
  3
Layout2
350
26
  3
Model
350
22
  0
DICTIONARY
  5
3B
102
{ACAD_REACTORS
330
C
102
}
330
C
100
AcDbDictionary
281
     1
  3
ByBlock
350
3D
  3
ByLayer
350
3C
  3
Global
350
3E
  0
DICTIONARY
  5
33E
102
{ACAD_REACTORS
330
C
102
}
330
C
100
AcDbDictionary
281
     1
  0
DICTIONARY
  5
17
102
{ACAD_REACTORS
330
C
102
}
330
C
100
AcDbDictionary
281
     1
  3
Standard
350
18
  0
DICTIONARY
  5
19
102
{ACAD_REACTORS
330
C
102
}
330
C
100
AcDbDictionary
281
     1
  0
ACDBDICTIONARYWDFLT
  5
E
102
{ACAD_REACTORS
330
C
102
}
330
C
100
AcDbDictionary
281
     1
  3
Normal
350
F
100
AcDbDictionaryWithDefault
340
F
  0
DICTIONARY
  5
33D
102
{ACAD_REACTORS
330
C
102
}
330
C
100
AcDbDictionary
281
     1
  0
DICTIONARY
  5
2A
102
{ACAD_REACTORS
330
C
102
}
330
C
100
AcDbDictionary
281
     1
  3
2dWireframe
350
2F
  3
3D Hidden
350
31
  3
3dWireframe
350
30
  3
Basic
350
32
  3
Brighten
350
36
  3
ColorChange
350
3A
  3
Conceptual
350
34
  3
Dim
350
35
  3
Facepattern
350
39
  3
Flat
350
2B
  3
FlatWithEdges
350
2C
  3
Gouraud
350
2D
  3
GouraudWithEdges
350
2E
  3
Linepattern
350
38
  3
Realistic
350
33
  3
Thicken
350
37
  0
IMAGEDEF
  5
B4
102
{ACAD_REACTORS
330
B3
102
}
330
B3
100
AcDbRasterImageDef
 90
        0
  1
__ID2_Coverit+www.bmp
 10
1576.0
 20
527.0
 11
0.0006345177664974619
 21
0.0006345177664974619
280
     1
281
     1
  0
IMAGEDEF
  5
33A
102
{ACAD_REACTORS
330
B3
330
33C
102
}
330
B3
100
AcDbRasterImageDef
 90
        0
  1
__ID2_Coverit+www.bmp
 10
1576.0
 20
527.0
 11
0.0006345177664974619
 21
0.0006345177664974619
280
     1
281
     1
  0
LAYOUT
  5
1E
102
{ACAD_REACTORS
330
1A
102
}
330
1A
100
AcDbPlotSettings
  1

  2
none_device
  4

  6

 40
0.0
 41
0.0
 42
0.0
 43
0.0
 44
0.0
 45
0.0
 46
0.0
 47
0.0
 48
0.0
 49
0.0
140
0.0
141
0.0
142
1.0
143
1.0
 70
   688
 72
     0
 73
     0
 74
     5
  7

 75
    16
 76
     0
 77
     2
 78
   300
147
1.0
148
0.0
149
0.0
100
AcDbLayout
  1
Layout1
 70
     1
 71
     1
 10
0.0
 20
0.0
 11
12.0
 21
9.0
 12
0.0
 22
0.0
 32
0.0
 14
1.000000000000000E+20
 24
1.000000000000000E+20
 34
1.000000000000000E+20
 15
-1.000000000000000E+20
 25
-1.000000000000000E+20
 35
-1.000000000000000E+20
146
0.0
 13
0.0
 23
0.0
 33
0.0
 16
1.0
 26
0.0
 36
0.0
 17
0.0
 27
1.0
 37
0.0
 76
     0
330
1B
  0
LAYOUT
  5
26
102
{ACAD_REACTORS
330
1A
102
}
330
1A
100
AcDbPlotSettings
  1

  2
none_device
  4

  6

 40
0.0
 41
0.0
 42
0.0
 43
0.0
 44
0.0
 45
0.0
 46
0.0
 47
0.0
 48
0.0
 49
0.0
140
0.0
141
0.0
142
1.0
143
1.0
 70
   688
 72
     0
 73
     0
 74
     5
  7

 75
    16
 76
     0
 77
     2
 78
   300
147
1.0
148
0.0
149
0.0
100
AcDbLayout
  1
Layout2
 70
     1
 71
     2
 10
0.0
 20
0.0
 11
0.0
 21
0.0
 12
0.0
 22
0.0
 32
0.0
 14
0.0
 24
0.0
 34
0.0
 15
0.0
 25
0.0
 35
0.0
146
0.0
 13
0.0
 23
0.0
 33
0.0
 16
1.0
 26
0.0
 36
0.0
 17
0.0
 27
1.0
 37
0.0
 76
     0
330
23
  0
LAYOUT
  5
22
102
{ACAD_REACTORS
330
1A
102
}
330
1A
100
AcDbPlotSettings
  1

  2
none_device
  4

  6

 40
0.0
 41
0.0
 42
0.0
 43
0.0
 44
0.0
 45
0.0
 46
0.0
 47
0.0
 48
0.0
 49
0.0
140
0.0
141
0.0
142
1.0
143
1.0
 70
  1712
 72
     0
 73
     0
 74
     0
  7

 75
     0
 76
     0
 77
     2
 78
   300
147
1.0
148
0.0
149
0.0
100
AcDbLayout
  1
Model
 70
     1
 71
     0
 10
0.0
 20
0.0
 11
12.0
 21
9.0
 12
0.0
 22
0.0
 32
0.0
 14
-0.0000000000001705
 24
0.0
 34
0.0
 15
297.0
 25
210.0
 35
0.0
146
0.0
 13
0.0
 23
0.0
 33
0.0
 16
1.0
 26
0.0
 36
0.0
 17
0.0
 27
1.0
 37
0.0
 76
     0
330
1F
331
29
  0
MATERIAL
  5
3D
102
{ACAD_REACTORS
330
3B
102
}
330
3B
100
AcDbMaterial
  1
ByBlock
 72
     1
 94
      127
  0
MATERIAL
  5
3C
102
{ACAD_REACTORS
330
3B
102
}
330
3B
100
AcDbMaterial
  1
ByLayer
 72
     1
 94
      127
  0
MATERIAL
  5
3E
102
{ACAD_REACTORS
330
3B
102
}
330
3B
100
AcDbMaterial
  1
Global
 72
     1
 94
      127
  0
MLINESTYLE
  5
18
102
{ACAD_REACTORS
330
17
102
}
330
17
100
AcDbMlineStyle
  2
Standard
 70
     0
  3

 62
   256
 51
90.0
 52
90.0
 71
     2
 49
0.5
 62
   256
  6
BYLAYER
 49
-0.5
 62
   256
  6
BYLAYER
  0
ACDBPLACEHOLDER
  5
F
102
{ACAD_REACTORS
330
E
102
}
330
E
  0
VISUALSTYLE
  5
2F
102
{ACAD_REACTORS
330
2A
102
}
330
2A
100
AcDbVisualStyle
  2
2dWireframe
 70
     4
177
     2
291
     0
 71
     0
176
     1
 72
     2
176
     1
 73
     0
176
     1
 90
        0
176
     1
 40
-0.6
176
     1
 41
-30.0
176
     1
 62
     5
 63
     7
421
 16777215
176
     1
 74
     1
176
     1
 91
        4
176
     1
 64
     7
176
     1
 65
   257
176
     1
 75
     1
176
     1
175
     1
176
     1
 42
1.0
176
     1
 92
        0
176
     1
 66
   257
176
     1
 43
1.0
176
     1
 76
     1
176
     1
 77
     6
176
     1
 78
     2
176
     1
 67
     7
176
     1
 79
     5
176
     1
170
     0
176
     1
171
     0
176
     1
290
     0
176
     1
 93
        1
176
     1
 44
0.0
176
     1
173
     0
176
     1
  0
VISUALSTYLE
  5
31
102
{ACAD_REACTORS
330
2A
102
}
330
2A
100
AcDbVisualStyle
  2
3D Hidden
 70
     6
177
     2
291
     0
 71
     1
176
     1
 72
     2
176
     1
 73
     2
176
     1
 90
        0
176
     1
 40
-0.6
176
     1
 41
-30.0
176
     1
 62
     5
 63
     7
421
 16777215
176
     1
 74
     2
176
     1
 91
        2
176
     1
 64
     7
176
     1
 65
   257
176
     1
 75
     2
176
     1
175
     1
176
     1
 42
40.0
176
     1
 92
        0
176
     1
 66
   257
176
     1
 43
1.0
176
     1
 76
     1
176
     1
 77
     6
176
     1
 78
     2
176
     1
 67
     7
176
     1
 79
     3
176
     1
170
     0
176
     1
171
     0
176
     1
290
     0
176
     1
 93
        1
176
     1
 44
0.0
176
     1
173
     0
176
     1
  0
VISUALSTYLE
  5
30
102
{ACAD_REACTORS
330
2A
102
}
330
2A
100
AcDbVisualStyle
  2
3dWireframe
 70
     5
177
     2
291
     0
 71
     0
176
     1
 72
     2
176
     1
 73
     0
176
     1
 90
        0
176
     1
 40
-0.6
176
     1
 41
-30.0
176
     1
 62
     5
 63
     7
421
 16777215
176
     1
 74
     1
176
     1
 91
        4
176
     1
 64
     7
176
     1
 65
   257
176
     1
 75
     1
176
     1
175
     1
176
     1
 42
1.0
176
     1
 92
        0
176
     1
 66
   257
176
     1
 43
1.0
176
     1
 76
     1
176
     1
 77
     6
176
     1
 78
     2
176
     1
 67
     7
176
     1
 79
     5
176
     1
170
     0
176
     1
171
     0
176
     1
290
     0
176
     1
 93
        1
176
     1
 44
0.0
176
     1
173
     0
176
     1
  0
VISUALSTYLE
  5
32
102
{ACAD_REACTORS
330
2A
102
}
330
2A
100
AcDbVisualStyle
  2
Basic
 70
     7
177
     2
291
     1
 71
     1
176
     1
 72
     0
176
     1
 73
     1
176
     1
 90
        0
176
     1
 40
-0.6
176
     1
 41
-30.0
176
     1
 62
     5
 63
     7
421
 16777215
176
     1
 74
     0
176
     1
 91
        4
176
     1
 64
     7
176
     1
 65
   257
176
     1
 75
     1
176
     1
175
     1
176
     1
 42
1.0
176
     1
 92
        8
176
     1
 66
     7
176
     1
 43
1.0
176
     1
 76
     1
176
     1
 77
     6
176
     1
 78
     2
176
     1
 67
     7
176
     1
 79
     5
176
     1
170
     0
176
     1
171
     0
176
     1
290
     0
176
     1
 93
        1
176
     1
 44
0.0
176
     1
173
     0
176
     1
  0
VISUALSTYLE
  5
36
102
{ACAD_REACTORS
330
2A
102
}
330
2A
100
AcDbVisualStyle
  2
Brighten
 70
    12
177
     2
291
     1
 71
     2
176
     1
 72
     2
176
     1
 73
     0
176
     1
 90
        0
176
     1
 40
-0.6
176
     1
 41
-30.0
176
     1
 62
     5
 63
     7
421
 16777215
176
     1
 74
     1
176
     1
 91
        4
176
     1
 64
     7
176
     1
 65
   257
176
     1
 75
     1
176
     1
175
     1
176
     1
 42
1.0
176
     1
 92
        8
176
     1
 66
     7
176
     1
 43
1.0
176
     1
 76
     1
176
     1
 77
     6
176
     1
 78
     2
176
     1
 67
     7
176
     1
 79
     5
176
     1
170
     0
176
     1
171
     0
176
     1
290
     0
176
     1
 93
        1
176
     1
 44
50.0
176
     1
173
     0
176
     1
  0
VISUALSTYLE
  5
3A
102
{ACAD_REACTORS
330
2A
102
}
330
2A
100
AcDbVisualStyle
  2
ColorChange
 70
    16
177
     2
291
     1
 71
     2
176
     1
 72
     2
176
     1
 73
     3
176
     1
 90
        0
176
     1
 40
-0.6
176
     1
 41
-30.0
176
     1
 62
     5
 63
     8
421
  8421504
176
     1
 74
     1
176
     1
 91
        4
176
     1
 64
     7
176
     1
 65
   257
176
     1
 75
     1
176
     1
175
     1
176
     1
 42
1.0
176
     1
 92
        8
176
     1
 66
     8
424
  8421504
176
     1
 43
1.0
176
     1
 76
     1
176
     1
 77
     6
176
     1
 78
     2
176
     1
 67
     7
176
     1
 79
     5
176
     1
170
     0
176
     1
171
     0
176
     1
290
     0
176
     1
 93
        1
176
     1
 44
0.0
176
     1
173
     0
176
     1
  0
VISUALSTYLE
  5
34
102
{ACAD_REACTORS
330
2A
102
}
330
2A
100
AcDbVisualStyle
  2
Conceptual
 70
     9
177
     2
291
     0
 71
     3
176
     1
 72
     2
176
     1
 73
     0
176
     1
 90
        0
176
     1
 40
-0.6
176
     1
 41
-30.0
176
     1
 62
     5
 63
     7
421
 16777215
176
     1
 74
     2
176
     1
 91
        2
176
     1
 64
     7
176
     1
 65
   257
176
     1
 75
     1
176
     1
175
     1
176
     1
 42
40.0
176
     1
 92
        8
176
     1
 66
     7
176
     1
 43
1.0
176
     1
 76
     1
176
     1
 77
     6
176
     1
 78
     2
176
     1
 67
     7
176
     1
 79
     3
176
     1
170
     0
176
     1
171
     0
176
     1
290
     0
176
     1
 93
        1
176
     1
 44
0.0
176
     1
173
     0
176
     1
  0
VISUALSTYLE
  5
35
102
{ACAD_REACTORS
330
2A
102
}
330
2A
100
AcDbVisualStyle
  2
Dim
 70
    11
177
     2
291
     1
 71
     2
176
     1
 72
     2
176
     1
 73
     0
176
     1
 90
        0
176
     1
 40
-0.6
176
     1
 41
-30.0
176
     1
 62
     5
 63
     7
421
 16777215
176
     1
 74
     1
176
     1
 91
        4
176
     1
 64
     7
176
     1
 65
   257
176
     1
 75
     1
176
     1
175
     1
176
     1
 42
1.0
176
     1
 92
        8
176
     1
 66
     7
176
     1
 43
1.0
176
     1
 76
     1
176
     1
 77
     6
176
     1
 78
     2
176
     1
 67
     7
176
     1
 79
     5
176
     1
170
     0
176
     1
171
     0
176
     1
290
     0
176
     1
 93
        1
176
     1
 44
-50.0
176
     1
173
     0
176
     1
  0
VISUALSTYLE
  5
39
102
{ACAD_REACTORS
330
2A
102
}
330
2A
100
AcDbVisualStyle
  2
Facepattern
 70
    15
177
     2
291
     1
 71
     2
176
     1
 72
     2
176
     1
 73
     0
176
     1
 90
        0
176
     1
 40
-0.6
176
     1
 41
-30.0
176
     1
 62
     5
 63
     7
421
 16777215
176
     1
 74
     1
176
     1
 91
        4
176
     1
 64
     7
176
     1
 65
   257
176
     1
 75
     1
176
     1
175
     1
176
     1
 42
1.0
176
     1
 92
        8
176
     1
 66
     7
176
     1
 43
1.0
176
     1
 76
     1
176
     1
 77
     6
176
     1
 78
     2
176
     1
 67
     7
176
     1
 79
     5
176
     1
170
     0
176
     1
171
     0
176
     1
290
     0
176
     1
 93
        1
176
     1
 44
0.0
176
     1
173
     0
176
     1
  0
VISUALSTYLE
  5
2B
102
{ACAD_REACTORS
330
2A
102
}
330
2A
100
AcDbVisualStyle
  2
Flat
 70
     0
177
     2
291
     1
 71
     2
176
     1
 72
     1
176
     1
 73
     1
176
     1
 90
        2
176
     1
 40
-0.6
176
     1
 41
30.0
176
     1
 62
     5
 63
     7
421
 16777215
176
     1
 74
     0
176
     1
 91
        4
176
     1
 64
     7
176
     1
 65
   257
176
     1
 75
     1
176
     1
175
     1
176
     1
 42
1.0
176
     1
 92
        8
176
     1
 66
     7
176
     1
 43
1.0
176
     1
 76
     1
176
     1
 77
     6
176
     1
 78
     2
176
     1
 67
     7
176
     1
 79
     5
176
     1
170
     0
176
     1
171
     0
176
     1
290
     0
176
     1
 93
       13
176
     1
 44
0.0
176
     1
173
     0
176
     1
  0
VISUALSTYLE
  5
2C
102
{ACAD_REACTORS
330
2A
102
}
330
2A
100
AcDbVisualStyle
  2
FlatWithEdges
 70
     1
177
     2
291
     1
 71
     2
176
     1
 72
     1
176
     1
 73
     1
176
     1
 90
        2
176
     1
 40
-0.6
176
     1
 41
30.0
176
     1
 62
     5
 63
     7
421
 16777215
176
     1
 74
     1
176
     1
 91
        4
176
     1
 64
     7
176
     1
 65
   257
176
     1
 75
     1
176
     1
175
     1
176
     1
 42
1.0
176
     1
 92
        0
176
     1
 66
   257
176
     1
 43
1.0
176
     1
 76
     1
176
     1
 77
     6
176
     1
 78
     2
176
     1
 67
     7
176
     1
 79
     5
176
     1
170
     0
176
     1
171
     0
176
     1
290
     0
176
     1
 93
       13
176
     1
 44
0.0
176
     1
173
     0
176
     1
  0
VISUALSTYLE
  5
2D
102
{ACAD_REACTORS
330
2A
102
}
330
2A
100
AcDbVisualStyle
  2
Gouraud
 70
     2
177
     2
291
     1
 71
     2
176
     1
 72
     2
176
     1
 73
     1
176
     1
 90
        2
176
     1
 40
-0.6
176
     1
 41
30.0
176
     1
 62
     5
 63
     7
421
 16777215
176
     1
 74
     0
176
     1
 91
        4
176
     1
 64
     7
176
     1
 65
   257
176
     1
 75
     1
176
     1
175
     1
176
     1
 42
1.0
176
     1
 92
        0
176
     1
 66
     7
176
     1
 43
1.0
176
     1
 76
     1
176
     1
 77
     6
176
     1
 78
     2
176
     1
 67
     7
176
     1
 79
     5
176
     1
170
     0
176
     1
171
     0
176
     1
290
     0
176
     1
 93
       13
176
     1
 44
0.0
176
     1
173
     0
176
     1
  0
VISUALSTYLE
  5
2E
102
{ACAD_REACTORS
330
2A
102
}
330
2A
100
AcDbVisualStyle
  2
GouraudWithEdges
 70
     3
177
     2
291
     1
 71
     2
176
     1
 72
     2
176
     1
 73
     1
176
     1
 90
        2
176
     1
 40
-0.6
176
     1
 41
30.0
176
     1
 62
     5
 63
     7
421
 16777215
176
     1
 74
     1
176
     1
 91
        4
176
     1
 64
     7
176
     1
 65
   257
176
     1
 75
     1
176
     1
175
     1
176
     1
 42
1.0
176
     1
 92
        0
176
     1
 66
   257
176
     1
 43
1.0
176
     1
 76
     1
176
     1
 77
     6
176
     1
 78
     2
176
     1
 67
     7
176
     1
 79
     5
176
     1
170
     0
176
     1
171
     0
176
     1
290
     0
176
     1
 93
       13
176
     1
 44
0.0
176
     1
173
     0
176
     1
  0
VISUALSTYLE
  5
38
102
{ACAD_REACTORS
330
2A
102
}
330
2A
100
AcDbVisualStyle
  2
Linepattern
 70
    14
177
     2
291
     1
 71
     2
176
     1
 72
     2
176
     1
 73
     0
176
     1
 90
        0
176
     1
 40
-0.6
176
     1
 41
-30.0
176
     1
 62
     5
 63
     7
421
 16777215
176
     1
 74
     1
176
     1
 91
        4
176
     1
 64
     7
176
     1
 65
   257
176
     1
 75
     7
176
     1
175
     7
176
     1
 42
1.0
176
     1
 92
        8
176
     1
 66
     7
176
     1
 43
1.0
176
     1
 76
     1
176
     1
 77
     6
176
     1
 78
     2
176
     1
 67
     7
176
     1
 79
     5
176
     1
170
     0
176
     1
171
     0
176
     1
290
     0
176
     1
 93
        1
176
     1
 44
0.0
176
     1
173
     0
176
     1
  0
VISUALSTYLE
  5
33
102
{ACAD_REACTORS
330
2A
102
}
330
2A
100
AcDbVisualStyle
  2
Realistic
 70
     8
177
     2
291
     0
 71
     2
176
     1
 72
     2
176
     1
 73
     0
176
     1
 90
        0
176
     1
 40
-0.6
176
     1
 41
-30.0
176
     1
 62
     5
 63
     7
421
 16777215
176
     1
 74
     1
176
     1
 91
        0
176
     1
 64
     7
176
     1
 65
   257
176
     1
 75
     1
176
     1
175
     1
176
     1
 42
1.0
176
     1
 92
        8
176
     1
 66
     8
424
  7895160
176
     1
 43
1.0
176
     1
 76
     1
176
     1
 77
     6
176
     1
 78
     2
176
     1
 67
     7
176
     1
 79
     5
176
     1
170
     0
176
     1
171
     0
176
     1
290
     0
176
     1
 93
       13
176
     1
 44
0.0
176
     1
173
     0
176
     1
  0
VISUALSTYLE
  5
37
102
{ACAD_REACTORS
330
2A
102
}
330
2A
100
AcDbVisualStyle
  2
Thicken
 70
    13
177
     2
291
     1
 71
     2
176
     1
 72
     2
176
     1
 73
     0
176
     1
 90
        0
176
     1
 40
-0.6
176
     1
 41
-30.0
176
     1
 62
     5
 63
     7
421
 16777215
176
     1
 74
     1
176
     1
 91
        4
176
     1
 64
     7
176
     1
 65
   257
176
     1
 75
     1
176
     1
175
     1
176
     1
 42
1.0
176
     1
 92
       12
176
     1
 66
     7
176
     1
 43
1.0
176
     1
 76
     1
176
     1
 77
     6
176
     1
 78
     2
176
     1
 67
     7
176
     1
 79
     5
176
     1
170
     0
176
     1
171
     0
176
     1
290
     0
176
     1
 93
        1
176
     1
 44
0.0
176
     1
173
     0
176
     1
  0
ENDSEC
  0
EOF
