  0
SECTION
  2
HEADER
  9
$ACADVER
  1
AC1018
  9
$ACADMAINTVER
 70
     0
  9
$DWGCODEPAGE
  3
ANSI_1252
  9
$COMMENTS
  1
File was created by ARCHline.XP2015
  9
$INSBASE
 10
0.0
 20
0.0
 30
0.0
  9
$EXTMIN
 10
2.614436619718617
 20
1.481514084507126
 30
0.0
  9
$EXTMAX
 10
2972.614436619719
 20
2101.481514084507
 30
0.0
  9
$LIMMIN
 10
0.0
 20
0.0
  9
$LIMMAX
 10
12.0
 20
9.0
  9
$ORTHOMODE
 70
     0
  9
$REGENMODE
 70
     1
  9
$FILLMODE
 70
     1
  9
$QTEXTMODE
 70
     0
  9
$MIRRTEXT
 70
     1
  9
$LTSCALE
 40
1.0
  9
$ATTMODE
 70
     1
  9
$TEXTSIZE
 40
0.2
  9
$TRACEWID
 40
0.05
  9
$TEXTSTYLE
  7
Standard
  9
$CLAYER
  8
0
  9
$CELTYPE
  6
ByLayer
  9
$CECOLOR
 62
   256
  9
$CELTSCALE
 40
1.0
  9
$DISPSILH
 70
     0
  9
$DIMSCALE
 40
1.0
  9
$DIMASZ
 40
0.18
  9
$DIMEXO
 40
0.0625
  9
$DIMDLI
 40
0.38
  9
$DIMRND
 40
0.0
  9
$DIMDLE
 40
0.0
  9
$DIMEXE
 40
0.18
  9
$DIMTP
 40
0.0
  9
$DIMTM
 40
0.0
  9
$DIMTXT
 40
0.18
  9
$DIMCEN
 40
0.09
  9
$DIMTSZ
 40
0.0
  9
$DIMTOL
 70
     0
  9
$DIMLIM
 70
     0
  9
$DIMTIH
 70
     1
  9
$DIMTOH
 70
     1
  9
$DIMSE1
 70
     0
  9
$DIMSE2
 70
     0
  9
$DIMTAD
 70
     0
  9
$DIMZIN
 70
     0
  9
$DIMBLK
  1

  9
$DIMASO
 70
     1
  9
$DIMSHO
 70
     1
  9
$DIMPOST
  1

  9
$DIMAPOST
  1

  9
$DIMALT
 70
     0
  9
$DIMALTD
 70
     2
  9
$DIMALTF
 40
25.4
  9
$DIMLFAC
 40
1.0
  9
$DIMTOFL
 70
     0
  9
$DIMTVP
 40
0.0
  9
$DIMTIX
 70
     0
  9
$DIMSOXD
 70
     0
  9
$DIMSAH
 70
     0
  9
$DIMBLK1
  1

  9
$DIMBLK2
  1

  9
$DIMSTYLE
  2
Standard
  9
$DIMCLRD
 70
     0
  9
$DIMCLRE
 70
     0
  9
$DIMCLRT
 70
     0
  9
$DIMTFAC
 40
1.0
  9
$DIMGAP
 40
0.09
  9
$DIMJUST
 70
     0
  9
$DIMSD1
 70
     0
  9
$DIMSD2
 70
     0
  9
$DIMTOLJ
 70
     1
  9
$DIMTZIN
 70
     0
  9
$DIMALTZ
 70
     0
  9
$DIMALTTZ
 70
     0
  9
$DIMUPT
 70
     0
  9
$DIMDEC
 70
     4
  9
$DIMTDEC
 70
     4
  9
$DIMALTU
 70
     2
  9
$DIMALTTD
 70
     2
  9
$DIMTXSTY
  7
Standard
  9
$DIMAUNIT
 70
     0
  9
$DIMADEC
 70
     0
  9
$DIMALTRND
 40
0.0
  9
$DIMAZIN
 70
     0
  9
$DIMDSEP
 70
    46
  9
$DIMATFIT
 70
     3
  9
$DIMFRAC
 70
     0
  9
$DIMLDRBLK
  1

  9
$DIMLUNIT
 70
     2
  9
$DIMLWD
 70
    -2
  9
$DIMLWE
 70
    -2
  9
$DIMTMOVE
 70
     0
  9
$LUNITS
 70
     2
  9
$LUPREC
 70
     4
  9
$SKETCHINC
 40
0.1
  9
$FILLETRAD
 40
0.5
  9
$AUNITS
 70
     0
  9
$AUPREC
 70
     0
  9
$MENU
  1
.
  9
$ELEVATION
 40
0.0
  9
$PELEVATION
 40
0.0
  9
$THICKNESS
 40
0.0
  9
$LIMCHECK
 70
     0
  9
$CHAMFERA
 40
0.0
  9
$CHAMFERB
 40
0.0
  9
$CHAMFERC
 40
0.0
  9
$CHAMFERD
 40
0.0
  9
$SKPOLY
 70
     0
  9
$TDCREATE
 40
2457527.571205996
  9
$TDUCREATE
 40
2457527.487872662
  9
$TDUPDATE
 40
2457527.571207014
  9
$TDUUPDATE
 40
2457527.48787368
  9
$TDINDWG
 40
0.0000000116
  9
$TDUSRTIMER
 40
0.0000000116
  9
$USRTIMER
 70
     1
  9
$ANGBASE
 50
0.0
  9
$ANGDIR
 70
     0
  9
$PDMODE
 70
     0
  9
$PDSIZE
 40
0.0
  9
$PLINEWID
 40
0.0
  9
$SPLFRAME
 70
     0
  9
$SPLINETYPE
 70
     6
  9
$SPLINESEGS
 70
     8
  9
$HANDSEED
  5
22B
  9
$SURFTAB1
 70
     6
  9
$SURFTAB2
 70
     6
  9
$SURFTYPE
 70
     6
  9
$SURFU
 70
     6
  9
$SURFV
 70
     6
  9
$UCSBASE
  2

  9
$UCSNAME
  2

  9
$UCSORG
 10
0.0
 20
0.0
 30
0.0
  9
$UCSXDIR
 10
1.0
 20
0.0
 30
0.0
  9
$UCSYDIR
 10
0.0
 20
1.0
 30
0.0
  9
$UCSORTHOREF
  2

  9
$UCSORTHOVIEW
 70
     0
  9
$UCSORGTOP
 10
0.0
 20
0.0
 30
0.0
  9
$UCSORGBOTTOM
 10
0.0
 20
0.0
 30
0.0
  9
$UCSORGLEFT
 10
0.0
 20
0.0
 30
0.0
  9
$UCSORGRIGHT
 10
0.0
 20
0.0
 30
0.0
  9
$UCSORGFRONT
 10
0.0
 20
0.0
 30
0.0
  9
$UCSORGBACK
 10
0.0
 20
0.0
 30
0.0
  9
$PUCSBASE
  2

  9
$PUCSNAME
  2

  9
$PUCSORG
 10
0.0
 20
0.0
 30
0.0
  9
$PUCSXDIR
 10
1.0
 20
0.0
 30
0.0
  9
$PUCSYDIR
 10
0.0
 20
1.0
 30
0.0
  9
$PUCSORTHOREF
  2

  9
$PUCSORTHOVIEW
 70
     0
  9
$PUCSORGTOP
 10
0.0
 20
0.0
 30
0.0
  9
$PUCSORGBOTTOM
 10
0.0
 20
0.0
 30
0.0
  9
$PUCSORGLEFT
 10
0.0
 20
0.0
 30
0.0
  9
$PUCSORGRIGHT
 10
0.0
 20
0.0
 30
0.0
  9
$PUCSORGFRONT
 10
0.0
 20
0.0
 30
0.0
  9
$PUCSORGBACK
 10
0.0
 20
0.0
 30
0.0
  9
$USERI1
 70
     0
  9
$USERI2
 70
     0
  9
$USERI3
 70
     0
  9
$USERI4
 70
     0
  9
$USERI5
 70
     0
  9
$USERR1
 40
0.0
  9
$USERR2
 40
0.0
  9
$USERR3
 40
0.0
  9
$USERR4
 40
0.0
  9
$USERR5
 40
0.0
  9
$WORLDVIEW
 70
     1
  9
$SHADEDGE
 70
     3
  9
$SHADEDIF
 70
    70
  9
$TILEMODE
 70
     1
  9
$MAXACTVP
 70
    64
  9
$PINSBASE
 10
0.0
 20
0.0
 30
0.0
  9
$PLIMCHECK
 70
     0
  9
$PEXTMIN
 10
1.000000000000000E+20
 20
1.000000000000000E+20
 30
1.000000000000000E+20
  9
$PEXTMAX
 10
-1.000000000000000E+20
 20
-1.000000000000000E+20
 30
-1.000000000000000E+20
  9
$PLIMMIN
 10
0.0
 20
0.0
  9
$PLIMMAX
 10
12.0
 20
9.0
  9
$UNITMODE
 70
     0
  9
$VISRETAIN
 70
     1
  9
$PLINEGEN
 70
     0
  9
$PSLTSCALE
 70
     1
  9
$TREEDEPTH
 70
  3020
  9
$CMLSTYLE
  2
Standard
  9
$CMLJUST
 70
     0
  9
$CMLSCALE
 40
1.0
  9
$PROXYGRAPHICS
 70
     1
  9
$MEASUREMENT
 70
     0
  9
$CELWEIGHT
370
    -1
  9
$ENDCAPS
280
     0
  9
$JOINSTYLE
280
     0
  9
$LWDISPLAY
290
     0
  9
$INSUNITS
 70
     1
  9
$HYPERLINKBASE
  1

  9
$STYLESHEET
  1

  9
$XEDIT
290
     1
  9
$CEPSNTYPE
380
     0
  9
$PSTYLEMODE
290
     1
  9
$FINGERPRINTGUID
  2
{F00AF21B-F002-47FF-B6EF-498BC0EA7FA0}
  9
$VERSIONGUID
  2
{FAEB1C32-E019-11D5-929B-00C0DF256EC4}
  9
$EXTNAMES
290
     1
  9
$PSVPSCALE
 40
0.0
  9
$OLESTARTUP
290
     0
  9
$SORTENTS
280
   127
  9
$INDEXCTL
280
     0
  9
$HIDETEXT
280
     1
  9
$XCLIPFRAME
290
     0
  9
$HALOGAP
280
     0
  9
$OBSCOLOR
 70
   257
  9
$OBSLTYPE
280
     0
  9
$INTERSECTIONDISPLAY
280
     0
  9
$INTERSECTIONCOLOR
 70
   257
  9
$DIMASSOC
280
     2
  9
$PROJECTNAME
  1

  0
ENDSEC
  0
SECTION
  2
CLASSES
  0
CLASS
  1
ACDBDICTIONARYWDFLT
  2
AcDbDictionaryWithDefault
  3
ObjectDBX Classes
 90
        0
 91
        4
280
     0
281
     0
  0
CLASS
  1
VISUALSTYLE
  2
AcDbVisualStyle
  3
ObjectDBX Classes
 90
     4095
 91
        4
280
     0
281
     0
  0
CLASS
  1
MATERIAL
  2
AcDbMaterial
  3
ObjectDBX Classes
 90
     1153
 91
        4
280
     0
281
     0
  0
CLASS
  1
SCALE
  2
AcDbScale
  3
ObjectDBX Classes
 90
     1153
 91
        4
280
     0
281
     0
  0
CLASS
  1
TABLESTYLE
  2
AcDbTableStyle
  3
ObjectDBX Classes
 90
     4095
 91
        4
280
     0
281
     0
  0
CLASS
  1
MLEADERSTYLE
  2
AcDbMLeaderStyle
  3
ACDB_MLEADERSTYLE_CLASS
 90
     4095
 91
        4
280
     0
281
     0
  0
CLASS
  1
SUN
  2
AcDbSun
  3
SCENEOE
 90
     1153
 91
        4
280
     0
281
     0
  0
CLASS
  1
IMAGEDEF
  2
AcDbRasterImageDef
  3
ISM
 90
        0
 91
        4
280
     0
281
     0
  0
CLASS
  1
IMAGE
  2
AcDbRasterImage
  3
ISM
 90
      127
 91
        5
280
     0
281
     1
  0
CLASS
  1
IMAGEDEF_REACTOR
  2
AcDbRasterImageDefReactor
  3
ISM
 90
        1
 91
        4
280
     0
281
     0
  0
CLASS
  1
DICTIONARYVAR
  2
AcDbDictionaryVar
  3
ObjectDBX Classes
 90
        0
 91
        4
280
     0
281
     0
  0
CLASS
  1
CELLSTYLEMAP
  2
AcDbCellStyleMap
  3
ObjectDBX Classes
 90
     1152
 91
        4
280
     0
281
     0
  0
ENDSEC
  0
SECTION
  2
TABLES
  0
TABLE
  2
VPORT
  5
8
102
{ACAD_XDICTIONARY
360
1E4
102
}
330
0
100
AcDbSymbolTable
 70
     1
  0
VPORT
  5
29
330
8
100
AcDbSymbolTableRecord
100
AcDbViewportTableRecord
  2
*Active
 70
     0
 10
0.0
 20
0.0
 11
1.0
 21
1.0
 12
10.42990654205607
 22
4.5
 13
0.0
 23
0.0
 14
0.5
 24
0.5
 15
0.5
 25
0.5
 16
0.0
 26
0.0
 36
1.0
 17
0.0
 27
0.0
 37
0.0
 40
9.0
 41
1.972972972850329
 42
50.0
 43
0.0
 44
0.0
 50
0.0
 51
0.0
 71
     0
 72
   100
 73
     1
 74
     3
 75
     0
 76
     0
 77
     0
 78
     0
281
     0
 65
     1
110
0.0
120
0.0
130
0.0
111
1.0
121
0.0
131
0.0
112
0.0
122
1.0
132
0.0
 79
     0
146
0.0
  0
ENDTAB
  0
TABLE
  2
LTYPE
  5
5
330
0
100
AcDbSymbolTable
 70
    45
  0
LTYPE
  5
14
330
5
100
AcDbSymbolTableRecord
100
AcDbLinetypeTableRecord
  2
ByBlock
 70
     0
  3

 72
    65
 73
     0
 40
0.0
  0
LTYPE
  5
15
330
5
100
AcDbSymbolTableRecord
100
AcDbLinetypeTableRecord
  2
ByLayer
 70
     0
  3

 72
    65
 73
     0
 40
0.0
  0
LTYPE
  5
16
330
5
100
AcDbSymbolTableRecord
100
AcDbLinetypeTableRecord
  2
Continuous
 70
     0
  3
Solid line
 72
    65
 73
     0
 40
0.0
  0
LTYPE
  5
6F
330
5
100
AcDbSymbolTableRecord
100
AcDbLinetypeTableRecord
  2
HIDDEN
 70
     0
  3
_ _ _ _ _ _ _ _ _ _ _ _ _ _ _ _ _ _ _ _ _ _ _
 72
    65
 73
     2
 40
0.375
 49
0.25
 74
     0
 49
-0.125
 74
     0
  0
LTYPE
  5
70
330
5
100
AcDbSymbolTableRecord
100
AcDbLinetypeTableRecord
  2
CENTER
 70
     0
  3
____ _ ____ _ ____ _ ____ _ ____ _ ____ _ ____
 72
    65
 73
     4
 40
2.0
 49
1.25
 74
     0
 49
-0.25
 74
     0
 49
0.25
 74
     0
 49
-0.25
 74
     0
  0
LTYPE
  5
71
330
5
100
AcDbSymbolTableRecord
100
AcDbLinetypeTableRecord
  2
DASHED
 70
     0
  3
__ __ __ __ __ __ __ __ __ __ __ __ __ __ __
 72
    65
 73
     2
 40
1.5
 49
1.25
 74
     0
 49
-0.25
 74
     0
  0
LTYPE
  5
72
330
5
100
AcDbSymbolTableRecord
100
AcDbLinetypeTableRecord
  2
Gepunktete
 70
     0
  3

 72
    65
 73
     2
 40
1.560000061988831
 49
0.3600000143051147
 74
     0
 49
-1.200000047683716
 74
     0
  0
LTYPE
  5
73
330
5
100
AcDbSymbolTableRecord
100
AcDbLinetypeTableRecord
  2
Strichpunktierte
 70
     0
  3

 72
    65
 73
     4
 40
4.920000046491623
 49
3.0
 74
     0
 49
-0.7200000286102295
 74
     0
 49
0.4799999892711639
 74
     0
 49
-0.7200000286102295
 74
     0
  0
LTYPE
  5
74
330
5
100
AcDbSymbolTableRecord
100
AcDbLinetypeTableRecord
  2
Strichellinie
 70
     0
  3

 72
    65
 73
     2
 40
2.399999976158142
 49
1.799999952316284
 74
     0
 49
-0.6000000238418579
 74
     0
  0
LTYPE
  5
75
330
5
100
AcDbSymbolTableRecord
100
AcDbLinetypeTableRecord
  2
2Punkt
 70
     0
  3

 72
    65
 73
     6
 40
6.120000123977661
 49
3.0
 74
     0
 49
-0.7200000286102295
 74
     0
 49
0.4800000190734863
 74
     0
 49
-0.7200000286102295
 74
     0
 49
0.4800000190734863
 74
     0
 49
-0.7200000286102295
 74
     0
  0
LTYPE
  5
76
330
5
100
AcDbSymbolTableRecord
100
AcDbLinetypeTableRecord
  2
2Punkt-2Abstand
 70
     0
  3

 72
    65
 73
     6
 40
8.28000020980835
 49
3.0
 74
     0
 49
-1.440000057220459
 74
     0
 49
0.4800000190734863
 74
     0
 49
-1.440000057220459
 74
     0
 49
0.4800000190734863
 74
     0
 49
-1.440000057220459
 74
     0
  0
LTYPE
  5
77
330
5
100
AcDbSymbolTableRecord
100
AcDbLinetypeTableRecord
  2
2Punkt-3Abstand
 70
     0
  3

 72
    65
 73
     6
 40
11.26800036430359
 49
3.0
 74
     0
 49
-2.436000108718872
 74
     0
 49
0.4800000190734863
 74
     0
 49
-2.436000108718872
 74
     0
 49
0.4800000190734863
 74
     0
 49
-2.436000108718872
 74
     0
  0
LTYPE
  5
78
330
5
100
AcDbSymbolTableRecord
100
AcDbLinetypeTableRecord
  2
Gepunktete Var.2
 70
     0
  3

 72
    65
 73
     2
 40
3.120000004768372
 49
0.3600000143051147
 74
     0
 49
-2.759999990463257
 74
     0
  0
LTYPE
  5
79
330
5
100
AcDbSymbolTableRecord
100
AcDbLinetypeTableRecord
  2
Gepunktete Var.3
 70
     0
  3

 72
    65
 73
     2
 40
4.679999709129333
 49
0.3600000143051147
 74
     0
 49
-4.319999694824219
 74
     0
  0
LTYPE
  5
7A
330
5
100
AcDbSymbolTableRecord
100
AcDbLinetypeTableRecord
  2
Gepunktete Var.4
 70
     0
  3

 72
    65
 73
     4
 40
4.319999814033508
 49
0.3600000143051147
 74
     0
 49
-1.199999928474426
 74
     0
 49
0.3600000143051147
 74
     0
 49
-2.399999856948853
 74
     0
  0
LTYPE
  5
7B
330
5
100
AcDbSymbolTableRecord
100
AcDbLinetypeTableRecord
  2
Gepunktete Var.5
 70
     0
  3

 72
    65
 73
     4
 40
4.319999814033508
 49
0.3600000143051147
 74
     0
 49
-1.199999928474426
 74
     0
 49
0.3600000143051147
 74
     0
 49
-2.399999856948853
 74
     0
  0
LTYPE
  5
7C
330
5
100
AcDbSymbolTableRecord
100
AcDbLinetypeTableRecord
  2
Gepunktete Var.6
 70
     0
  3

 72
    65
 73
     6
 40
7.079999685287476
 49
0.3600000143051147
 74
     0
 49
-1.199999928474426
 74
     0
 49
0.3600000143051147
 74
     0
 49
-2.399999856948853
 74
     0
 49
0.3600000143051147
 74
     0
 49
-2.399999856948853
 74
     0
  0
LTYPE
  5
7D
330
5
100
AcDbSymbolTableRecord
100
AcDbLinetypeTableRecord
  2
Strichlierte Var.2
 70
     0
  3

 72
    65
 73
     2
 40
3.599999904632568
 49
1.799999952316284
 74
     0
 49
-1.799999952316284
 74
     0
  0
LTYPE
  5
7E
330
5
100
AcDbSymbolTableRecord
100
AcDbLinetypeTableRecord
  2
Strichlierte Var.3
 70
     0
  3

 72
    65
 73
     2
 40
5.399999856948853
 49
1.799999952316284
 74
     0
 49
-3.599999904632568
 74
     0
  0
LTYPE
  5
7F
330
5
100
AcDbSymbolTableRecord
100
AcDbLinetypeTableRecord
  2
Strichlierte Var.4
 70
     0
  3

 72
    65
 73
     2
 40
4.199999868869781
 49
3.599999904632568
 74
     0
 49
-0.5999999642372131
 74
     0
  0
LTYPE
  5
80
330
5
100
AcDbSymbolTableRecord
100
AcDbLinetypeTableRecord
  2
Strichlierte Var.5
 70
     0
  3

 72
    65
 73
     2
 40
5.399999856948853
 49
3.599999904632568
 74
     0
 49
-1.799999952316284
 74
     0
  0
LTYPE
  5
81
330
5
100
AcDbSymbolTableRecord
100
AcDbLinetypeTableRecord
  2
Strichlierte Var.6
 70
     0
  3

 72
    65
 73
     2
 40
7.199999809265137
 49
3.599999904632568
 74
     0
 49
-3.599999904632568
 74
     0
  0
LTYPE
  5
82
330
5
100
AcDbSymbolTableRecord
100
AcDbLinetypeTableRecord
  2
Strich-2Abstand
 70
     0
  3

 72
    65
 73
     4
 40
8.999999761581421
 49
1.799999952316284
 74
     0
 49
-1.799999952316284
 74
     0
 49
3.599999904632568
 74
     0
 49
-1.799999952316284
 74
     0
  0
LTYPE
  5
83
330
5
100
AcDbSymbolTableRecord
100
AcDbLinetypeTableRecord
  2
Strich-3Abstand
 70
     0
  3

 72
    65
 73
     6
 40
7.919999837875366
 49
0.3600000143051147
 74
     0
 49
-1.799999952316284
 74
     0
 49
0.3600000143051147
 74
     0
 49
-1.799999952316284
 74
     0
 49
1.799999952316284
 74
     0
 49
-1.799999952316284
 74
     0
  0
LTYPE
  5
84
330
5
100
AcDbSymbolTableRecord
100
AcDbLinetypeTableRecord
  2
Strich-4Abstand
 70
     0
  3

 72
    65
 73
     6
 40
9.359999775886536
 49
1.799999952316284
 74
     0
 49
-1.799999952316284
 74
     0
 49
1.799999952316284
 74
     0
 49
-1.799999952316284
 74
     0
 49
0.3600000143051147
 74
     0
 49
-1.799999952316284
 74
     0
  0
LTYPE
  5
85
330
5
100
AcDbSymbolTableRecord
100
AcDbLinetypeTableRecord
  2
Punktlinie
 70
     0
  3

 72
    65
 73
     6
 40
20.10000000149012
 49
0.0500000007450581
 74
     0
 49
-0.0500000007450581
 74
     0
 49
5.0
 74
     0
 49
-5.0
 74
     0
 49
5.0
 74
     0
 49
-5.0
 74
     0
  0
LTYPE
  5
86
330
5
100
AcDbSymbolTableRecord
100
AcDbLinetypeTableRecord
  2
Punkt-Strichlinie
 70
     0
  3

 72
    65
 73
     6
 40
3.550000000745058
 49
1.0
 74
     0
 49
-0.5
 74
     0
 49
1.0
 74
     0
 49
-0.5
 74
     0
 49
0.0500000007450581
 74
     0
 49
-0.5
 74
     0
  0
LTYPE
  5
87
330
5
100
AcDbSymbolTableRecord
100
AcDbLinetypeTableRecord
  2
Doppelpunkt-Strichlinie
 70
     0
  3

 72
    65
 73
     6
 40
1.350000001490116
 49
0.5
 74
     0
 49
-0.25
 74
     0
 49
0.0500000007450581
 74
     0
 49
-0.25
 74
     0
 49
0.0500000007450581
 74
     0
 49
-0.25
 74
     0
  0
LTYPE
  5
88
330
5
100
AcDbSymbolTableRecord
100
AcDbLinetypeTableRecord
  2
Eigene Linie 27
 70
     0
  3

 72
    65
 73
     6
 40
2.600000001490116
 49
1.0
 74
     0
 49
-0.5
 74
     0
 49
0.0500000007450581
 74
     0
 49
-0.5
 74
     0
 49
0.0500000007450581
 74
     0
 49
-0.5
 74
     0
  0
LTYPE
  5
89
330
5
100
AcDbSymbolTableRecord
100
AcDbLinetypeTableRecord
  2
Eigene Linie 28
 70
     0
  3

 72
    65
 73
     6
 40
1.800000000745058
 49
0.5
 74
     0
 49
-0.25
 74
     0
 49
0.5
 74
     0
 49
-0.25
 74
     0
 49
0.0500000007450581
 74
     0
 49
-0.25
 74
     0
  0
LTYPE
  5
8A
330
5
100
AcDbSymbolTableRecord
100
AcDbLinetypeTableRecord
  2
Eigene Linie 29
 70
     0
  3

 72
    65
 73
     6
 40
0.9250000007450581
 49
0.25
 74
     0
 49
-0.125
 74
     0
 49
0.25
 74
     0
 49
-0.125
 74
     0
 49
0.0500000007450581
 74
     0
 49
-0.125
 74
     0
  0
LTYPE
  5
8B
330
5
100
AcDbSymbolTableRecord
100
AcDbLinetypeTableRecord
  2
Eigene Linie 30
 70
     0
  3

 72
    65
 73
     2
 40
0.3000000007450581
 49
0.0500000007450581
 74
     0
 49
-0.25
 74
     0
  0
LTYPE
  5
8C
330
5
100
AcDbSymbolTableRecord
100
AcDbLinetypeTableRecord
  2
Eigene Linie 31
 70
     0
  3

 72
    65
 73
     2
 40
0.1750000007450581
 49
0.0500000007450581
 74
     0
 49
-0.125
 74
     0
  0
LTYPE
  5
8D
330
5
100
AcDbSymbolTableRecord
100
AcDbLinetypeTableRecord
  2
Eigene Linie 32
 70
     0
  3

 72
    65
 73
     2
 40
0.5500000007450581
 49
0.0500000007450581
 74
     0
 49
-0.5
 74
     0
  0
LTYPE
  5
8E
330
5
100
AcDbSymbolTableRecord
100
AcDbLinetypeTableRecord
  2
Eigene Linie 33
 70
     0
  3

 72
    65
 73
     4
 40
1.050000000745058
 49
0.5
 74
     0
 49
-0.25
 74
     0
 49
0.0500000007450581
 74
     0
 49
-0.25
 74
     0
  0
LTYPE
  5
8F
330
5
100
AcDbSymbolTableRecord
100
AcDbLinetypeTableRecord
  2
Eigene Linie 34
 70
     0
  3

 72
    65
 73
     4
 40
0.5500000007450581
 49
0.25
 74
     0
 49
-0.125
 74
     0
 49
0.0500000007450581
 74
     0
 49
-0.125
 74
     0
  0
LTYPE
  5
90
330
5
100
AcDbSymbolTableRecord
100
AcDbLinetypeTableRecord
  2
Eigene Linie 35
 70
     0
  3

 72
    65
 73
     4
 40
2.050000000745058
 49
1.0
 74
     0
 49
-0.5
 74
     0
 49
0.0500000007450581
 74
     0
 49
-0.5
 74
     0
  0
LTYPE
  5
91
330
5
100
AcDbSymbolTableRecord
100
AcDbLinetypeTableRecord
  2
Eigene Linie 36
 70
     0
  3

 72
    65
 73
     2
 40
0.75
 49
0.5
 74
     0
 49
-0.25
 74
     0
  0
LTYPE
  5
92
330
5
100
AcDbSymbolTableRecord
100
AcDbLinetypeTableRecord
  2
Eigene Linie 37
 70
     0
  3

 72
    65
 73
     2
 40
0.375
 49
0.25
 74
     0
 49
-0.125
 74
     0
  0
LTYPE
  5
93
330
5
100
AcDbSymbolTableRecord
100
AcDbLinetypeTableRecord
  2
Eigene Linie 38
 70
     0
  3

 72
    65
 73
     2
 40
1.5
 49
1.0
 74
     0
 49
-0.5
 74
     0
  0
LTYPE
  5
94
330
5
100
AcDbSymbolTableRecord
100
AcDbLinetypeTableRecord
  2
Eigene Linie 39
 70
     0
  3

 72
    65
 73
     6
 40
2.5
 49
1.25
 74
     0
 49
-0.25
 74
     0
 49
0.25
 74
     0
 49
-0.25
 74
     0
 49
0.25
 74
     0
 49
-0.25
 74
     0
  0
LTYPE
  5
95
330
5
100
AcDbSymbolTableRecord
100
AcDbLinetypeTableRecord
  2
Eigene Linie 40
 70
     0
  3

 72
    65
 73
     6
 40
1.25
 49
0.625
 74
     0
 49
-0.125
 74
     0
 49
0.125
 74
     0
 49
-0.125
 74
     0
 49
0.125
 74
     0
 49
-0.125
 74
     0
  0
LTYPE
  5
96
330
5
100
AcDbSymbolTableRecord
100
AcDbLinetypeTableRecord
  2
Eigene Linie 41
 70
     0
  3

 72
    65
 73
     6
 40
5.0
 49
2.5
 74
     0
 49
-0.5
 74
     0
 49
0.5
 74
     0
 49
-0.5
 74
     0
 49
0.5
 74
     0
 49
-0.5
 74
     0
  0
LTYPE
  5
97
330
5
100
AcDbSymbolTableRecord
100
AcDbLinetypeTableRecord
  2
Eigene Linie 42
 70
     0
  3

 72
    65
 73
     2
 40
0.300000011920929
 49
0.1500000059604645
 74
     0
 49
-0.1500000059604645
 74
     0
  0
LTYPE
  5
98
330
5
100
AcDbSymbolTableRecord
100
AcDbLinetypeTableRecord
  2
Eigene Linie 43
 70
     0
  3

 72
    65
 73
     2
 40
0.1399999968707561
 49
0.0799999982118607
 74
     0
 49
-0.0599999986588955
 74
     0
  0
LTYPE
  5
99
330
5
100
AcDbSymbolTableRecord
100
AcDbLinetypeTableRecord
  2
Eigene Linie 44
 70
     0
  3

 72
    65
 73
     2
 40
0.3000000007450581
 49
0.0500000007450581
 74
     0
 49
-0.25
 74
     0
  0
LTYPE
  5
9A
330
5
100
AcDbSymbolTableRecord
100
AcDbLinetypeTableRecord
  2
Eigene Linie 45
 70
     0
  3

 72
    65
 73
     2
 40
0.5500000007450581
 49
0.0500000007450581
 74
     0
 49
-0.5
 74
     0
  0
ENDTAB
  0
TABLE
  2
LAYER
  5
2
330
0
100
AcDbSymbolTable
 70
     3
  0
LAYER
  5
10
330
2
100
AcDbSymbolTableRecord
100
AcDbLayerTableRecord
  2
0
 70
     0
 62
     7
  6
Continuous
370
    -3
390
F
  0
LAYER
  5
9B
330
2
100
AcDbSymbolTableRecord
100
AcDbLayerTableRecord
  2
0 - Systemaufbauten
 70
     0
 62
     7
  6
Continuous
370
     0
390
F
  0
LAYER
  5
9C
330
2
100
AcDbSymbolTableRecord
100
AcDbLayerTableRecord
  2
00_Allgemein - Systemaufbauten
 70
     0
 62
     7
  6
Continuous
370
     0
390
F
  0
ENDTAB
  0
TABLE
  2
STYLE
  5
3
330
0
100
AcDbSymbolTable
 70
     2
  0
STYLE
  5
11
330
3
100
AcDbSymbolTableRecord
100
AcDbTextStyleTableRecord
  2
Standard
 70
     0
 40
0.0
 41
1.0
 50
0.0
 71
     0
 42
0.2
  3
txt
  4

  0
STYLE
  5
A1
330
3
100
AcDbSymbolTableRecord
100
AcDbTextStyleTableRecord
  2
Style0
 70
     0
 40
0.0
 41
1.0
 50
0.0
 71
     0
 42
0.2
  3
cour.ttf
  4

1001
ACAD
1000
Courier New
1071
        0
  0
ENDTAB
  0
TABLE
  2
VIEW
  5
6
330
0
100
AcDbSymbolTable
 70
     0
  0
ENDTAB
  0
TABLE
  2
UCS
  5
7
330
0
100
AcDbSymbolTable
 70
     0
  0
ENDTAB
  0
TABLE
  2
APPID
  5
9
330
0
100
AcDbSymbolTable
 70
     3
  0
APPID
  5
12
330
9
100
AcDbSymbolTableRecord
100
AcDbRegAppTableRecord
  2
ACAD
 70
     0
  0
APPID
  5
6E
330
9
100
AcDbSymbolTableRecord
100
AcDbRegAppTableRecord
  2
ARCHLineXP
 70
     0
  0
APPID
  5
223
330
9
100
AcDbSymbolTableRecord
100
AcDbRegAppTableRecord
  2
ACAD_MLEADERVER
 70
     0
  0
ENDTAB
  0
TABLE
  2
DIMSTYLE
  5
A
330
0
100
AcDbSymbolTable
 70
     1
100
AcDbDimStyleTable
  0
DIMSTYLE
105
27
330
A
100
AcDbSymbolTableRecord
100
AcDbDimStyleTableRecord
  2
Standard
 70
     0
178
     0
340
11
  0
ENDTAB
  0
TABLE
  2
BLOCK_RECORD
  5
1
330
0
100
AcDbSymbolTable
 70
     2
  0
BLOCK_RECORD
  5
1F
330
1
100
AcDbSymbolTableRecord
100
AcDbBlockTableRecord
  2
*Model_Space
340
22
  0
BLOCK_RECORD
  5
1B
330
1
100
AcDbSymbolTableRecord
100
AcDbBlockTableRecord
  2
*Paper_Space
340
1E
  0
BLOCK_RECORD
  5
23
330
1
100
AcDbSymbolTableRecord
100
AcDbBlockTableRecord
  2
*Paper_Space0
340
26
  0
BLOCK_RECORD
  5
A3
330
1
100
AcDbSymbolTableRecord
100
AcDbBlockTableRecord
  2
dokument systemaufbauten.asc(id_1)
340
0
102
{BLKREFS
331
1E1
102
}
  0
ENDTAB
  0
ENDSEC
  0
SECTION
  2
BLOCKS
  0
BLOCK
  5
20
330
1F
100
AcDbEntity
  8
0
100
AcDbBlockBegin
  2
*Model_Space
 70
     0
 10
0.0
 20
0.0
 30
0.0
  3
*Model_Space
  1

  0
ENDBLK
  5
21
330
1F
100
AcDbEntity
  8
0
100
AcDbBlockEnd
  0
BLOCK
  5
1C
330
1B
100
AcDbEntity
 67
     1
  8
0
100
AcDbBlockBegin
  2
*Paper_Space
 70
     0
 10
0.0
 20
0.0
 30
0.0
  3
*Paper_Space
  1

  0
ENDBLK
  5
1D
330
1B
100
AcDbEntity
 67
     1
  8
0
100
AcDbBlockEnd
  0
BLOCK
  5
24
330
23
100
AcDbEntity
  8
0
100
AcDbBlockBegin
  2
*Paper_Space0
 70
     0
 10
0.0
 20
0.0
 30
0.0
  3
*Paper_Space0
  1

  0
ENDBLK
  5
25
330
23
100
AcDbEntity
  8
0
100
AcDbBlockEnd
  0
BLOCK
  5
1E2
330
A3
100
AcDbEntity
  8
0
100
AcDbBlockBegin
  2
dokument systemaufbauten.asc(id_1)
 70
     0
 10
0.0
 20
0.0
 30
0.0
  3
dokument systemaufbauten.asc(id_1)
  1

  0
LINE
  5
A4
330
A3
100
AcDbEntity
  8
0 - Systemaufbauten
  6
Continuous
 62
     7
370
     0
100
AcDbLine
 10
670.0828557660188
 20
782.5246107188582
 30
0.0
 11
672.9388576199617
 21
719.6446048823714
 31
0.0
  0
LINE
  5
A5
330
A3
100
AcDbEntity
  8
0 - Systemaufbauten
  6
Continuous
 62
     7
370
     0
100
AcDbLine
 10
647.2108566214611
 20
837.1485769358978
 30
0.0
 11
652.9228567530699
 21
713.860582074295
 31
0.0
  0
LINE
  5
A6
330
A3
100
AcDbEntity
  8
0 - Systemaufbauten
  6
Continuous
 62
     7
370
     0
100
AcDbLine
 10
687.2188597371187
 20
825.3885852900862
 30
0.0
 11
690.0748329808321
 21
765.3646099177708
 31
0.0
  0
LINE
  5
A7
330
A3
100
AcDbEntity
  8
0 - Systemaufbauten
  6
Continuous
 62
     7
370
     0
100
AcDbLine
 10
730.0828557660207
 20
822.5326120463724
 30
0.0
 11
741.5068560292293
 21
597.1486295461277
 31
0.0
  0
LINE
  5
A8
330
A3
100
AcDbEntity
  8
0 - Systemaufbauten
  6
Continuous
 62
     7
370
     0
100
AcDbLine
 10
658.6588555028011
 20
731.0446083155985
 30
0.0
 11
667.2268574883492
 21
625.6606053916335
 31
0.0
  0
LINE
  5
A9
330
A3
100
AcDbEntity
  8
0 - Systemaufbauten
  6
Continuous
 62
     7
370
     0
100
AcDbLine
 10
632.9308562924507
 20
837.1485769358978
 30
0.0
 11
635.7868563582506
 21
805.3005849925394
 31
0.0
  0
LINE
  5
AA
330
A3
100
AcDbEntity
  8
0 - Systemaufbauten
  6
Continuous
 62
     7
370
     0
100
AcDbLine
 10
692.9308562924507
 20
713.932608327043
 30
0.0
 11
701.5228586842622
 21
651.0766064731006
 31
0.0
  0
LINE
  5
AB
330
A3
100
AcDbEntity
  8
0 - Systemaufbauten
  6
Continuous
 62
     7
370
     0
100
AcDbLine
 10
658.6588555028011
 20
613.8766061869983
 30
0.0
 11
661.5148573567512
 21
597.1486295461295
 31
0.0
  0
LINE
  5
AC
330
A3
100
AcDbEntity
  8
0 - Systemaufbauten
  6
Continuous
 62
     7
370
     0
100
AcDbLine
 10
698.6428600003292
 20
753.9405881968864
 30
0.0
 11
712.9468589474691
 21
688.2286059466724
 31
0.0
  0
LINE
  5
AD
330
A3
100
AcDbEntity
  8
0 - Systemaufbauten
  6
Continuous
 62
     7
370
     0
100
AcDbLine
 10
632.9308562924507
 20
656.7406057921762
 30
0.0
 11
640.2028560092094
 21
648.1725823489546
 31
0.0
  0
LINE
  5
AE
330
A3
100
AcDbEntity
  8
0 - Systemaufbauten
  6
Continuous
 62
     7
370
     0
100
AcDbLine
 10
658.6588555028011
 20
613.8766061869983
 30
0.0
 11
667.2268574883492
 21
625.6606053916339
 31
0.0
  0
LINE
  5
AF
330
A3
100
AcDbEntity
  8
0 - Systemaufbauten
  6
Continuous
 62
     7
370
     0
100
AcDbLine
 10
644.3548565556612
 20
696.7246067134251
 30
0.0
 11
652.9228567530699
 21
713.860582074295
 31
0.0
  0
LINE
  5
B0
330
A3
100
AcDbEntity
  8
0 - Systemaufbauten
  6
Continuous
 62
     7
370
     0
100
AcDbLine
 10
701.5228586842622
 20
651.0766064731006
 30
0.0
 11
712.94685894748
 21
688.2286059466724
 31
0.0
  0
LINE
  5
B1
330
A3
100
AcDbEntity
  8
0 - Systemaufbauten
  6
Continuous
 62
     7
370
     0
100
AcDbLine
 10
695.7868581463899
 20
613.9246052113895
 30
0.0
 11
701.5228586842622
 21
651.0766064731006
 31
0.0
  0
LINE
  5
B2
330
A3
100
AcDbEntity
  8
0 - Systemaufbauten
  6
Continuous
 62
     7
370
     0
100
AcDbLine
 10
692.9308562924507
 20
713.932608327043
 30
0.0
 11
698.6428600003292
 21
753.9405881968851
 31
0.0
  0
LINE
  5
B3
330
A3
100
AcDbEntity
  8
0 - Systemaufbauten
  6
Continuous
 62
     7
370
     0
100
AcDbLine
 10
632.9308562924507
 20
597.1486295461277
 30
0.0
 11
640.2028560092094
 21
648.1725823489546
 31
0.0
  0
LINE
  5
B4
330
A3
100
AcDbEntity
  8
0 - Systemaufbauten
  6
Continuous
 62
     7
370
     0
100
AcDbLine
 10
672.9388576199617
 20
673.9246069995284
 30
0.0
 11
675.7948558976314
 21
699.6526062098856
 31
0.0
  0
LINE
  5
B5
330
A3
100
AcDbEntity
  8
0 - Systemaufbauten
  6
Continuous
 62
     7
370
     0
100
AcDbLine
 10
647.2108566214683
 20
597.1486295461295
 30
0.0
 11
652.9228567530699
 21
676.7566048709273
 31
0.0
  0
LINE
  5
B6
330
A3
100
AcDbEntity
  8
0 - Systemaufbauten
  6
Continuous
 62
     7
370
     0
100
AcDbLine
 10
698.6428600003292
 20
753.9405881968851
 30
0.0
 11
704.3788319279702
 21
837.1485769358978
 31
0.0
  0
LINE
  5
B7
330
A3
100
AcDbEntity
  8
0 - Systemaufbauten
  6
Continuous
 62
     7
370
     0
100
AcDbLine
 10
658.6588555028011
 20
731.0446083155985
 30
0.0
 11
661.5148573567512
 21
837.1485769358978
 31
0.0
  0
LINE
  5
B8
330
A3
100
AcDbEntity
  8
0 - Systemaufbauten
  6
Continuous
 62
     7
370
     0
100
AcDbLine
 10
1535.818856303889
 20
825.3406059352269
 30
0.0
 11
1538.674858157841
 21
597.1486295461295
 31
0.0
  0
LINE
  5
B9
330
A3
100
AcDbEntity
  8
0 - Systemaufbauten
  6
Continuous
 62
     7
370
     0
100
AcDbLine
 10
1432.954838817319
 20
837.1485769358978
 30
0.0
 11
1438.666856830319
 21
768.2206117717142
 31
0.0
  0
LINE
  5
BA
330
A3
100
AcDbEntity
  8
0 - Systemaufbauten
  6
Continuous
 62
     7
370
     0
100
AcDbLine
 10
1467.226861064639
 20
782.5246107188573
 30
0.0
 11
1472.962825839721
 21
722.5006067363129
 31
0.0
  0
LINE
  5
BB
330
A3
100
AcDbEntity
  8
0 - Systemaufbauten
  6
Continuous
 62
     7
370
     0
100
AcDbLine
 10
1495.810826366149
 20
665.3566085902571
 30
0.0
 11
1498.666856830319
 21
642.5086044875502
 31
0.0
  0
LINE
  5
BC
330
A3
100
AcDbEntity
  8
0 - Systemaufbauten
  6
Continuous
 62
     7
370
     0
100
AcDbLine
 10
1475.818856303891
 20
799.6606075374002
 30
0.0
 11
1495.810826366149
 21
665.3566085902571
 31
0.0
  0
LINE
  5
BD
330
A3
100
AcDbEntity
  8
0 - Systemaufbauten
  6
Continuous
 62
     7
370
     0
100
AcDbLine
 10
1515.826857631409
 20
716.7885815707559
 30
0.0
 11
1527.25083643695
 21
656.7886066047072
 31
0.0
  0
LINE
  5
BE
330
A3
100
AcDbEntity
  8
0 - Systemaufbauten
  6
Continuous
 62
     7
370
     0
100
AcDbLine
 10
1487.24286371967
 20
631.0605823603987
 30
0.0
 11
1492.954838817319
 21
608.2126059738512
 31
0.0
  0
LINE
  5
BF
330
A3
100
AcDbEntity
  8
0 - Systemaufbauten
  6
Continuous
 62
     7
370
     0
100
AcDbLine
 10
1498.666856830319
 20
739.6606075374007
 30
0.0
 11
1515.826857631409
 21
671.0686051455855
 31
0.0
  0
LINE
  5
C0
330
A3
100
AcDbEntity
  8
0 - Systemaufbauten
  6
Continuous
 62
     7
370
     0
100
AcDbLine
 10
1447.23486239215
 20
736.7566120234846
 30
0.0
 11
1472.962825839721
 21
688.1806051341409
 31
0.0
  0
LINE
  5
C1
330
A3
100
AcDbEntity
  8
0 - Systemaufbauten
  6
Continuous
 62
     7
370
     0
100
AcDbLine
 10
1475.818856303891
 20
799.6606075374002
 30
0.0
 11
1487.24286371967
 21
837.1485769358978
 31
0.0
  0
LINE
  5
C2
330
A3
100
AcDbEntity
  8
0 - Systemaufbauten
  6
Continuous
 62
     7
370
     0
100
AcDbLine
 10
1487.24286371967
 20
631.0605823603987
 30
0.0
 11
1495.810826366149
 21
665.3566085902571
 31
0.0
  0
LINE
  5
C3
330
A3
100
AcDbEntity
  8
0 - Systemaufbauten
  6
Continuous
 62
     7
370
     0
100
AcDbLine
 10
1455.802839343751
 20
597.1486295461295
 30
0.0
 11
1472.962825839721
 21
688.1806051341409
 31
0.0
  0
LINE
  5
C4
330
A3
100
AcDbEntity
  8
0 - Systemaufbauten
  6
Continuous
 62
     7
370
     0
100
AcDbLine
 10
1492.954838817319
 20
608.2126059738512
 30
0.0
 11
1498.666856830319
 21
642.5086044875502
 31
0.0
  0
LINE
  5
C5
330
A3
100
AcDbEntity
  8
0 - Systemaufbauten
  6
Continuous
 62
     7
370
     0
100
AcDbLine
 10
1498.666856830319
 20
739.6606075374007
 30
0.0
 11
1507.234862392148
 21
805.372611245286
 31
0.0
  0
LINE
  5
C6
330
A3
100
AcDbEntity
  8
0 - Systemaufbauten
  6
Continuous
 62
     7
370
     0
100
AcDbLine
 10
1432.954838817319
 20
597.1486295461295
 30
0.0
 11
1444.378860538211
 21
699.6526062098856
 31
0.0
  0
LINE
  5
C7
330
A3
100
AcDbEntity
  8
0 - Systemaufbauten
  6
Continuous
 62
     7
370
     0
100
AcDbLine
 10
1521.538861339292
 20
597.1486295461295
 30
0.0
 11
1527.25083643695
 21
656.7886066047072
 31
0.0
  0
LINE
  5
C8
330
A3
100
AcDbEntity
  8
0 - Systemaufbauten
  6
Continuous
 62
     7
370
     0
100
AcDbLine
 10
1447.23486239215
 20
736.7566120234828
 30
0.0
 11
1452.94683748981
 21
837.1485769358978
 31
0.0
  0
LINE
  5
C9
330
A3
100
AcDbEntity
  8
0 - Systemaufbauten
  6
Continuous
 62
     7
370
     0
100
AcDbLine
 10
1515.826857631409
 20
716.7885815707559
 30
0.0
 11
1521.538861339292
 21
837.1485769358978
 31
0.0
  0
HATCH
  5
CA
330
A3
100
AcDbEntity
  8
0 - Systemaufbauten
  6
Continuous
 62
     7
370
     0
100
AcDbHatch
 10
0.0
 20
0.0
 30
0.0
210
0.0
220
0.0
230
1.0
  2
SOLID
 70
     1
 71
     0
 91
        1
 92
        0
 93
        4
 72
     1
 10
1358.499672013251
 20
881.1486055461282
 11
1318.499672013251
 21
881.1486055461282
 72
     1
 10
1318.499672013251
 20
881.1486055461282
 11
1318.499672013251
 21
882.1486055461287
 72
     1
 10
1318.499672013251
 20
882.1486055461287
 11
1358.499672013251
 21
882.1486055461287
 72
     1
 10
1358.499672013251
 20
882.1486055461287
 11
1358.499672013251
 21
881.1486055461282
 97
        0
 75
     0
 76
     1
 98
        0
  0
HATCH
  5
CB
330
A3
100
AcDbEntity
  8
0 - Systemaufbauten
  6
Continuous
 62
     7
370
     0
100
AcDbHatch
 10
0.0
 20
0.0
 30
0.0
210
0.0
220
0.0
230
1.0
  2
SOLID
 70
     1
 71
     0
 91
        1
 92
        0
 93
        4
 72
     1
 10
1337.999672013249
 20
837.1486055461278
 11
1338.999672013249
 21
837.1486055461278
 72
     1
 10
1338.999672013249
 20
837.1486055461278
 11
1338.999672013249
 21
881.1486055461282
 72
     1
 10
1338.999672013249
 20
881.1486055461282
 11
1337.999672013249
 21
881.1486055461282
 72
     1
 10
1337.999672013249
 20
881.1486055461282
 11
1337.999672013249
 21
837.1486055461278
 97
        0
 75
     0
 76
     1
 98
        0
  0
HATCH
  5
CC
330
A3
100
AcDbEntity
  8
0 - Systemaufbauten
  6
Continuous
 62
    30
370
     0
100
AcDbHatch
 10
0.0
 20
0.0
 30
0.0
210
0.0
220
0.0
230
1.0
  2
SOLID
 70
     1
 71
     0
 91
        1
 92
        0
 93
        6
 72
     1
 10
1358.499672013251
 20
882.1486055461287
 11
1378.499672013249
 21
882.1486055461287
 72
     1
 10
1378.499672013249
 20
882.1486055461287
 11
1378.499672013249
 21
872.1486055461282
 72
     1
 10
1378.499672013249
 20
872.1486055461282
 11
1338.999672013249
 21
872.1486055461282
 72
     1
 10
1338.999672013249
 20
872.1486055461282
 11
1338.999672013249
 21
881.1486055461282
 72
     1
 10
1338.999672013249
 20
881.1486055461282
 11
1358.499672013251
 21
881.1486055461282
 72
     1
 10
1358.499672013251
 20
881.1486055461282
 11
1358.499672013251
 21
882.1486055461287
 97
        0
 75
     0
 76
     1
 98
        0
  0
ARC
  5
CD
330
A3
100
AcDbEntity
  8
0 - Systemaufbauten
  6
Continuous
 62
     7
370
     0
100
AcDbCircle
 10
1090.130856578549
 20
865.481938680779
 30
0.0
 40
3.33333313465118
100
AcDbArc
 50
270.0
 51
329.9999974427235
  0
LINE
  5
CE
330
A3
100
AcDbEntity
  8
0 - Systemaufbauten
  6
Continuous
 62
     7
370
     0
100
AcDbLine
 10
1093.017606680589
 20
863.8152725604878
 30
0.0
 11
1097.244106476499
 21
870.4819386807794
 31
0.0
  0
ARC
  5
CF
330
A3
100
AcDbEntity
  8
0 - Systemaufbauten
  6
Continuous
 62
     7
370
     0
100
AcDbCircle
 10
1100.130856578549
 20
868.8152724114775
 30
0.0
 40
3.33328818123131
100
AcDbArc
 50
30.00044020597538
 51
149.9999952245453
  0
LINE
  5
D0
330
A3
100
AcDbEntity
  8
0 - Systemaufbauten
  6
Continuous
 62
     7
370
     0
100
AcDbLine
 10
1103.017606084539
 20
870.4819386807794
 30
0.0
 11
1107.244107072551
 21
863.8152725604878
 31
0.0
  0
ARC
  5
D1
330
A3
100
AcDbEntity
  8
0 - Systemaufbauten
  6
Continuous
 62
     7
370
     0
100
AcDbCircle
 10
1110.130856578549
 20
865.481938680779
 30
0.0
 40
3.33333146669961
100
AcDbArc
 50
210.0000076799412
 51
270.0
  0
ARC
  5
D2
330
A3
100
AcDbEntity
  8
0 - Systemaufbauten
  6
Continuous
 62
     7
370
     0
100
AcDbCircle
 10
1110.130856578549
 20
865.481938680779
 30
0.0
 40
3.33333313465118
100
AcDbArc
 50
270.0
 51
329.9999974427235
  0
LINE
  5
D3
330
A3
100
AcDbEntity
  8
0 - Systemaufbauten
  6
Continuous
 62
     7
370
     0
100
AcDbLine
 10
1113.017606680591
 20
863.8152725604878
 30
0.0
 11
1117.244106476501
 21
870.4819386807794
 31
0.0
  0
ARC
  5
D4
330
A3
100
AcDbEntity
  8
0 - Systemaufbauten
  6
Continuous
 62
     7
370
     0
100
AcDbCircle
 10
1120.130856578551
 20
868.8152724114775
 30
0.0
 40
3.33328818123131
100
AcDbArc
 50
30.00044020597538
 51
149.9999952245453
  0
LINE
  5
D5
330
A3
100
AcDbEntity
  8
0 - Systemaufbauten
  6
Continuous
 62
     7
370
     0
100
AcDbLine
 10
1123.017606084541
 20
870.4819386807794
 30
0.0
 11
1127.244107072549
 21
863.8152725604878
 31
0.0
  0
ARC
  5
D6
330
A3
100
AcDbEntity
  8
0 - Systemaufbauten
  6
Continuous
 62
     7
370
     0
100
AcDbCircle
 10
1130.130856578551
 20
865.481938680779
 30
0.0
 40
3.33333146669961
100
AcDbArc
 50
210.0000076799412
 51
270.0
  0
ARC
  5
D7
330
A3
100
AcDbEntity
  8
0 - Systemaufbauten
  6
Continuous
 62
     7
370
     0
100
AcDbCircle
 10
1130.130856578551
 20
865.481938680779
 30
0.0
 40
3.33333313465118
100
AcDbArc
 50
270.0
 51
329.9999974427235
  0
LINE
  5
D8
330
A3
100
AcDbEntity
  8
0 - Systemaufbauten
  6
Continuous
 62
     7
370
     0
100
AcDbLine
 10
1133.017606680589
 20
863.8152725604878
 30
0.0
 11
1137.244106476501
 21
870.4819386807794
 31
0.0
  0
ARC
  5
D9
330
A3
100
AcDbEntity
  8
0 - Systemaufbauten
  6
Continuous
 62
     7
370
     0
100
AcDbCircle
 10
1140.130856578538
 20
868.8152724114775
 30
0.0
 40
3.33328818123131
100
AcDbArc
 50
30.00044020597538
 51
149.9999952245453
  0
LINE
  5
DA
330
A3
100
AcDbEntity
  8
0 - Systemaufbauten
  6
Continuous
 62
     7
370
     0
100
AcDbLine
 10
1143.017606084541
 20
870.4819386807794
 30
0.0
 11
1147.244107072551
 21
863.8152725604878
 31
0.0
  0
ARC
  5
DB
330
A3
100
AcDbEntity
  8
0 - Systemaufbauten
  6
Continuous
 62
     7
370
     0
100
AcDbCircle
 10
1150.13085657854
 20
865.481938680779
 30
0.0
 40
3.33333146669961
100
AcDbArc
 50
210.0000076799412
 51
270.0
  0
ARC
  5
DC
330
A3
100
AcDbEntity
  8
0 - Systemaufbauten
  6
Continuous
 62
     7
370
     0
100
AcDbCircle
 10
1150.13085657854
 20
865.481938680779
 30
0.0
 40
3.33333313465118
100
AcDbArc
 50
270.0
 51
329.9999974427235
  0
LINE
  5
DD
330
A3
100
AcDbEntity
  8
0 - Systemaufbauten
  6
Continuous
 62
     7
370
     0
100
AcDbLine
 10
1153.017606680591
 20
863.8152725604878
 30
0.0
 11
1157.244106476499
 21
870.4819386807794
 31
0.0
  0
ARC
  5
DE
330
A3
100
AcDbEntity
  8
0 - Systemaufbauten
  6
Continuous
 62
     7
370
     0
100
AcDbCircle
 10
1160.13085657854
 20
868.8152724114775
 30
0.0
 40
3.33328818123131
100
AcDbArc
 50
30.00044020597538
 51
149.9999952245453
  0
LINE
  5
DF
330
A3
100
AcDbEntity
  8
0 - Systemaufbauten
  6
Continuous
 62
     7
370
     0
100
AcDbLine
 10
1163.017606084539
 20
870.4819386807794
 30
0.0
 11
1167.244107072551
 21
863.8152725604878
 31
0.0
  0
ARC
  5
E0
330
A3
100
AcDbEntity
  8
0 - Systemaufbauten
  6
Continuous
 62
     7
370
     0
100
AcDbCircle
 10
1170.13085657854
 20
865.481938680779
 30
0.0
 40
3.33333146669961
100
AcDbArc
 50
210.0000076799412
 51
270.0
  0
ARC
  5
E1
330
A3
100
AcDbEntity
  8
0 - Systemaufbauten
  6
Continuous
 62
     7
370
     0
100
AcDbCircle
 10
1170.13085657854
 20
865.481938680779
 30
0.0
 40
3.33333313465118
100
AcDbArc
 50
270.0
 51
329.9999974427235
  0
LINE
  5
E2
330
A3
100
AcDbEntity
  8
0 - Systemaufbauten
  6
Continuous
 62
     7
370
     0
100
AcDbLine
 10
1173.017606680591
 20
863.8152725604878
 30
0.0
 11
1177.244106476501
 21
870.4819386807794
 31
0.0
  0
ARC
  5
E3
330
A3
100
AcDbEntity
  8
0 - Systemaufbauten
  6
Continuous
 62
     7
370
     0
100
AcDbCircle
 10
1180.130856578538
 20
868.8152724114775
 30
0.0
 40
3.33328818123131
100
AcDbArc
 50
30.00044020597538
 51
149.9999952245453
  0
LINE
  5
E4
330
A3
100
AcDbEntity
  8
0 - Systemaufbauten
  6
Continuous
 62
     7
370
     0
100
AcDbLine
 10
1183.017606084541
 20
870.4819386807794
 30
0.0
 11
1187.244107072549
 21
863.8152725604878
 31
0.0
  0
ARC
  5
E5
330
A3
100
AcDbEntity
  8
0 - Systemaufbauten
  6
Continuous
 62
     7
370
     0
100
AcDbCircle
 10
1190.130856578538
 20
865.481938680779
 30
0.0
 40
3.33333146669961
100
AcDbArc
 50
210.0000076799412
 51
270.0
  0
ARC
  5
E6
330
A3
100
AcDbEntity
  8
0 - Systemaufbauten
  6
Continuous
 62
     7
370
     0
100
AcDbCircle
 10
1190.130856578538
 20
865.481938680779
 30
0.0
 40
3.33333313465118
100
AcDbArc
 50
270.0
 51
329.9999974427235
  0
LINE
  5
E7
330
A3
100
AcDbEntity
  8
0 - Systemaufbauten
  6
Continuous
 62
     7
370
     0
100
AcDbLine
 10
1193.017606680589
 20
863.8152725604878
 30
0.0
 11
1197.244106476499
 21
870.4819386807794
 31
0.0
  0
ARC
  5
E8
330
A3
100
AcDbEntity
  8
0 - Systemaufbauten
  6
Continuous
 62
     7
370
     0
100
AcDbCircle
 10
1200.13085657854
 20
868.8152724114775
 30
0.0
 40
3.33328818123131
100
AcDbArc
 50
30.00044020597538
 51
149.9999952245453
  0
LINE
  5
E9
330
A3
100
AcDbEntity
  8
0 - Systemaufbauten
  6
Continuous
 62
     7
370
     0
100
AcDbLine
 10
1203.017606084539
 20
870.4819386807794
 30
0.0
 11
1207.24410707254
 21
863.8152725604878
 31
0.0
  0
ARC
  5
EA
330
A3
100
AcDbEntity
  8
0 - Systemaufbauten
  6
Continuous
 62
     7
370
     0
100
AcDbCircle
 10
1210.13085657854
 20
865.481938680779
 30
0.0
 40
3.33333146669961
100
AcDbArc
 50
210.0000076799412
 51
270.0
  0
ARC
  5
EB
330
A3
100
AcDbEntity
  8
0 - Systemaufbauten
  6
Continuous
 62
     7
370
     0
100
AcDbCircle
 10
1210.13085657854
 20
865.481938680779
 30
0.0
 40
3.33333313465118
100
AcDbArc
 50
270.0
 51
329.9999974427235
  0
LINE
  5
EC
330
A3
100
AcDbEntity
  8
0 - Systemaufbauten
  6
Continuous
 62
     7
370
     0
100
AcDbLine
 10
1213.01760668058
 20
863.8152725604878
 30
0.0
 11
1217.244106476501
 21
870.4819386807794
 31
0.0
  0
ARC
  5
ED
330
A3
100
AcDbEntity
  8
0 - Systemaufbauten
  6
Continuous
 62
     7
370
     0
100
AcDbCircle
 10
1220.13085657854
 20
868.8152724114775
 30
0.0
 40
3.33328818123131
100
AcDbArc
 50
30.00044020597538
 51
149.9999952245453
  0
LINE
  5
EE
330
A3
100
AcDbEntity
  8
0 - Systemaufbauten
  6
Continuous
 62
     7
370
     0
100
AcDbLine
 10
1223.017606084541
 20
870.4819386807794
 30
0.0
 11
1227.244107072542
 21
863.8152725604878
 31
0.0
  0
ARC
  5
EF
330
A3
100
AcDbEntity
  8
0 - Systemaufbauten
  6
Continuous
 62
     7
370
     0
100
AcDbCircle
 10
1230.130856578538
 20
865.481938680779
 30
0.0
 40
3.33333146669961
100
AcDbArc
 50
210.0000076799412
 51
270.0
  0
ARC
  5
F0
330
A3
100
AcDbEntity
  8
0 - Systemaufbauten
  6
Continuous
 62
     7
370
     0
100
AcDbCircle
 10
1230.130856578538
 20
865.481938680779
 30
0.0
 40
3.33333313465118
100
AcDbArc
 50
270.0
 51
329.9999974427235
  0
LINE
  5
F1
330
A3
100
AcDbEntity
  8
0 - Systemaufbauten
  6
Continuous
 62
     7
370
     0
100
AcDbLine
 10
1233.017606680582
 20
863.8152725604878
 30
0.0
 11
1237.244106476488
 21
870.4819386807794
 31
0.0
  0
ARC
  5
F2
330
A3
100
AcDbEntity
  8
0 - Systemaufbauten
  6
Continuous
 62
     7
370
     0
100
AcDbCircle
 10
1240.130856578538
 20
868.8152724114775
 30
0.0
 40
3.33328818123131
100
AcDbArc
 50
30.00044020597538
 51
149.9999952245453
  0
LINE
  5
F3
330
A3
100
AcDbEntity
  8
0 - Systemaufbauten
  6
Continuous
 62
     7
370
     0
100
AcDbLine
 10
1243.017606084528
 20
870.4819386807794
 30
0.0
 11
1247.24410707254
 21
863.8152725604878
 31
0.0
  0
ARC
  5
F4
330
A3
100
AcDbEntity
  8
0 - Systemaufbauten
  6
Continuous
 62
     7
370
     0
100
AcDbCircle
 10
1250.13085657854
 20
865.481938680779
 30
0.0
 40
3.33333146669961
100
AcDbArc
 50
210.0000076799412
 51
270.0
  0
ARC
  5
F5
330
A3
100
AcDbEntity
  8
0 - Systemaufbauten
  6
Continuous
 62
     7
370
     0
100
AcDbCircle
 10
1250.13085657854
 20
865.481938680779
 30
0.0
 40
3.33333313465118
100
AcDbArc
 50
270.0
 51
329.9999974427235
  0
LINE
  5
F6
330
A3
100
AcDbEntity
  8
0 - Systemaufbauten
  6
Continuous
 62
     7
370
     0
100
AcDbLine
 10
1253.01760668058
 20
863.8152725604878
 30
0.0
 11
1257.24410647649
 21
870.4819386807794
 31
0.0
  0
ARC
  5
F7
330
A3
100
AcDbEntity
  8
0 - Systemaufbauten
  6
Continuous
 62
     7
370
     0
100
AcDbCircle
 10
1260.13085657854
 20
868.8152724114775
 30
0.0
 40
3.33328818123131
100
AcDbArc
 50
30.00044020597538
 51
149.9999952245453
  0
LINE
  5
F8
330
A3
100
AcDbEntity
  8
0 - Systemaufbauten
  6
Continuous
 62
     7
370
     0
100
AcDbLine
 10
1263.01760608453
 20
870.4819386807794
 30
0.0
 11
1267.244107072538
 21
863.8152725604878
 31
0.0
  0
ARC
  5
F9
330
A3
100
AcDbEntity
  8
0 - Systemaufbauten
  6
Continuous
 62
     7
370
     0
100
AcDbCircle
 10
1270.13085657854
 20
865.481938680779
 30
0.0
 40
3.33333146669961
100
AcDbArc
 50
210.0000076799412
 51
270.0
  0
ARC
  5
FA
330
A3
100
AcDbEntity
  8
0 - Systemaufbauten
  6
Continuous
 62
     7
370
     0
100
AcDbCircle
 10
1270.13085657854
 20
865.481938680779
 30
0.0
 40
3.33333313465118
100
AcDbArc
 50
270.0
 51
329.9999974427235
  0
LINE
  5
FB
330
A3
100
AcDbEntity
  8
0 - Systemaufbauten
  6
Continuous
 62
     7
370
     0
100
AcDbLine
 10
1273.017606680582
 20
863.8152725604878
 30
0.0
 11
1277.24410647649
 21
870.4819386807794
 31
0.0
  0
ARC
  5
FC
330
A3
100
AcDbEntity
  8
0 - Systemaufbauten
  6
Continuous
 62
     7
370
     0
100
AcDbCircle
 10
1280.130856578538
 20
868.8152724114775
 30
0.0
 40
3.33328818123131
100
AcDbArc
 50
30.00044020597538
 51
149.9999952245453
  0
LINE
  5
FD
330
A3
100
AcDbEntity
  8
0 - Systemaufbauten
  6
Continuous
 62
     7
370
     0
100
AcDbLine
 10
1283.01760608453
 20
870.4819386807794
 30
0.0
 11
1287.24410707254
 21
863.8152725604878
 31
0.0
  0
ARC
  5
FE
330
A3
100
AcDbEntity
  8
0 - Systemaufbauten
  6
Continuous
 62
     7
370
     0
100
AcDbCircle
 10
1290.130856578538
 20
865.481938680779
 30
0.0
 40
3.33333146669961
100
AcDbArc
 50
210.0000076799412
 51
270.0
  0
ARC
  5
FF
330
A3
100
AcDbEntity
  8
0 - Systemaufbauten
  6
Continuous
 62
     7
370
     0
100
AcDbCircle
 10
1290.130856578538
 20
865.481938680779
 30
0.0
 40
3.33333313465118
100
AcDbArc
 50
270.0
 51
329.9999974427235
  0
LINE
  5
100
330
A3
100
AcDbEntity
  8
0 - Systemaufbauten
  6
Continuous
 62
     7
370
     0
100
AcDbLine
 10
1293.01760668058
 20
863.8152725604878
 30
0.0
 11
1297.244106476492
 21
870.4819386807794
 31
0.0
  0
ARC
  5
101
330
A3
100
AcDbEntity
  8
0 - Systemaufbauten
  6
Continuous
 62
     7
370
     0
100
AcDbCircle
 10
1300.13085657854
 20
868.8152724114775
 30
0.0
 40
3.33328818123131
100
AcDbArc
 50
30.00044020597538
 51
149.9999952245453
  0
LINE
  5
102
330
A3
100
AcDbEntity
  8
0 - Systemaufbauten
  6
Continuous
 62
     7
370
     0
100
AcDbLine
 10
1303.017606084532
 20
870.4819386807794
 30
0.0
 11
1307.24410707254
 21
863.8152725604878
 31
0.0
  0
ARC
  5
103
330
A3
100
AcDbEntity
  8
0 - Systemaufbauten
  6
Continuous
 62
     7
370
     0
100
AcDbCircle
 10
1310.130856578529
 20
865.481938680779
 30
0.0
 40
3.33333146669961
100
AcDbArc
 50
210.0000076799412
 51
270.0
  0
ARC
  5
104
330
A3
100
AcDbEntity
  8
0 - Systemaufbauten
  6
Continuous
 62
     7
370
     0
100
AcDbCircle
 10
1310.130856578529
 20
865.481938680779
 30
0.0
 40
3.33333313465118
100
AcDbArc
 50
270.0
 51
329.9999974427235
  0
LINE
  5
105
330
A3
100
AcDbEntity
  8
0 - Systemaufbauten
  6
Continuous
 62
     7
370
     0
100
AcDbLine
 10
1313.01760668058
 20
863.8152725604878
 30
0.0
 11
1317.24410647649
 21
870.4819386807794
 31
0.0
  0
ARC
  5
106
330
A3
100
AcDbEntity
  8
0 - Systemaufbauten
  6
Continuous
 62
     7
370
     0
100
AcDbCircle
 10
1320.130856578531
 20
868.8152724114775
 30
0.0
 40
3.33328818123131
100
AcDbArc
 50
30.00044020597538
 51
149.9999952245453
  0
LINE
  5
107
330
A3
100
AcDbEntity
  8
0 - Systemaufbauten
  6
Continuous
 62
     7
370
     0
100
AcDbLine
 10
1323.01760608453
 20
870.4819386807794
 30
0.0
 11
1327.244107072542
 21
863.8152725604878
 31
0.0
  0
ARC
  5
108
330
A3
100
AcDbEntity
  8
0 - Systemaufbauten
  6
Continuous
 62
     7
370
     0
100
AcDbCircle
 10
1330.130856578531
 20
865.481938680779
 30
0.0
 40
3.33333146669961
100
AcDbArc
 50
210.0000076799412
 51
270.0
  0
ARC
  5
109
330
A3
100
AcDbEntity
  8
0 - Systemaufbauten
  6
Continuous
 62
     7
370
     0
100
AcDbCircle
 10
1330.130856578531
 20
865.481938680779
 30
0.0
 40
3.33333313465118
100
AcDbArc
 50
270.0
 51
329.9999974427235
  0
LINE
  5
10A
330
A3
100
AcDbEntity
  8
0 - Systemaufbauten
  6
Continuous
 62
     7
370
     0
100
AcDbLine
 10
1333.017606680582
 20
863.8152725604878
 30
0.0
 11
1337.244106476488
 21
870.4819386807794
 31
0.0
  0
ARC
  5
10B
330
A3
100
AcDbEntity
  8
0 - Systemaufbauten
  6
Continuous
 62
     7
370
     0
100
AcDbCircle
 10
1340.130856578531
 20
868.8152724114775
 30
0.0
 40
3.33328818123131
100
AcDbArc
 50
30.00044020597538
 51
149.9999952245453
  0
LINE
  5
10C
330
A3
100
AcDbEntity
  8
0 - Systemaufbauten
  6
Continuous
 62
     7
370
     0
100
AcDbLine
 10
1343.017606084528
 20
870.4819386807794
 30
0.0
 11
1347.24410707254
 21
863.8152725604878
 31
0.0
  0
ARC
  5
10D
330
A3
100
AcDbEntity
  8
0 - Systemaufbauten
  6
Continuous
 62
     7
370
     0
100
AcDbCircle
 10
1350.130856578529
 20
865.481938680779
 30
0.0
 40
3.33333146669961
100
AcDbArc
 50
210.0000076799412
 51
270.0
  0
ARC
  5
10E
330
A3
100
AcDbEntity
  8
0 - Systemaufbauten
  6
Continuous
 62
     7
370
     0
100
AcDbCircle
 10
1350.130856578529
 20
865.481938680779
 30
0.0
 40
3.33333313465118
100
AcDbArc
 50
270.0
 51
329.9999974427235
  0
LINE
  5
10F
330
A3
100
AcDbEntity
  8
0 - Systemaufbauten
  6
Continuous
 62
     7
370
     0
100
AcDbLine
 10
1353.01760668058
 20
863.8152725604878
 30
0.0
 11
1357.24410647649
 21
870.4819386807794
 31
0.0
  0
ARC
  5
110
330
A3
100
AcDbEntity
  8
0 - Systemaufbauten
  6
Continuous
 62
     7
370
     0
100
AcDbCircle
 10
1360.130856578529
 20
868.8152724114775
 30
0.0
 40
3.33328818123131
100
AcDbArc
 50
30.00044020597538
 51
149.9999952245453
  0
LINE
  5
111
330
A3
100
AcDbEntity
  8
0 - Systemaufbauten
  6
Continuous
 62
     7
370
     0
100
AcDbLine
 10
1363.01760608453
 20
870.4819386807794
 30
0.0
 11
1367.244107072538
 21
863.8152725604878
 31
0.0
  0
ARC
  5
112
330
A3
100
AcDbEntity
  8
0 - Systemaufbauten
  6
Continuous
 62
     7
370
     0
100
AcDbCircle
 10
1370.130856578531
 20
865.481938680779
 30
0.0
 40
3.33333146669961
100
AcDbArc
 50
210.0000076799412
 51
270.0
  0
ARC
  5
113
330
A3
100
AcDbEntity
  8
0 - Systemaufbauten
  6
Continuous
 62
     7
370
     0
100
AcDbCircle
 10
1370.130856578531
 20
865.481938680779
 30
0.0
 40
3.33333313465118
100
AcDbArc
 50
270.0
 51
329.9999974427235
  0
LINE
  5
114
330
A3
100
AcDbEntity
  8
0 - Systemaufbauten
  6
Continuous
 62
     7
370
     0
100
AcDbLine
 10
1373.017606680582
 20
863.8152725604878
 30
0.0
 11
1377.24410647649
 21
870.4819386807794
 31
0.0
  0
ARC
  5
115
330
A3
100
AcDbEntity
  8
0 - Systemaufbauten
  6
Continuous
 62
     7
370
     0
100
AcDbCircle
 10
1380.130856578531
 20
868.8152724114775
 30
0.0
 40
3.33328818123131
100
AcDbArc
 50
30.00044020597538
 51
149.9999952245453
  0
LINE
  5
116
330
A3
100
AcDbEntity
  8
0 - Systemaufbauten
  6
Continuous
 62
     7
370
     0
100
AcDbLine
 10
1383.01760608453
 20
870.4819386807794
 30
0.0
 11
1387.244107072529
 21
863.8152725604878
 31
0.0
  0
ARC
  5
117
330
A3
100
AcDbEntity
  8
0 - Systemaufbauten
  6
Continuous
 62
     7
370
     0
100
AcDbCircle
 10
1390.130856578531
 20
865.481938680779
 30
0.0
 40
3.33333146669961
100
AcDbArc
 50
210.0000076799412
 51
270.0
  0
ARC
  5
118
330
A3
100
AcDbEntity
  8
0 - Systemaufbauten
  6
Continuous
 62
     7
370
     0
100
AcDbCircle
 10
1390.130856578531
 20
865.481938680779
 30
0.0
 40
3.33333313465118
100
AcDbArc
 50
270.0
 51
329.9999974427235
  0
LINE
  5
119
330
A3
100
AcDbEntity
  8
0 - Systemaufbauten
  6
Continuous
 62
     7
370
     0
100
AcDbLine
 10
1393.017606680569
 20
863.8152725604878
 30
0.0
 11
1397.244106476492
 21
870.4819386807794
 31
0.0
  0
ARC
  5
11A
330
A3
100
AcDbEntity
  8
0 - Systemaufbauten
  6
Continuous
 62
     7
370
     0
100
AcDbCircle
 10
1400.130856578529
 20
868.8152724114775
 30
0.0
 40
3.33328818123131
100
AcDbArc
 50
30.00044020597538
 51
149.9999952245453
  0
LINE
  5
11B
330
A3
100
AcDbEntity
  8
0 - Systemaufbauten
  6
Continuous
 62
     7
370
     0
100
AcDbLine
 10
1403.017606084532
 20
870.4819386807794
 30
0.0
 11
1407.244107072531
 21
863.8152725604878
 31
0.0
  0
ARC
  5
11C
330
A3
100
AcDbEntity
  8
0 - Systemaufbauten
  6
Continuous
 62
     7
370
     0
100
AcDbCircle
 10
1410.130856578529
 20
865.481938680779
 30
0.0
 40
3.33333146669961
100
AcDbArc
 50
210.0000076799412
 51
270.0
  0
ARC
  5
11D
330
A3
100
AcDbEntity
  8
0 - Systemaufbauten
  6
Continuous
 62
     7
370
     0
100
AcDbCircle
 10
1410.130856578529
 20
865.481938680779
 30
0.0
 40
3.33333313465118
100
AcDbArc
 50
270.0
 51
329.9999974427235
  0
LINE
  5
11E
330
A3
100
AcDbEntity
  8
0 - Systemaufbauten
  6
Continuous
 62
     7
370
     0
100
AcDbLine
 10
1413.017606680571
 20
863.8152725604878
 30
0.0
 11
1417.244106476479
 21
870.4819386807794
 31
0.0
  0
ARC
  5
11F
330
A3
100
AcDbEntity
  8
0 - Systemaufbauten
  6
Continuous
 62
     7
370
     0
100
AcDbCircle
 10
1420.130856578531
 20
868.8152724114775
 30
0.0
 40
3.33328818123131
100
AcDbArc
 50
30.00044020597538
 51
149.9999952245453
  0
LINE
  5
120
330
A3
100
AcDbEntity
  8
0 - Systemaufbauten
  6
Continuous
 62
     7
370
     0
100
AcDbLine
 10
1423.017606084521
 20
870.4819386807794
 30
0.0
 11
1427.244107072529
 21
863.8152725604878
 31
0.0
  0
ARC
  5
121
330
A3
100
AcDbEntity
  8
0 - Systemaufbauten
  6
Continuous
 62
     7
370
     0
100
AcDbCircle
 10
1430.130856578531
 20
865.481938680779
 30
0.0
 40
3.33333146669961
100
AcDbArc
 50
210.0000076799412
 51
270.0
  0
ARC
  5
122
330
A3
100
AcDbEntity
  8
0 - Systemaufbauten
  6
Continuous
 62
     7
370
     0
100
AcDbCircle
 10
1430.130856578531
 20
865.481938680779
 30
0.0
 40
3.33333313465118
100
AcDbArc
 50
270.0
 51
329.9999974427235
  0
LINE
  5
123
330
A3
100
AcDbEntity
  8
0 - Systemaufbauten
  6
Continuous
 62
     7
370
     0
100
AcDbLine
 10
1433.017606680569
 20
863.8152725604878
 30
0.0
 11
1437.244106476481
 21
870.4819386807794
 31
0.0
  0
ARC
  5
124
330
A3
100
AcDbEntity
  8
0 - Systemaufbauten
  6
Continuous
 62
     7
370
     0
100
AcDbCircle
 10
1440.130856578531
 20
868.8152724114775
 30
0.0
 40
3.33328818123131
100
AcDbArc
 50
30.00044020597538
 51
149.9999952245453
  0
LINE
  5
125
330
A3
100
AcDbEntity
  8
0 - Systemaufbauten
  6
Continuous
 62
     7
370
     0
100
AcDbLine
 10
1443.017606084521
 20
870.4819386807794
 30
0.0
 11
1447.244107072531
 21
863.8152725604878
 31
0.0
  0
ARC
  5
126
330
A3
100
AcDbEntity
  8
0 - Systemaufbauten
  6
Continuous
 62
     7
370
     0
100
AcDbCircle
 10
1450.130856578529
 20
865.481938680779
 30
0.0
 40
3.33333146669961
100
AcDbArc
 50
210.0000076799412
 51
270.0
  0
ARC
  5
127
330
A3
100
AcDbEntity
  8
0 - Systemaufbauten
  6
Continuous
 62
     7
370
     0
100
AcDbCircle
 10
1450.130856578529
 20
865.481938680779
 30
0.0
 40
3.33333313465118
100
AcDbArc
 50
270.0
 51
329.9999974427235
  0
LINE
  5
128
330
A3
100
AcDbEntity
  8
0 - Systemaufbauten
  6
Continuous
 62
     7
370
     0
100
AcDbLine
 10
1453.017606680571
 20
863.8152725604878
 30
0.0
 11
1457.244106476479
 21
870.4819386807794
 31
0.0
  0
ARC
  5
129
330
A3
100
AcDbEntity
  8
0 - Systemaufbauten
  6
Continuous
 62
     7
370
     0
100
AcDbCircle
 10
1460.130856578529
 20
868.8152724114775
 30
0.0
 40
3.33328818123131
100
AcDbArc
 50
30.00044020597538
 51
149.9999952245453
  0
LINE
  5
12A
330
A3
100
AcDbEntity
  8
0 - Systemaufbauten
  6
Continuous
 62
     7
370
     0
100
AcDbLine
 10
1463.017606084519
 20
870.4819386807794
 30
0.0
 11
1467.244107072531
 21
863.8152725604878
 31
0.0
  0
ARC
  5
12B
330
A3
100
AcDbEntity
  8
0 - Systemaufbauten
  6
Continuous
 62
     7
370
     0
100
AcDbCircle
 10
1470.130856578531
 20
865.481938680779
 30
0.0
 40
3.33333146669961
100
AcDbArc
 50
210.0000076799412
 51
270.0
  0
ARC
  5
12C
330
A3
100
AcDbEntity
  8
0 - Systemaufbauten
  6
Continuous
 62
     7
370
     0
100
AcDbCircle
 10
1470.130856578531
 20
865.481938680779
 30
0.0
 40
3.33333313465118
100
AcDbArc
 50
270.0
 51
329.9999974427235
  0
LINE
  5
12D
330
A3
100
AcDbEntity
  8
0 - Systemaufbauten
  6
Continuous
 62
     7
370
     0
100
AcDbLine
 10
1473.017606680571
 20
863.8152725604878
 30
0.0
 11
1477.244106476481
 21
870.4819386807794
 31
0.0
  0
ARC
  5
12E
330
A3
100
AcDbEntity
  8
0 - Systemaufbauten
  6
Continuous
 62
     7
370
     0
100
AcDbCircle
 10
1480.130856578531
 20
868.8152724114775
 30
0.0
 40
3.33328818123131
100
AcDbArc
 50
30.00044020597538
 51
149.9999952245453
  0
LINE
  5
12F
330
A3
100
AcDbEntity
  8
0 - Systemaufbauten
  6
Continuous
 62
     7
370
     0
100
AcDbLine
 10
1483.017606084521
 20
870.4819386807794
 30
0.0
 11
1487.244107072529
 21
863.8152725604878
 31
0.0
  0
ARC
  5
130
330
A3
100
AcDbEntity
  8
0 - Systemaufbauten
  6
Continuous
 62
     7
370
     0
100
AcDbCircle
 10
1490.130856578518
 20
865.481938680779
 30
0.0
 40
3.33333146669961
100
AcDbArc
 50
210.0000076799412
 51
270.0
  0
ARC
  5
131
330
A3
100
AcDbEntity
  8
0 - Systemaufbauten
  6
Continuous
 62
     7
370
     0
100
AcDbCircle
 10
1490.130856578518
 20
865.481938680779
 30
0.0
 40
3.33333313465118
100
AcDbArc
 50
270.0
 51
329.9999974427235
  0
LINE
  5
132
330
A3
100
AcDbEntity
  8
0 - Systemaufbauten
  6
Continuous
 62
     7
370
     0
100
AcDbLine
 10
1493.017606680569
 20
863.8152725604878
 30
0.0
 11
1497.244106476479
 21
870.4819386807794
 31
0.0
  0
ARC
  5
133
330
A3
100
AcDbEntity
  8
0 - Systemaufbauten
  6
Continuous
 62
     7
370
     0
100
AcDbCircle
 10
1500.13085657852
 20
868.8152724114775
 30
0.0
 40
3.33328818123131
100
AcDbArc
 50
30.00044020597538
 51
149.9999952245453
  0
LINE
  5
134
330
A3
100
AcDbEntity
  8
0 - Systemaufbauten
  6
Continuous
 62
     7
370
     0
100
AcDbLine
 10
1503.017606084519
 20
870.4819386807794
 30
0.0
 11
1507.244107072531
 21
863.8152725604878
 31
0.0
  0
ARC
  5
135
330
A3
100
AcDbEntity
  8
0 - Systemaufbauten
  6
Continuous
 62
     7
370
     0
100
AcDbCircle
 10
1510.13085657852
 20
865.481938680779
 30
0.0
 40
3.33333146669961
100
AcDbArc
 50
210.0000076799412
 51
270.0
  0
ARC
  5
136
330
A3
100
AcDbEntity
  8
0 - Systemaufbauten
  6
Continuous
 62
     7
370
     0
100
AcDbCircle
 10
1510.13085657852
 20
865.481938680779
 30
0.0
 40
3.33333313465118
100
AcDbArc
 50
270.0
 51
329.9999974427235
  0
LINE
  5
137
330
A3
100
AcDbEntity
  8
0 - Systemaufbauten
  6
Continuous
 62
     7
370
     0
100
AcDbLine
 10
1513.017606680571
 20
863.8152725604878
 30
0.0
 11
1517.244106476479
 21
870.4819386807794
 31
0.0
  0
ARC
  5
138
330
A3
100
AcDbEntity
  8
0 - Systemaufbauten
  6
Continuous
 62
     7
370
     0
100
AcDbCircle
 10
1520.13085657852
 20
868.8152724114775
 30
0.0
 40
3.33328818123131
100
AcDbArc
 50
30.00044020597538
 51
149.9999952245453
  0
LINE
  5
139
330
A3
100
AcDbEntity
  8
0 - Systemaufbauten
  6
Continuous
 62
     7
370
     0
100
AcDbLine
 10
1523.017606084521
 20
870.4819386807794
 30
0.0
 11
1527.244107072529
 21
863.8152725604878
 31
0.0
  0
ARC
  5
13A
330
A3
100
AcDbEntity
  8
0 - Systemaufbauten
  6
Continuous
 62
     7
370
     0
100
AcDbCircle
 10
1530.13085657852
 20
865.481938680779
 30
0.0
 40
3.33333146669961
100
AcDbArc
 50
210.0000076799412
 51
270.0
  0
ARC
  5
13B
330
A3
100
AcDbEntity
  8
0 - Systemaufbauten
  6
Continuous
 62
     7
370
     0
100
AcDbCircle
 10
1530.13085657852
 20
865.481938680779
 30
0.0
 40
3.33333313465118
100
AcDbArc
 50
270.0
 51
329.9999974427235
  0
LINE
  5
13C
330
A3
100
AcDbEntity
  8
0 - Systemaufbauten
  6
Continuous
 62
     7
370
     0
100
AcDbLine
 10
1533.017606680569
 20
863.8152725604878
 30
0.0
 11
1537.244106476481
 21
870.4819386807794
 31
0.0
  0
ARC
  5
13D
330
A3
100
AcDbEntity
  8
0 - Systemaufbauten
  6
Continuous
 62
     7
370
     0
100
AcDbCircle
 10
1540.130856578518
 20
868.8152724114775
 30
0.0
 40
3.33328818123131
100
AcDbArc
 50
30.00044020597538
 51
149.9999952245453
  0
LINE
  5
13E
330
A3
100
AcDbEntity
  8
0 - Systemaufbauten
  6
Continuous
 62
     7
370
     0
100
AcDbLine
 10
1543.017606084521
 20
870.4819386807794
 30
0.0
 11
1547.244107072531
 21
863.8152725604878
 31
0.0
  0
ARC
  5
13F
330
A3
100
AcDbEntity
  8
0 - Systemaufbauten
  6
Continuous
 62
     7
370
     0
100
AcDbCircle
 10
1550.13085657852
 20
865.481938680779
 30
0.0
 40
3.33333146669961
100
AcDbArc
 50
210.0000076799412
 51
270.0
  0
ARC
  5
140
330
A3
100
AcDbEntity
  8
0 - Systemaufbauten
  6
Continuous
 62
     7
370
     0
100
AcDbCircle
 10
1550.13085657852
 20
865.481938680779
 30
0.0
 40
3.33333313465118
100
AcDbArc
 50
270.0
 51
329.9999974427235
  0
LINE
  5
141
330
A3
100
AcDbEntity
  8
0 - Systemaufbauten
  6
Continuous
 62
     7
370
     0
100
AcDbLine
 10
1553.017606680571
 20
863.8152725604878
 30
0.0
 11
1557.244106476479
 21
870.4819386807794
 31
0.0
  0
ARC
  5
142
330
A3
100
AcDbEntity
  8
0 - Systemaufbauten
  6
Continuous
 62
     7
370
     0
100
AcDbCircle
 10
1560.13085657852
 20
868.8152724114775
 30
0.0
 40
3.33328818123131
100
AcDbArc
 50
30.00044020597538
 51
149.9999952245453
  0
LINE
  5
143
330
A3
100
AcDbEntity
  8
0 - Systemaufbauten
  6
Continuous
 62
     7
370
     0
100
AcDbLine
 10
1563.017606084519
 20
870.4819386807794
 30
0.0
 11
1567.244107072518
 21
863.8152725604878
 31
0.0
  0
ARC
  5
144
330
A3
100
AcDbEntity
  8
0 - Systemaufbauten
  6
Continuous
 62
     7
370
     0
100
AcDbCircle
 10
1570.13085657852
 20
865.481938680779
 30
0.0
 40
3.33333146669961
100
AcDbArc
 50
210.0000076799412
 51
270.0
  0
ARC
  5
145
330
A3
100
AcDbEntity
  8
0 - Systemaufbauten
  6
Continuous
 62
     7
370
     0
100
AcDbCircle
 10
1570.13085657852
 20
865.481938680779
 30
0.0
 40
3.33333313465118
100
AcDbArc
 50
270.0
 51
329.9999974427235
  0
LINE
  5
146
330
A3
100
AcDbEntity
  8
0 - Systemaufbauten
  6
Continuous
 62
     7
370
     0
100
AcDbLine
 10
1573.017606680558
 20
863.8152725604878
 30
0.0
 11
1577.244106476481
 21
870.4819386807794
 31
0.0
  0
ARC
  5
147
330
A3
100
AcDbEntity
  8
0 - Systemaufbauten
  6
Continuous
 62
     7
370
     0
100
AcDbCircle
 10
1580.13085657852
 20
868.8152724114775
 30
0.0
 40
3.33328818123131
100
AcDbArc
 50
30.00044020597538
 51
149.9999952245453
  0
LINE
  5
148
330
A3
100
AcDbEntity
  8
0 - Systemaufbauten
  6
Continuous
 62
     7
370
     0
100
AcDbLine
 10
1583.017606084521
 20
870.4819386807794
 30
0.0
 11
1587.24410707252
 21
863.8152725604878
 31
0.0
  0
ARC
  5
149
330
A3
100
AcDbEntity
  8
0 - Systemaufbauten
  6
Continuous
 62
     7
370
     0
100
AcDbCircle
 10
1590.130856578518
 20
865.481938680779
 30
0.0
 40
3.33333146669961
100
AcDbArc
 50
210.0000076799412
 51
270.0
  0
ARC
  5
14A
330
A3
100
AcDbEntity
  8
0 - Systemaufbauten
  6
Continuous
 62
     7
370
     0
100
AcDbCircle
 10
1590.130856578518
 20
865.481938680779
 30
0.0
 40
3.33333313465118
100
AcDbArc
 50
270.0
 51
329.9999974427235
  0
LINE
  5
14B
330
A3
100
AcDbEntity
  8
0 - Systemaufbauten
  6
Continuous
 62
     7
370
     0
100
AcDbLine
 10
1593.01760668056
 20
863.8152725604878
 30
0.0
 11
1597.244106476472
 21
870.4819386807794
 31
0.0
  0
ARC
  5
14C
330
A3
100
AcDbEntity
  8
0 - Systemaufbauten
  6
Continuous
 62
     7
370
     0
100
AcDbCircle
 10
1600.13085657852
 20
868.8152724114775
 30
0.0
 40
3.33328818123131
100
AcDbArc
 50
30.00044020597538
 51
149.9999952245453
  0
LINE
  5
14D
330
A3
100
AcDbEntity
  8
0 - Systemaufbauten
  6
Continuous
 62
     7
370
     0
100
AcDbLine
 10
1603.017606084511
 20
870.4819386807794
 30
0.0
 11
1607.24410707252
 21
863.8152725604878
 31
0.0
  0
ARC
  5
14E
330
A3
100
AcDbEntity
  8
0 - Systemaufbauten
  6
Continuous
 62
     7
370
     0
100
AcDbCircle
 10
1610.13085657852
 20
865.481938680779
 30
0.0
 40
3.33333146669961
100
AcDbArc
 50
210.0000076799412
 51
270.0
  0
ARC
  5
14F
330
A3
100
AcDbEntity
  8
0 - Systemaufbauten
  6
Continuous
 62
     7
370
     0
100
AcDbCircle
 10
1610.13085657852
 20
865.481938680779
 30
0.0
 40
3.33333313465118
100
AcDbArc
 50
270.0
 51
329.9999974427235
  0
LINE
  5
150
330
A3
100
AcDbEntity
  8
0 - Systemaufbauten
  6
Continuous
 62
     7
370
     0
100
AcDbLine
 10
1613.01760668056
 20
863.8152725604878
 30
0.0
 11
1617.24410647647
 21
870.4819386807794
 31
0.0
  0
ARC
  5
151
330
A3
100
AcDbEntity
  8
0 - Systemaufbauten
  6
Continuous
 62
     7
370
     0
100
AcDbCircle
 10
1620.13085657852
 20
868.8152724114775
 30
0.0
 40
3.33328818123131
100
AcDbArc
 50
30.00044020597538
 51
149.9999952245453
  0
LINE
  5
152
330
A3
100
AcDbEntity
  8
0 - Systemaufbauten
  6
Continuous
 62
     7
370
     0
100
AcDbLine
 10
1623.01760608451
 20
870.4819386807794
 30
0.0
 11
1627.244107072522
 21
863.8152725604878
 31
0.0
  0
ARC
  5
153
330
A3
100
AcDbEntity
  8
0 - Systemaufbauten
  6
Continuous
 62
     7
370
     0
100
AcDbCircle
 10
1630.13085657852
 20
865.481938680779
 30
0.0
 40
3.33333146669961
100
AcDbArc
 50
210.0000076799412
 51
270.0
  0
ARC
  5
154
330
A3
100
AcDbEntity
  8
0 - Systemaufbauten
  6
Continuous
 62
     7
370
     0
100
AcDbCircle
 10
1630.13085657852
 20
865.481938680779
 30
0.0
 40
3.33333313465118
100
AcDbArc
 50
270.0
 51
329.9999974427235
  0
LINE
  5
155
330
A3
100
AcDbEntity
  8
0 - Systemaufbauten
  6
Continuous
 62
     7
370
     0
100
AcDbLine
 10
1633.017606680562
 20
863.8152725604878
 30
0.0
 11
1637.24410647647
 21
870.4819386807794
 31
0.0
  0
ARC
  5
156
330
A3
100
AcDbEntity
  8
0 - Systemaufbauten
  6
Continuous
 62
     7
370
     0
100
AcDbCircle
 10
1640.130856578518
 20
868.8152724114775
 30
0.0
 40
3.33328818123131
100
AcDbArc
 50
30.00044020597538
 51
149.9999952245453
  0
LINE
  5
157
330
A3
100
AcDbEntity
  8
0 - Systemaufbauten
  6
Continuous
 62
     7
370
     0
100
AcDbLine
 10
1643.01760608451
 20
870.4819386807794
 30
0.0
 11
1647.24410707252
 21
863.8152725604878
 31
0.0
  0
ARC
  5
158
330
A3
100
AcDbEntity
  8
0 - Systemaufbauten
  6
Continuous
 62
     7
370
     0
100
AcDbCircle
 10
1650.13085657852
 20
865.481938680779
 30
0.0
 40
3.33333146669961
100
AcDbArc
 50
210.0000076799412
 51
270.0
  0
ARC
  5
159
330
A3
100
AcDbEntity
  8
0 - Systemaufbauten
  6
Continuous
 62
     7
370
     0
100
AcDbCircle
 10
1650.13085657852
 20
865.481938680779
 30
0.0
 40
3.33333313465118
100
AcDbArc
 50
270.0
 51
329.9999974427235
  0
LINE
  5
15A
330
A3
100
AcDbEntity
  8
0 - Systemaufbauten
  6
Continuous
 62
     7
370
     0
100
AcDbLine
 10
1653.01760668056
 20
863.8152725604878
 30
0.0
 11
1657.24410647647
 21
870.4819386807794
 31
0.0
  0
ARC
  5
15B
330
A3
100
AcDbEntity
  8
0 - Systemaufbauten
  6
Continuous
 62
     7
370
     0
100
AcDbCircle
 10
1660.130856578509
 20
868.8152724114775
 30
0.0
 40
3.33328818123131
100
AcDbArc
 50
30.00044020597538
 51
149.9999952245453
  0
LINE
  5
15C
330
A3
100
AcDbEntity
  8
0 - Systemaufbauten
  6
Continuous
 62
     7
370
     0
100
AcDbLine
 10
1663.01760608451
 20
870.4819386807794
 30
0.0
 11
1667.244107072518
 21
863.8152725604878
 31
0.0
  0
ARC
  5
15D
330
A3
100
AcDbEntity
  8
0 - Systemaufbauten
  6
Continuous
 62
     7
370
     0
100
AcDbCircle
 10
1670.130856578509
 20
865.481938680779
 30
0.0
 40
3.33333146669961
100
AcDbArc
 50
210.0000076799412
 51
270.0
  0
ARC
  5
15E
330
A3
100
AcDbEntity
  8
0 - Systemaufbauten
  6
Continuous
 62
     7
370
     0
100
AcDbCircle
 10
1670.130856578509
 20
865.481938680779
 30
0.0
 40
3.33333313465118
100
AcDbArc
 50
270.0
 51
329.9999974427235
  0
LINE
  5
15F
330
A3
100
AcDbEntity
  8
0 - Systemaufbauten
  6
Continuous
 62
     7
370
     0
100
AcDbLine
 10
1673.017606680558
 20
863.8152725604878
 30
0.0
 11
1677.24410647647
 21
870.4819386807794
 31
0.0
  0
ARC
  5
160
330
A3
100
AcDbEntity
  8
0 - Systemaufbauten
  6
Continuous
 62
     7
370
     0
100
AcDbCircle
 10
1680.130856578511
 20
868.8152724114775
 30
0.0
 40
3.33328818123131
100
AcDbArc
 50
30.00044020597538
 51
149.9999952245453
  0
LINE
  5
161
330
A3
100
AcDbEntity
  8
0 - Systemaufbauten
  6
Continuous
 62
     7
370
     0
100
AcDbLine
 10
1683.01760608451
 20
870.4819386807794
 30
0.0
 11
1687.24410707252
 21
863.8152725604878
 31
0.0
  0
ARC
  5
162
330
A3
100
AcDbEntity
  8
0 - Systemaufbauten
  6
Continuous
 62
     7
370
     0
100
AcDbCircle
 10
1690.130856578511
 20
865.481938680779
 30
0.0
 40
3.33333146669961
100
AcDbArc
 50
210.0000076799412
 51
270.0
  0
ARC
  5
163
330
A3
100
AcDbEntity
  8
0 - Systemaufbauten
  6
Continuous
 62
     7
370
     0
100
AcDbCircle
 10
1690.130856578511
 20
865.481938680779
 30
0.0
 40
3.33333313465118
100
AcDbArc
 50
270.0
 51
329.9999974427235
  0
LINE
  5
164
330
A3
100
AcDbEntity
  8
0 - Systemaufbauten
  6
Continuous
 62
     7
370
     0
100
AcDbLine
 10
1693.01760668056
 20
863.8152725604878
 30
0.0
 11
1697.244106476472
 21
870.4819386807794
 31
0.0
  0
ARC
  5
165
330
A3
100
AcDbEntity
  8
0 - Systemaufbauten
  6
Continuous
 62
     7
370
     0
100
AcDbCircle
 10
1700.130856578509
 20
868.8152724114775
 30
0.0
 40
3.33328818123131
100
AcDbArc
 50
30.00044020597538
 51
149.9999952245453
  0
LINE
  5
166
330
A3
100
AcDbEntity
  8
0 - Systemaufbauten
  6
Continuous
 62
     7
370
     0
100
AcDbLine
 10
1703.017606084511
 20
870.4819386807794
 30
0.0
 11
1707.24410707252
 21
863.8152725604878
 31
0.0
  0
ARC
  5
167
330
A3
100
AcDbEntity
  8
0 - Systemaufbauten
  6
Continuous
 62
     7
370
     0
100
AcDbCircle
 10
1710.130856578509
 20
865.481938680779
 30
0.0
 40
3.33333146669961
100
AcDbArc
 50
210.0000076799412
 51
270.0
  0
ARC
  5
168
330
A3
100
AcDbEntity
  8
0 - Systemaufbauten
  6
Continuous
 62
     7
370
     0
100
AcDbCircle
 10
1710.130856578509
 20
865.481938680779
 30
0.0
 40
3.33333313465118
100
AcDbArc
 50
270.0
 51
329.9999974427235
  0
LINE
  5
169
330
A3
100
AcDbEntity
  8
0 - Systemaufbauten
  6
Continuous
 62
     7
370
     0
100
AcDbLine
 10
1713.01760668056
 20
863.8152725604878
 30
0.0
 11
1717.24410647647
 21
870.4819386807794
 31
0.0
  0
ARC
  5
16A
330
A3
100
AcDbEntity
  8
0 - Systemaufbauten
  6
Continuous
 62
     7
370
     0
100
AcDbCircle
 10
1720.130856578509
 20
868.8152724114775
 30
0.0
 40
3.33328818123131
100
AcDbArc
 50
30.00044020597538
 51
149.9999952245453
  0
LINE
  5
16B
330
A3
100
AcDbEntity
  8
0 - Systemaufbauten
  6
Continuous
 62
     7
370
     0
100
AcDbLine
 10
1723.01760608451
 20
870.4819386807794
 30
0.0
 11
1727.244107072522
 21
863.8152725604878
 31
0.0
  0
ARC
  5
16C
330
A3
100
AcDbEntity
  8
0 - Systemaufbauten
  6
Continuous
 62
     7
370
     0
100
AcDbCircle
 10
1730.130856578511
 20
865.481938680779
 30
0.0
 40
3.33333146669961
100
AcDbArc
 50
210.0000076799412
 51
270.0
  0
ARC
  5
16D
330
A3
100
AcDbEntity
  8
0 - Systemaufbauten
  6
Continuous
 62
     7
370
     0
100
AcDbCircle
 10
1730.130856578511
 20
865.481938680779
 30
0.0
 40
3.33333313465118
100
AcDbArc
 50
270.0
 51
329.9999974427235
  0
LINE
  5
16E
330
A3
100
AcDbEntity
  8
0 - Systemaufbauten
  6
Continuous
 62
     7
370
     0
100
AcDbLine
 10
1733.017606680562
 20
863.8152725604878
 30
0.0
 11
1737.24410647647
 21
870.4819386807794
 31
0.0
  0
ARC
  5
16F
330
A3
100
AcDbEntity
  8
0 - Systemaufbauten
  6
Continuous
 62
     7
370
     0
100
AcDbCircle
 10
1740.130856578511
 20
868.8152724114775
 30
0.0
 40
3.33328818123131
100
AcDbArc
 50
30.00044020597538
 51
149.9999952245453
  0
LINE
  5
170
330
A3
100
AcDbEntity
  8
0 - Systemaufbauten
  6
Continuous
 62
     7
370
     0
100
AcDbLine
 10
1743.01760608451
 20
870.4819386807794
 30
0.0
 11
1747.244107072511
 21
863.8152725604878
 31
0.0
  0
ARC
  5
171
330
A3
100
AcDbEntity
  8
0 - Systemaufbauten
  6
Continuous
 62
     7
370
     0
100
AcDbCircle
 10
1750.130856578509
 20
865.481938680779
 30
0.0
 40
3.33333146669961
100
AcDbArc
 50
210.0000076799412
 51
270.0
  0
ARC
  5
172
330
A3
100
AcDbEntity
  8
0 - Systemaufbauten
  6
Continuous
 62
     7
370
     0
100
AcDbCircle
 10
1750.130856578509
 20
865.481938680779
 30
0.0
 40
3.33333313465118
100
AcDbArc
 50
270.0
 51
329.9999974427235
  0
LINE
  5
173
330
A3
100
AcDbEntity
  8
0 - Systemaufbauten
  6
Continuous
 62
     7
370
     0
100
AcDbLine
 10
1753.017606680551
 20
863.8152725604878
 30
0.0
 11
1757.244106476459
 21
870.4819386807794
 31
0.0
  0
ARC
  5
174
330
A3
100
AcDbEntity
  8
0 - Systemaufbauten
  6
Continuous
 62
     7
370
     0
100
AcDbCircle
 10
1760.130856578509
 20
868.8152724114775
 30
0.0
 40
3.33328818123131
100
AcDbArc
 50
30.00044020597538
 51
149.9999952245453
  0
LINE
  5
175
330
A3
100
AcDbEntity
  8
0 - Systemaufbauten
  6
Continuous
 62
     7
370
     0
100
AcDbLine
 10
1763.017606084499
 20
870.4819386807794
 30
0.0
 11
1767.244107072511
 21
863.8152725604878
 31
0.0
  0
ARC
  5
176
330
A3
100
AcDbEntity
  8
0 - Systemaufbauten
  6
Continuous
 62
     7
370
     0
100
AcDbCircle
 10
1770.130856578509
 20
865.481938680779
 30
0.0
 40
3.33333146669961
100
AcDbArc
 50
210.0000076799412
 51
270.0
  0
ARC
  5
177
330
A3
100
AcDbEntity
  8
0 - Systemaufbauten
  6
Continuous
 62
     7
370
     0
100
AcDbCircle
 10
1770.130856578509
 20
865.481938680779
 30
0.0
 40
3.33333313465118
100
AcDbArc
 50
270.0
 51
329.9999974427235
  0
LINE
  5
178
330
A3
100
AcDbEntity
  8
0 - Systemaufbauten
  6
Continuous
 62
     7
370
     0
100
AcDbLine
 10
1773.017606680551
 20
863.8152725604878
 30
0.0
 11
1777.244106476461
 21
870.4819386807794
 31
0.0
  0
ARC
  5
179
330
A3
100
AcDbEntity
  8
0 - Systemaufbauten
  6
Continuous
 62
     7
370
     0
100
AcDbCircle
 10
1780.130856578511
 20
868.8152724114775
 30
0.0
 40
3.33328818123131
100
AcDbArc
 50
30.00044020597538
 51
149.9999952245453
  0
LINE
  5
17A
330
A3
100
AcDbEntity
  8
0 - Systemaufbauten
  6
Continuous
 62
     7
370
     0
100
AcDbLine
 10
1783.017606084501
 20
870.4819386807794
 30
0.0
 11
1787.244107072509
 21
863.8152725604878
 31
0.0
  0
ARC
  5
17B
330
A3
100
AcDbEntity
  8
0 - Systemaufbauten
  6
Continuous
 62
     7
370
     0
100
AcDbCircle
 10
1790.130856578511
 20
865.481938680779
 30
0.0
 40
3.33333146669961
100
AcDbArc
 50
210.0000076799412
 51
270.0
  0
ARC
  5
17C
330
A3
100
AcDbEntity
  8
0 - Systemaufbauten
  6
Continuous
 62
     7
370
     0
100
AcDbCircle
 10
1790.130856578511
 20
865.481938680779
 30
0.0
 40
3.33333313465118
100
AcDbArc
 50
270.0
 51
329.9999974427235
  0
LINE
  5
17D
330
A3
100
AcDbEntity
  8
0 - Systemaufbauten
  6
Continuous
 62
     7
370
     0
100
AcDbLine
 10
1793.017606680549
 20
863.8152725604878
 30
0.0
 11
1797.244106476459
 21
870.4819386807794
 31
0.0
  0
ARC
  5
17E
330
A3
100
AcDbEntity
  8
0 - Systemaufbauten
  6
Continuous
 62
     7
370
     0
100
AcDbCircle
 10
1800.130856578509
 20
868.8152724114775
 30
0.0
 40
3.33328818123131
100
AcDbArc
 50
30.00044020597538
 51
149.9999952245453
  0
LINE
  5
17F
330
A3
100
AcDbEntity
  8
0 - Systemaufbauten
  6
Continuous
 62
     7
370
     0
100
AcDbLine
 10
1803.017606084499
 20
870.4819386807794
 30
0.0
 11
1807.244107072511
 21
863.8152725604878
 31
0.0
  0
ARC
  5
180
330
A3
100
AcDbEntity
  8
0 - Systemaufbauten
  6
Continuous
 62
     7
370
     0
100
AcDbCircle
 10
1810.130856578509
 20
865.481938680779
 30
0.0
 40
3.33333146669961
100
AcDbArc
 50
210.0000076799412
 51
270.0
  0
ARC
  5
181
330
A3
100
AcDbEntity
  8
0 - Systemaufbauten
  6
Continuous
 62
     7
370
     0
100
AcDbCircle
 10
1810.130856578509
 20
865.481938680779
 30
0.0
 40
3.33333313465118
100
AcDbArc
 50
270.0
 51
329.9999974427235
  0
LINE
  5
182
330
A3
100
AcDbEntity
  8
0 - Systemaufbauten
  6
Continuous
 62
     7
370
     0
100
AcDbLine
 10
1813.017606680551
 20
863.8152725604878
 30
0.0
 11
1817.244106476459
 21
870.4819386807794
 31
0.0
  0
ARC
  5
183
330
A3
100
AcDbEntity
  8
0 - Systemaufbauten
  6
Continuous
 62
     7
370
     0
100
AcDbCircle
 10
1820.130856578509
 20
868.8152724114775
 30
0.0
 40
3.33328818123131
100
AcDbArc
 50
30.00044020597538
 51
149.9999952245453
  0
LINE
  5
184
330
A3
100
AcDbEntity
  8
0 - Systemaufbauten
  6
Continuous
 62
     7
370
     0
100
AcDbLine
 10
1823.017606084501
 20
870.4819386807794
 30
0.0
 11
1827.244107072509
 21
863.8152725604878
 31
0.0
  0
ARC
  5
185
330
A3
100
AcDbEntity
  8
0 - Systemaufbauten
  6
Continuous
 62
     7
370
     0
100
AcDbCircle
 10
1830.130856578511
 20
865.481938680779
 30
0.0
 40
3.33333146669961
100
AcDbArc
 50
210.0000076799412
 51
270.0
  0
ARC
  5
186
330
A3
100
AcDbEntity
  8
0 - Systemaufbauten
  6
Continuous
 62
     7
370
     0
100
AcDbCircle
 10
1830.130856578511
 20
865.481938680779
 30
0.0
 40
3.33333313465118
100
AcDbArc
 50
270.0
 51
329.9999974427235
  0
LINE
  5
187
330
A3
100
AcDbEntity
  8
0 - Systemaufbauten
  6
Continuous
 62
     7
370
     0
100
AcDbLine
 10
1833.017606680549
 20
863.8152725604878
 30
0.0
 11
1835.130856578549
 21
867.1486056207054
 31
0.0
  0
HATCH
  5
188
330
A3
100
AcDbEntity
  8
0 - Systemaufbauten
  6
Continuous
 62
    30
370
     0
100
AcDbHatch
 10
0.0
 20
0.0
 30
0.0
210
0.0
220
0.0
230
1.0
  2
SOLID
 70
     1
 71
     0
 91
        1
 92
        0
 93
        6
 72
     1
 10
1337.999672013249
 20
872.1486055461296
 11
1337.999672013249
 21
881.1486055461282
 72
     1
 10
1337.999672013249
 20
881.1486055461282
 11
1318.499672013251
 21
881.1486055461282
 72
     1
 10
1318.499672013251
 20
881.1486055461282
 11
1318.499672013251
 21
882.1486055461287
 72
     1
 10
1318.499672013251
 20
882.1486055461287
 11
1090.130856578549
 21
882.1486055461287
 72
     1
 10
1090.130856578549
 20
882.1486055461287
 11
1090.130856578549
 21
872.1486055461296
 72
     1
 10
1090.130856578549
 20
872.1486055461296
 11
1337.999672013249
 21
872.1486055461296
 97
        0
 75
     0
 76
     1
 98
        0
  0
HATCH
  5
189
330
A3
100
AcDbEntity
  8
0 - Systemaufbauten
  6
Continuous
 62
    30
370
     0
100
AcDbHatch
 10
0.0
 20
0.0
 30
0.0
210
0.0
220
0.0
230
1.0
  2
SOLID
 70
     1
 71
     0
 91
        1
 92
        0
 93
       10
 72
     1
 10
1283.499675782521
 20
892.1486055461282
 11
1283.499675782521
 21
882.1486055461287
 72
     1
 10
1283.499675782521
 20
882.1486055461287
 11
1383.499668243981
 21
882.1486055461287
 72
     2
 10
1383.499672013248
 20
877.1486055461305
 40
4.999999999999714
 50
269.9999568073468
 51
360.0
 73
     0
 72
     2
 10
1393.499672013257
 20
877.1486055461332
 40
5.000000000006366
 50
180.0000000000488
 51
270.0000305416649
 73
     1
 72
     1
 10
1393.49967467852
 20
872.1486055461282
 11
1635.130856578549
 21
872.1486055461296
 72
     1
 10
1635.130856578549
 20
872.1486055461296
 11
1635.130856578549
 21
882.1486055461287
 72
     1
 10
1635.130856578549
 20
882.1486055461287
 11
1403.499674678522
 21
882.1486055461287
 72
     2
 10
1403.499672013249
 20
887.1486055461278
 40
4.999999999999863
 50
89.99996945822679
 51
180.0
 73
     0
 72
     2
 10
1393.499672013248
 20
887.1486055461264
 40
5.000000000002914
 50
0.0000000000162844
 51
90.00004319260431
 73
     1
 72
     1
 10
1393.49966824398
 20
892.1486055461282
 11
1283.499675782521
 21
892.1486055461282
 97
        0
 75
     0
 76
     1
 98
        0
  0
HATCH
  5
18A
330
A3
100
AcDbEntity
  8
0 - Systemaufbauten
  6
Continuous
 62
    30
370
     0
100
AcDbHatch
 10
0.0
 20
0.0
 30
0.0
210
0.0
220
0.0
230
1.0
  2
SOLID
 70
     1
 71
     0
 91
        1
 92
        0
 93
        4
 72
     1
 10
1635.130856578549
 20
882.1486055461287
 11
1835.130856578549
 21
882.1486055461287
 72
     1
 10
1835.130856578549
 20
882.1486055461287
 11
1835.130856578549
 21
872.1486055461296
 72
     1
 10
1835.130856578549
 20
872.1486055461296
 11
1635.130856578549
 21
872.1486055461296
 72
     1
 10
1635.130856578549
 20
872.1486055461296
 11
1635.130856578549
 21
882.1486055461287
 97
        0
 75
     0
 76
     1
 98
        0
  0
HATCH
  5
18B
330
A3
100
AcDbEntity
  8
0 - Systemaufbauten
  6
Continuous
 62
    30
370
     0
100
AcDbHatch
 10
0.0
 20
0.0
 30
0.0
210
0.0
220
0.0
230
1.0
  2
SOLID
 70
     1
 71
     0
 91
        1
 92
        0
 93
        4
 72
     1
 10
335.1308565785494
 20
872.1486055461296
 11
1080.130856578551
 21
872.1486055461296
 72
     1
 10
1080.130856578551
 20
872.1486055461296
 11
1080.130856578551
 21
862.1486055461278
 72
     1
 10
1080.130856578551
 20
862.1486055461278
 11
335.1308565785494
 21
862.1486055461278
 72
     1
 10
335.1308565785494
 20
862.1486055461278
 11
335.1308565785494
 21
872.1486055461296
 97
        0
 75
     0
 76
     1
 98
        0
  0
LWPOLYLINE
  5
18C
330
A3
100
AcDbEntity
  8
0 - Systemaufbauten
  6
Continuous
 62
     7
370
     0
100
AcDbPolyline
 90
        4
 70
     1
 43
0.0
 10
2.614436619718617
 20
1.481514084507126
 10
2972.61443661972
 20
1.481514084507126
 10
2972.61443661972
 20
2101.481514084507
 10
2.614436619718617
 20
2101.481514084507
  0
LWPOLYLINE
  5
18D
330
A3
100
AcDbEntity
  8
0 - Systemaufbauten
  6
Continuous
 62
     7
370
     0
100
AcDbPolyline
 90
        4
 70
     1
 43
0.0
 10
252.6144366197186
 20
2051.481514084507
 10
2922.61443661972
 20
2051.481514084507
 10
2922.61443661972
 20
51.48151408450713
 10
252.6144366197186
 20
51.48151408450713
  0
LWPOLYLINE
  5
18E
330
A3
100
AcDbEntity
  8
0 - Systemaufbauten
  6
Continuous
 62
     7
370
     0
100
AcDbPolyline
 90
        3
 70
     0
 43
0.0
 10
1572.61443661972
 20
51.48151408450713
 10
1572.61443661972
 20
501.4815140845071
 10
2922.61443661972
 20
501.4815140845071
  0
LINE
  5
18F
330
A3
100
AcDbEntity
  8
0 - Systemaufbauten
  6
Continuous
 62
     7
370
     0
100
AcDbLine
 10
1572.61443661972
 20
151.4815140845071
 30
0.0
 11
2922.61443661972
 21
151.4815140845071
 31
0.0
  0
LINE
  5
190
330
A3
100
AcDbEntity
  8
0 - Systemaufbauten
  6
Continuous
 62
     7
370
     0
100
AcDbLine
 10
1572.61443661972
 20
351.4815140845071
 30
0.0
 11
2922.61443661972
 21
351.4815140845071
 31
0.0
  0
LINE
  5
191
330
A3
100
AcDbEntity
  8
0 - Systemaufbauten
  6
Continuous
 62
     7
370
     0
100
AcDbLine
 10
1842.614436619731
 20
151.4815140845071
 30
0.0
 11
1842.614436619731
 21
51.48151408450713
 31
0.0
  0
LINE
  5
192
330
A3
100
AcDbEntity
  8
0 - Systemaufbauten
  6
Continuous
 62
     7
370
     0
100
AcDbLine
 10
2112.61443661972
 20
151.4815140845071
 30
0.0
 11
2112.61443661972
 21
51.48151408450713
 31
0.0
  0
LINE
  5
193
330
A3
100
AcDbEntity
  8
0 - Systemaufbauten
  6
Continuous
 62
     7
370
     0
100
AcDbLine
 10
2382.614436619728
 20
151.4815140845071
 30
0.0
 11
2382.614436619728
 21
51.48151408450713
 31
0.0
  0
LINE
  5
194
330
A3
100
AcDbEntity
  8
0 - Systemaufbauten
  6
Continuous
 62
     7
370
     0
100
AcDbLine
 10
2652.614436619719
 20
151.4815140845071
 30
0.0
 11
2652.614436619719
 21
51.48151408450713
 31
0.0
  0
TEXT
  5
195
330
A3
100
AcDbEntity
  8
0 - Systemaufbauten
  6
Continuous
 62
     7
370
     0
100
AcDbText
 10
1592.614436619731
 20
471.4815140845071
 30
0.0
 40
22.69896125793457
  1
PLANINHALT:
 41
0.8579923483530327
  7
Style0
100
AcDbText
  0
TEXT
  5
196
330
A3
100
AcDbEntity
  8
0 - Systemaufbauten
  6
Continuous
 62
     7
370
     0
100
AcDbText
 10
1592.614436619731
 20
121.4815140845071
 30
0.0
 40
22.69896125793457
  1
MASSSTAB:
 41
0.9111284619623434
  7
Style0
100
AcDbText
  0
TEXT
  5
197
330
A3
100
AcDbEntity
  8
0 - Systemaufbauten
  6
Continuous
 62
     7
370
     0
100
AcDbText
 10
1862.61443661972
 20
121.4815140845071
 30
0.0
 40
22.69896125793457
  1
ERSTELLT:
 41
0.8423641974483923
  7
Style0
100
AcDbText
  0
TEXT
  5
198
330
A3
100
AcDbEntity
  8
0 - Systemaufbauten
  6
Continuous
 62
     7
370
     0
100
AcDbText
 10
2132.614436619728
 20
121.4815140845071
 30
0.0
 40
22.69896125793457
  1
BLATT NR.:
 41
0.8458022923346369
  7
Style0
100
AcDbText
  0
TEXT
  5
199
330
A3
100
AcDbEntity
  8
0 - Systemaufbauten
  6
Continuous
 62
     7
370
     0
100
AcDbText
 10
2402.614436619719
 20
121.4815140845071
 30
0.0
 40
22.69896125793457
  1
DETAIL NR.:
 41
0.8204844463352615
  7
Style0
100
AcDbText
  0
TEXT
  5
19A
330
A3
100
AcDbEntity
  8
0 - Systemaufbauten
  6
Continuous
 62
     7
370
     0
100
AcDbText
 10
2672.61443661973
 20
121.4815140845071
 30
0.0
 40
22.69896125793457
  1
GEZEICHNET:
 41
0.8908118839923805
  7
Style0
100
AcDbText
  0
TEXT
  5
19B
330
A3
100
AcDbEntity
  8
0 - Systemaufbauten
  6
Continuous
 62
     7
370
     0
100
AcDbText
 10
1593.889041250701
 20
325.5759793770694
 30
0.0
 40
9.079585075378418
  1
Die oben dargestellte Detailzeichnung bezieht sich auf eine Regelkonstruktion, d.h. sie ist zu überprüfen,
 41
0.8426884399575822
  7
Style0
100
AcDbText
  0
TEXT
  5
19C
330
A3
100
AcDbEntity
  8
0 - Systemaufbauten
  6
Continuous
 62
     7
370
     0
100
AcDbText
 10
1593.889041250701
 20
306.4029689964473
 30
0.0
 40
9.079585075378418
  1
objektgebunden anzupassen, abzustimmen und gegebenfalls zu ergänzen.
 41
0.9123924215372422
  7
Style0
100
AcDbText
  0
TEXT
  5
19D
330
A3
100
AcDbEntity
  8
0 - Systemaufbauten
  6
Continuous
 62
     7
370
     0
100
AcDbText
 10
1593.889041250701
 20
287.2299586158242
 30
0.0
 40
9.079585075378418
  1
Die empfohlenen Anwendungsbereiche sind auf Grund der Erfahrungen und Normen ausgearbeitet.
 41
0.9124509843910388
  7
Style0
100
AcDbText
  0
TEXT
  5
19E
330
A3
100
AcDbEntity
  8
0 - Systemaufbauten
  6
Continuous
 62
     7
370
     0
100
AcDbText
 10
1593.889041250701
 20
268.0569482352012
 30
0.0
 40
9.079585075378418
  1
Eine Verbindlichkeit kann hieraus nicht abgeleitet werden. Technische Änderungen sind vorbehalten.
 41
0.8551696102436678
  7
Style0
100
AcDbText
  0
TEXT
  5
19F
330
A3
100
AcDbEntity
  8
0 - Systemaufbauten
  6
Continuous
 62
     7
370
     0
100
AcDbText
 10
1593.889041250701
 20
248.8839378545772
 30
0.0
 40
9.079585075378418
  1
Die vorliegende Detailzeichnung verliert bei Erscheinen einer Neuausgabe ihre Gültigkeit.
 41
0.8332855365681433
  7
Style0
100
AcDbText
  0
TEXT
  5
1A0
330
A3
100
AcDbEntity
  8
0 - Systemaufbauten
  6
Continuous
 62
     7
370
     0
100
AcDbText
 10
1593.889041250701
 20
229.710927473956
 30
0.0
 40
9.079585075378418
  1
Jede Haftung von COVERiT bei leichter Fahrlässigkeit sowie für Beratung ohne nachfolgende Warenlieferung
 41
0.8747626777695675
  7
Style0
100
AcDbText
  0
TEXT
  5
1A1
330
A3
100
AcDbEntity
  8
0 - Systemaufbauten
  6
Continuous
 62
     7
370
     0
100
AcDbText
 10
1593.889041250701
 20
210.5379170933334
 30
0.0
 40
9.079585075378418
  1
von COVERiT und gegenüber Dritten (andere als COVERiT-Vertragspartner) ist ausgeschlossen.
 41
0.8853418449037859
  7
Style0
100
AcDbText
  0
TEXT
  5
1A2
330
A3
100
AcDbEntity
  8
0 - Systemaufbauten
  6
Continuous
 62
     7
370
     0
100
AcDbText
 10
1593.889041250701
 20
191.3649067127094
 30
0.0
 40
9.079585075378418
  1
Verkauf und Lieferung von COVERiT erfolgt ausschließlich zu den allgemeinen Liefer-, Zahlungs- und Gewährleistungsbedingungen von COVERiT.
 41
0.7222222222222222
  7
Style0
100
AcDbText
  0
TEXT
  5
1A3
330
A3
100
AcDbEntity
  8
0 - Systemaufbauten
  6
Continuous
 62
     7
370
     0
100
AcDbText
 10
1593.889041250701
 20
172.1918963320873
 30
0.0
 40
9.079585075378418
  1
Es gilt österreichisches Recht (ohne UN Kaufrecht). Gerichtsstand ist Wels.
 41
0.8506157414920329
  7
Style0
100
AcDbText
  0
TEXT
  5
1A4
330
A3
100
AcDbEntity
  8
0 - Systemaufbauten
  6
Continuous
 62
     7
370
     0
100
AcDbText
 10
1592.614436619731
 20
61.48151408450804
 30
0.0
 40
31.7785472869873
  1
1:1
 41
0.6016886835724486
  7
Style0
100
AcDbText
  0
TEXT
  5
1A5
330
A3
100
AcDbEntity
  8
0 - Systemaufbauten
  6
Continuous
 62
     7
370
     0
100
AcDbText
 10
1862.61443661972
 20
61.48151408450804
 30
0.0
 40
31.7785472869873
  1
07/15
 41
0.990207449084411
  7
Style0
100
AcDbText
  0
TEXT
  5
1A6
330
A3
100
AcDbEntity
  8
0 - Systemaufbauten
  6
Continuous
 62
     7
370
     0
100
AcDbText
 10
2132.614436619728
 20
61.48151408450804
 30
0.0
 40
31.7785472869873
  1
15
 41
0.7993863474450573
  7
Style0
100
AcDbText
  0
TEXT
  5
1A7
330
A3
100
AcDbEntity
  8
0 - Systemaufbauten
  6
Continuous
 62
     7
370
     0
100
AcDbText
 10
2402.614436619719
 20
61.48151408450804
 30
0.0
 40
31.7785472869873
  1
15
 41
0.7993863474450573
  7
Style0
100
AcDbText
  0
TEXT
  5
1A8
330
A3
100
AcDbEntity
  8
0 - Systemaufbauten
  6
Continuous
 62
     7
370
     0
100
AcDbText
 10
2672.61443661973
 20
61.48151408450804
 30
0.0
 40
31.7785472869873
  1
TR/AP
 41
0.9695781525146926
  7
Style0
100
AcDbText
  0
LINE
  5
1A9
330
A3
100
AcDbEntity
  8
0 - Systemaufbauten
  6
Continuous
 62
     7
370
     0
100
AcDbLine
 10
2447.416198434961
 20
351.4815140845071
 30
0.0
 11
2447.416198434961
 21
151.4815140845071
 31
0.0
  0
LINE
  5
1AA
330
A3
100
AcDbEntity
  8
0 - Systemaufbauten
  6
Continuous
 62
     7
370
     0
100
AcDbLine
 10
625.1308565785494
 20
837.1486055461278
 30
0.0
 11
625.1308565785494
 21
597.1486055461282
 31
0.0
  0
LINE
  5
1AB
330
A3
100
AcDbEntity
  8
0 - Systemaufbauten
  6
Continuous
 62
     7
370
     0
100
AcDbLine
 10
745.1308565785512
 20
837.1486055461278
 30
0.0
 11
745.1308565785512
 21
597.1486055461282
 31
0.0
  0
LINE
  5
1AC
330
A3
100
AcDbEntity
  8
0 - Systemaufbauten
  6
Continuous
 62
     7
370
     0
100
AcDbLine
 10
1425.130856578549
 20
837.1486055461278
 30
0.0
 11
1425.130856578549
 21
597.1486055461282
 31
0.0
  0
LINE
  5
1AD
330
A3
100
AcDbEntity
  8
0 - Systemaufbauten
  6
Continuous
 62
     7
370
     0
100
AcDbLine
 10
1545.130856578551
 20
837.1486055461278
 30
0.0
 11
1545.130856578551
 21
597.1486055461282
 31
0.0
  0
LWPOLYLINE
  5
1AE
330
A3
100
AcDbEntity
  8
0 - Systemaufbauten
  6
Continuous
 62
     7
370
     0
100
AcDbPolyline
 90
       18
 70
     0
 43
0.0
 10
335.1308565785494
 20
857.1486055461282
 10
392.0767159134593
 20
859.403887103947
 10
432.8885017469402
 20
850.9014317219721
 10
477.6681000920107
 20
856.5697353099554
 10
555.323859247379
 20
852.601922798367
 10
589.9005111340794
 20
858.2702263863498
 10
641.4820737847313
 20
850.9014317219721
 10
690.2294846413806
 20
858.2702263863498
 10
725.9397972456718
 20
858.2702263863498
 10
759.3827884147795
 20
853.1687531571652
 10
810.9643510654205
 20
858.2702263863498
 10
864.2464047924695
 20
855.4360745923591
 10
907.3255120611393
 20
856.0029049511572
 10
952.6719407649998
 20
860.5375478215437
 10
1000.852521262859
 20
855.4360745923591
 10
1037.696494584749
 20
856.0029049511572
 10
1070.57265539505
 20
852.0350924395689
 10
1080.130856578551
 20
853.433853588373
  0
LWPOLYLINE
  5
1AF
330
A3
100
AcDbEntity
  8
0 - Systemaufbauten
  6
Continuous
 62
     7
370
     0
100
AcDbPolyline
 90
       17
 70
     0
 43
0.0
 10
335.1308565785494
 20
844.6287515673225
 10
375.0718051495187
 20
850.3346013631744
 10
419.2845731357902
 20
843.532637057594
 10
487.8710465503809
 20
839.5648245460056
 10
524.1481895134693
 20
847.5004495691824
 10
589.3336807752785
 20
847.5004495691824
 10
627.8781451735613
 20
844.0994674163921
 10
678.3260471066187
 20
846.9336192103842
 10
715.7368507872998
 20
852.0350924395689
 10
775.2540384611293
 20
842.3989763399968
 10
824.5682796765796
 20
846.3667888515861
 10
871.615199456839
 20
845.7999584927879
 10
911.293324572729
 20
842.9658066987963
 10
936.8006907186482
 20
851.4682620807716
 10
998.0183694688712
 20
849.2009406455777
 10
1039.396985661149
 20
845.2331281339907
 10
1080.130856578551
 20
846.2266371807555
  0
LINE
  5
1B0
330
A3
100
AcDbEntity
  8
0 - Systemaufbauten
  6
Continuous
 62
     7
370
     0
100
AcDbLine
 10
1825.130856578549
 20
857.1486055461282
 30
0.0
 11
1835.130856578549
 21
857.1486055461282
 31
0.0
  0
LINE
  5
1B1
330
A3
100
AcDbEntity
  8
0 - Systemaufbauten
  6
Continuous
 62
     7
370
     0
100
AcDbLine
 10
1825.130856578549
 20
844.6287515673225
 30
0.0
 11
1835.130856578549
 21
844.6287515673225
 31
0.0
  0
TEXT
  5
1B2
330
A3
100
AcDbEntity
  8
0 - Systemaufbauten
  6
Continuous
 62
     7
370
     0
100
AcDbText
 10
1592.908525434552
 20
421.7742087704364
 30
0.0
 40
31.7785472869873
  1
Dach ohne Wärmedämmung - Holzkonstruktion
 41
0.7222222222222222
  7
Style0
100
AcDbText
  0
TEXT
  5
1B3
330
A3
100
AcDbEntity
  8
0 - Systemaufbauten
  6
Continuous
 62
     7
370
     0
100
AcDbText
 10
1592.908525434552
 20
367.1686724382566
 30
0.0
 40
31.7785472869873
  1
teilflächig verklebt oder verdeckt mechanisch befestigt
 41
0.7222222222222222
  7
Style0
100
AcDbText
  0
LINE
  5
1B4
330
A3
100
AcDbEntity
  8
0 - Systemaufbauten
  6
Continuous
 62
     7
370
     0
100
AcDbLine
 10
625.1308565785494
 20
597.1486055461282
 30
0.0
 11
745.1308565785512
 21
597.1486055461282
 31
0.0
  0
LINE
  5
1B5
330
A3
100
AcDbEntity
  8
0 - Systemaufbauten
  6
Continuous
 62
     7
370
     0
100
AcDbLine
 10
1425.130856578549
 20
597.1486055461282
 30
0.0
 11
1545.130856578551
 21
597.1486055461282
 31
0.0
  0
LWPOLYLINE
  5
1B6
330
A3
100
AcDbEntity
  8
0 - Systemaufbauten
  6
Continuous
 62
     7
370
     0
100
AcDbPolyline
 90
       17
 70
     0
 43
0.0
 10
1825.130856578549
 20
844.6287515673225
 10
1785.189908007591
 20
850.3346013631744
 10
1740.977140021319
 20
843.532637057594
 10
1672.390666606721
 20
839.5648245460056
 10
1636.113523643629
 20
847.5004495691824
 10
1570.92803238182
 20
847.5004495691824
 10
1532.383567983539
 20
844.0994674163921
 10
1481.935666050491
 20
846.9336192103842
 10
1444.524862369799
 20
852.0350924395689
 10
1385.007674695969
 20
842.3989763399968
 10
1335.693433480519
 20
846.3667888515861
 10
1288.64651370026
 20
845.7999584927879
 10
1248.968388584381
 20
842.9658066987963
 10
1223.461022438451
 20
851.4682620807716
 10
1162.243343688231
 20
849.2009406455777
 10
1120.86472749596
 20
845.2331281339907
 10
1090.130856578549
 20
845.9827347417299
  0
LWPOLYLINE
  5
1B7
330
A3
100
AcDbEntity
  8
0 - Systemaufbauten
  6
Continuous
 62
     7
370
     0
100
AcDbPolyline
 90
       17
 70
     0
 43
0.0
 10
1825.130856578549
 20
857.1486055461282
 10
1768.184997243641
 20
859.403887103947
 10
1727.37321141016
 20
850.9014317219721
 10
1682.59361306509
 20
856.5697353099554
 10
1604.93785390972
 20
852.601922798367
 10
1570.361202023021
 20
858.2702263863498
 10
1518.779639372378
 20
850.9014317219721
 10
1470.032228515718
 20
858.2702263863498
 10
1434.321915911431
 20
858.2702263863498
 10
1400.878924742332
 20
853.1687531571652
 10
1349.29736209168
 20
858.2702263863498
 10
1296.01530836464
 20
855.4360745923591
 10
1252.936201095959
 20
856.0029049511572
 10
1207.589772392099
 20
860.5375478215437
 10
1159.409191894239
 20
855.4360745923591
 10
1122.56521857235
 20
856.0029049511572
 10
1090.130856578549
 20
852.0884129863871
  0
LINE
  5
1B8
330
A3
100
AcDbEntity
  8
0 - Systemaufbauten
  6
Continuous
 62
     7
370
     0
100
AcDbLine
 10
335.1308565785494
 20
862.1486055461278
 30
0.0
 11
1080.130856578551
 21
862.1486055461278
 31
0.0
  0
LINE
  5
1B9
330
A3
100
AcDbEntity
  8
0 - Systemaufbauten
  6
Continuous
 62
     7
370
     0
100
AcDbLine
 10
1090.130856578549
 20
862.1486055461278
 30
0.0
 11
1835.130856578549
 21
862.1486055461278
 31
0.0
  0
LINE
  5
1BA
330
A3
100
AcDbEntity
  8
0 - Systemaufbauten
  6
Continuous
 62
     7
370
     0
100
AcDbLine
 10
335.1308565785494
 20
872.1486055461296
 30
0.0
 11
1080.130856578551
 21
872.1486055461296
 31
0.0
  0
LINE
  5
1BB
330
A3
100
AcDbEntity
  8
0 - Systemaufbauten
  6
Continuous
 62
     7
370
     0
100
AcDbLine
 10
1090.130856578549
 20
872.1486055461296
 30
0.0
 11
1835.130856578549
 21
872.1486055461296
 31
0.0
  0
LINE
  5
1BC
330
A3
100
AcDbEntity
  8
0 - Systemaufbauten
  6
Continuous
 62
     7
370
     0
100
AcDbLine
 10
335.1308565785494
 20
837.1486055461278
 30
0.0
 11
1080.130856578551
 21
837.1486055461278
 31
0.0
  0
LINE
  5
1BD
330
A3
100
AcDbEntity
  8
0 - Systemaufbauten
  6
Continuous
 62
     7
370
     0
100
AcDbLine
 10
1090.130856578549
 20
837.1486055461278
 30
0.0
 11
1835.130856578549
 21
837.1486055461278
 31
0.0
  0
LWPOLYLINE
  5
1BE
330
A3
100
AcDbEntity
  8
0 - Systemaufbauten
  6
Continuous
 62
     7
370
     0
100
AcDbPolyline
 90
        4
 70
     0
 43
0.0
 10
1318.499672013251
 20
882.1486055461287
 10
1318.499672013251
 20
881.1486055461282
 10
1358.499672013251
 20
881.1486055461282
 10
1358.499672013251
 20
882.1486055461287
  0
LINE
  5
1BF
330
A3
100
AcDbEntity
  8
0 - Systemaufbauten
  6
Continuous
 62
     7
370
     0
100
AcDbLine
 10
1378.499672013249
 20
882.1486055461287
 30
0.0
 11
1378.499672013249
 21
872.1486055461282
 31
0.0
  0
LINE
  5
1C0
330
A3
100
AcDbEntity
  8
0 - Systemaufbauten
  6
Continuous
 62
     7
370
     0
100
AcDbLine
 10
1378.499672013249
 20
882.1486055461287
 30
0.0
 11
1383.499668243981
 21
882.1486055461287
 31
0.0
  0
ARC
  5
1C1
330
A3
100
AcDbEntity
  8
0 - Systemaufbauten
  6
Continuous
 62
     7
370
     0
100
AcDbCircle
 10
1383.499672013251
 20
877.1486055461291
 30
0.0
 40
5.00000000000114
100
AcDbArc
 50
0.0
 51
90.00004319265315
  0
ARC
  5
1C2
330
A3
100
AcDbEntity
  8
0 - Systemaufbauten
  6
Continuous
 62
     7
370
     0
100
AcDbCircle
 10
1393.499672013251
 20
877.1486055461291
 30
0.0
 40
5.00000000000114
100
AcDbArc
 50
180.0
 51
270.0000305417929
  0
ARC
  5
1C3
330
A3
100
AcDbEntity
  8
0 - Systemaufbauten
  6
Continuous
 62
     7
370
     0
100
AcDbCircle
 10
1393.499672013251
 20
887.1486055461278
 30
0.0
 40
5.00000000000114
100
AcDbArc
 50
0.0
 51
90.00004319258802
  0
ARC
  5
1C4
330
A3
100
AcDbEntity
  8
0 - Systemaufbauten
  6
Continuous
 62
     7
370
     0
100
AcDbCircle
 10
1403.499672013249
 20
887.1486055461278
 30
0.0
 40
5.00000000000114
100
AcDbArc
 50
180.0
 51
270.0000305417929
  0
LINE
  5
1C5
330
A3
100
AcDbEntity
  8
0 - Systemaufbauten
  6
Continuous
 62
     7
370
     0
100
AcDbLine
 10
1283.499675782521
 20
892.1486055461282
 30
0.0
 11
1283.499675782521
 21
882.1486055461287
 31
0.0
  0
LINE
  5
1C6
330
A3
100
AcDbEntity
  8
0 - Systemaufbauten
  6
Continuous
 62
     7
370
     0
100
AcDbLine
 10
1283.499675782521
 20
892.1486055461282
 30
0.0
 11
1393.49966824398
 21
892.1486055461282
 31
0.0
  0
LINE
  5
1C7
330
A3
100
AcDbEntity
  8
0 - Systemaufbauten
  6
Continuous
 62
     7
370
     0
100
AcDbLine
 10
1338.999672013249
 20
881.1486055461282
 30
0.0
 11
1338.999672013249
 21
837.1486055461278
 31
0.0
  0
LINE
  5
1C8
330
A3
100
AcDbEntity
  8
0 - Systemaufbauten
  6
Continuous
 62
     7
370
     0
100
AcDbLine
 10
1337.999672013249
 20
881.1486055461282
 30
0.0
 11
1337.999672013249
 21
837.1486055461278
 31
0.0
  0
LINE
  5
1C9
330
A3
100
AcDbEntity
  8
0 - Systemaufbauten
  6
Continuous
 62
     7
370
     0
100
AcDbLine
 10
1283.499675782521
 20
882.1486055461287
 30
0.0
 11
1378.499672013249
 21
882.1486055461287
 31
0.0
  0
LINE
  5
1CA
330
A3
100
AcDbEntity
  8
0 - Systemaufbauten
  6
Continuous
 62
     7
370
     0
100
AcDbLine
 10
1283.499675782521
 20
882.1486055461287
 30
0.0
 11
1090.130856578549
 21
882.1486055461287
 31
0.0
  0
LINE
  5
1CB
330
A3
100
AcDbEntity
  8
0 - Systemaufbauten
  6
Continuous
 62
     7
370
     0
100
AcDbLine
 10
1403.499674678522
 20
882.1486055461287
 30
0.0
 11
1835.130856578549
 21
882.1486055461287
 31
0.0
  0
TEXT
  5
1CC
330
A3
100
AcDbEntity
  8
0 - Systemaufbauten
  6
Continuous
 62
     7
370
     0
100
AcDbText
 10
471.4734593713292
 20
1741.138764093912
 30
0.0
 40
31.7785472869873
  1
- Sparren
 41
0.7222222222222222
  7
Style0
100
AcDbText
  0
TEXT
  5
1CD
330
A3
100
AcDbEntity
  8
0 - Systemaufbauten
  6
Continuous
 62
     7
370
     0
100
AcDbText
 10
471.4734593713292
 20
1795.744300426091
 30
0.0
 40
31.7785472869873
  1
- Holzwerkstoffplatte (*2)
 41
0.7222222222222222
  7
Style0
100
AcDbText
  0
TEXT
  5
1CE
330
A3
100
AcDbEntity
  8
0 - Systemaufbauten
  6
Continuous
 62
    30
370
     0
100
AcDbText
 10
471.4734593713292
 20
1850.349836758269
 30
0.0
 40
31.7785472869873
  1
  oder dickvlieskaschiert 1,3 mm
 41
0.7222222222222222
  7
Style0
100
AcDbText
  0
TEXT
  5
1CF
330
A3
100
AcDbEntity
  8
0 - Systemaufbauten
  6
Continuous
 62
     7
370
     0
100
AcDbText
 10
1563.866362027931
 20
1536.53322776173
 30
0.0
 40
31.7785472869873
  1
- Sparren
 41
0.7222222222222222
  7
Style0
100
AcDbText
  0
TEXT
  5
1D0
330
A3
100
AcDbEntity
  8
0 - Systemaufbauten
  6
Continuous
 62
     7
370
     0
100
AcDbText
 10
1563.866362027931
 20
1591.138764093912
 30
0.0
 40
31.7785472869873
  1
- Holzwerkstoffplatte (*2)
 41
0.7222222222222222
  7
Style0
100
AcDbText
  0
TEXT
  5
1D1
330
A3
100
AcDbEntity
  8
0 - Systemaufbauten
  6
Continuous
 62
     7
370
     0
100
AcDbText
 10
1563.866362027931
 20
1645.744300426091
 30
0.0
 40
31.7785472869873
  1
- Brandschutzlage (*1)
 41
0.7222222222222222
  7
Style0
100
AcDbText
  0
TEXT
  5
1D2
330
A3
100
AcDbEntity
  8
0 - Systemaufbauten
  6
Continuous
 62
    30
370
     0
100
AcDbText
 10
1563.866362027931
 20
1700.349836758269
 30
0.0
 40
31.7785472869873
  1
  oder dickvlieskaschiert 1,3 mm
 41
0.7222222222222222
  7
Style0
100
AcDbText
  0
TEXT
  5
1D3
330
A3
100
AcDbEntity
  8
0 - Systemaufbauten
  6
Continuous
 62
    30
370
     0
100
AcDbText
 10
471.4734593713292
 20
1904.277134038004
 30
0.0
 40
31.7785472869873
  1
- COVERiT NOVOtan EPDM Rollenware vlieskaschiert 1,3 mm
 41
0.7222222222222222
  7
Style0
100
AcDbText
  0
TEXT
  5
1D4
330
A3
100
AcDbEntity
  8
0 - Systemaufbauten
  6
Continuous
 62
    30
370
     0
100
AcDbText
 10
1563.866362027931
 20
1754.277134038004
 30
0.0
 40
31.7785472869873
  1
- COVERiT NOVOtan EPDM Rollenware vlieskaschiert 1,3/ 1,5 mm
 41
0.7222222222222222
  7
Style0
100
AcDbText
  0
TEXT
  5
1D5
330
A3
100
AcDbEntity
  8
0 - Systemaufbauten
  6
Continuous
 62
     7
370
     0
100
AcDbText
 10
332.3429722612491
 20
360.4397919147582
 30
0.0
 40
31.7785472869873
  1
(*2) Untergründe aus Holzwerkstoff
 41
0.7222222222222222
  7
Style0
100
AcDbText
  0
TEXT
  5
1D6
330
A3
100
AcDbEntity
  8
0 - Systemaufbauten
  6
Continuous
 62
     7
370
     0
100
AcDbText
 10
332.3429722612491
 20
415.0453282469384
 30
0.0
 40
31.7785472869873
  1
Glasvlies A2 120 g erforderlich
 41
0.7222222222222222
  7
Style0
100
AcDbText
  0
TEXT
  5
1D7
330
A3
100
AcDbEntity
  8
0 - Systemaufbauten
  6
Continuous
 62
     7
370
     0
100
AcDbText
 10
332.3429722612491
 20
469.6508645791182
 30
0.0
 40
31.7785472869873
  1
(*1) Anforderung für Broof(t1),
 41
0.7222222222222222
  7
Style0
100
AcDbText
  0
TEXT
  5
1D8
330
A3
100
AcDbEntity
  8
0 - Systemaufbauten
  6
Continuous
 62
     7
370
     0
100
AcDbText
 10
332.3429722612491
 20
305.928722830321
 30
0.0
 40
31.7785472869873
  1
lt. ÖNORM B 3691 und ÖNORM B 2215
 41
0.7222222222222222
  7
Style0
100
AcDbText
  0
LINE
  5
1D9
330
A3
100
AcDbEntity
  8
0 - Systemaufbauten
  6
Continuous
 62
     7
370
     0
100
AcDbLine
 10
472.9526387567712
 20
1064.596565626824
 30
0.0
 11
472.9526387567712
 21
1917.666201860215
 31
0.0
  0
LINE
  5
1DA
330
A3
100
AcDbEntity
  8
0 - Systemaufbauten
  6
Continuous
 62
     7
370
     0
100
AcDbLine
 10
1080.130856578551
 20
547.1486055461282
 30
0.0
 11
1080.130856578551
 21
1092.358290871096
 31
0.0
  0
LINE
  5
1DB
330
A3
100
AcDbEntity
  8
0 - Systemaufbauten
  6
Continuous
 62
     7
370
     0
100
AcDbLine
 10
1090.130856578549
 20
547.1486055461282
 30
0.0
 11
1090.130856578549
 21
1092.358290871096
 31
0.0
  0
LINE
  5
1DC
330
A3
100
AcDbEntity
  8
0 - Systemaufbauten
  6
Continuous
 62
     7
370
     0
100
AcDbLine
 10
1565.34554141337
 20
1064.596565626824
 30
0.0
 11
1565.34554141337
 21
1767.70446710416
 31
0.0
  0
LINE
  5
1DD
330
A3
100
AcDbEntity
  8
0 - Systemaufbauten
  6
Continuous
 62
     7
370
     0
100
AcDbLine
 10
472.9526387567712
 20
1064.596565626824
 30
0.0
 11
472.9526387567712
 21
547.1486055461282
 31
0.0
  0
LINE
  5
1DE
330
A3
100
AcDbEntity
  8
0 - Systemaufbauten
  6
Continuous
 62
     7
370
     0
100
AcDbLine
 10
1565.34554141337
 20
1064.596565626824
 30
0.0
 11
1565.34554141337
 21
547.1486055461282
 31
0.0
  0
IMAGE
  5
1DF
330
A3
100
AcDbEntity
  8
00_Allgemein - Systemaufbauten
  6
Continuous
 62
     7
370
     0
 92
      140
310
8C00000001000000840000000600000005000000F8B1B4679F34A340D052397F65F865400000000000000000F8B1B44770BFA640D052397F65F865400000000000000000F8B1B44770BFA64068A99CCF357374400000000000000000F8B1B4679F34A34068A99CCF357374400000000000000000F8B1B4679F34A340D05239
310
7F65F865400000000000000000
100
AcDbRasterImage
 90
        0
 10
2458.311338087773
 20
175.7623897666549
 30
0.0
 11
0.2876954054469384
 21
0.0
 31
0.0
 12
0.0
 22
0.2873591037583758
 32
0.0
 13
1576.0
 23
527.0
340
A2
 70
     3
280
     0
281
    50
282
    50
283
     0
360
0
 71
     1
 91
        2
 14
-0.5
 24
-0.5
 14
1575.5
 24
526.5
  0
LINE
  5
1E0
330
A3
100
AcDbEntity
  8
0 - Systemaufbauten
  6
Continuous
 62
     7
370
     0
100
AcDbLine
 10
630.0748566736802
 20
813.9165842143411
 30
0.0
 11
632.9308562924507
 21
656.7406057921776
 31
0.0
  0
ENDBLK
  5
1E3
330
A3
100
AcDbEntity
  8
0
100
AcDbBlockEnd
  0
ENDSEC
  0
SECTION
  2
ENTITIES
  0
IMAGE
  5
9F
330
1F
100
AcDbEntity
  8
00_Allgemein - Systemaufbauten
  6
Continuous
 62
     7
370
     0
 92
      140
310
8C00000001000000840000000600000005000000F8B1B4679F34A340D052397F65F865400000000000000000F8B1B44770BFA640D052397F65F865400000000000000000F8B1B44770BFA64068A99CCF357374400000000000000000F8B1B4679F34A34068A99CCF357374400000000000000000F8B1B4679F34A340D05239
310
7F65F865400000000000000000
100
AcDbRasterImage
 90
        0
 10
2458.311338087773
 20
175.7623897666549
 30
0.0
 11
0.2876954054469384
 21
0.0
 31
0.0
 12
0.0
 22
0.2873591037583758
 32
0.0
 13
1576.0
 23
527.0
340
9E
 70
     3
280
     0
281
    50
282
    50
283
     0
360
A0
 71
     1
 91
        2
 14
-0.5
 24
-0.5
 14
1575.5
 24
526.5
  0
INSERT
  5
1E1
330
1F
100
AcDbEntity
  8
00_Allgemein - Systemaufbauten
  6
Continuous
 62
     7
370
     0
100
AcDbBlockReference
  2
dokument systemaufbauten.asc(id_1)
 10
0.0
 20
0.0
 30
0.0
  0
ENDSEC
  0
SECTION
  2
OBJECTS
  0
DICTIONARY
  5
C
330
0
100
AcDbDictionary
281
     1
  3
ACAD_DETAILVIEWSTYLE
350
229
  3
ACAD_GROUP
350
D
  3
ACAD_IMAGE_DICT
350
9D
  3
ACAD_LAYOUT
350
1A
  3
ACAD_MATERIAL
350
43
  3
ACAD_MLEADERSTYLE
350
6B
  3
ACAD_MLINESTYLE
350
17
  3
ACAD_PLOTSETTINGS
350
19
  3
ACAD_PLOTSTYLENAME
350
E
  3
ACAD_SCALELIST
350
47
  3
ACAD_SECTIONVIEWSTYLE
350
22A
  3
ACAD_TABLESTYLE
350
69
  3
ACAD_VISUALSTYLE
350
2A
  3
ACDB_RECOMPOSE_DATA
350
226
  3
AcDbVariableDictionary
350
1E6
  0
DICTIONARY
  5
1E4
330
8
100
AcDbDictionary
280
     1
281
     1
  3
ACAD_XREC_ROUNDTRIP
360
1E5
  0
IMAGEDEF_REACTOR
  5
A0
330
9F
100
AcDbRasterImageDefReactor
 90
        2
330
9F
  0
DICTIONARY
  5
229
102
{ACAD_REACTORS
330
C
102
}
330
C
100
AcDbDictionary
281
     1
  0
DICTIONARY
  5
D
102
{ACAD_REACTORS
330
C
102
}
330
C
100
AcDbDictionary
281
     1
  0
DICTIONARY
  5
9D
102
{ACAD_REACTORS
330
C
102
}
330
C
100
AcDbDictionary
281
     1
  3
Image0
350
9E
  3
Image1
350
A2
  0
DICTIONARY
  5
1A
102
{ACAD_REACTORS
330
C
102
}
330
C
100
AcDbDictionary
281
     1
  3
Layout1
350
1E
  3
Layout2
350
26
  3
Model
350
22
  0
DICTIONARY
  5
43
102
{ACAD_REACTORS
330
C
102
}
330
C
100
AcDbDictionary
281
     1
  3
ByBlock
350
45
  3
ByLayer
350
44
  3
Global
350
46
  0
DICTIONARY
  5
6B
102
{ACAD_REACTORS
330
C
102
}
330
C
100
AcDbDictionary
281
     1
  3
Standard
350
6C
  0
DICTIONARY
  5
17
102
{ACAD_REACTORS
330
C
102
}
330
C
100
AcDbDictionary
281
     1
  3
Standard
350
18
  0
DICTIONARY
  5
19
102
{ACAD_REACTORS
330
C
102
}
330
C
100
AcDbDictionary
281
     1
  0
ACDBDICTIONARYWDFLT
  5
E
102
{ACAD_REACTORS
330
C
102
}
330
C
100
AcDbDictionary
281
     1
  3
Normal
350
F
100
AcDbDictionaryWithDefault
340
F
  0
DICTIONARY
  5
47
102
{ACAD_REACTORS
330
C
102
}
330
C
100
AcDbDictionary
281
     1
  3
A0
350
48
  3
A1
350
49
  3
A2
350
4A
  3
A3
350
4B
  3
A4
350
4C
  3
A5
350
4D
  3
A6
350
4E
  3
A7
350
4F
  3
A8
350
50
  3
A9
350
51
  3
B0
350
52
  3
B1
350
53
  3
B2
350
54
  3
B3
350
55
  3
B4
350
56
  3
B5
350
57
  3
B6
350
58
  3
B7
350
59
  3
B8
350
5A
  3
B9
350
5B
  3
C0
350
5C
  3
C1
350
5D
  3
C2
350
5E
  3
C3
350
5F
  3
C4
350
60
  3
C5
350
61
  3
C6
350
62
  3
C7
350
63
  3
C8
350
64
  3
C9
350
65
  3
D0
350
66
  3
D1
350
67
  3
D2
350
68
  0
DICTIONARY
  5
22A
102
{ACAD_REACTORS
330
C
102
}
330
C
100
AcDbDictionary
281
     1
  0
DICTIONARY
  5
69
102
{ACAD_REACTORS
330
C
102
}
330
C
100
AcDbDictionary
281
     1
  3
Standard
350
6A
  0
DICTIONARY
  5
2A
102
{ACAD_REACTORS
330
C
102
}
330
C
100
AcDbDictionary
281
     1
  3
2dWireframe
350
2F
  3
Basic
350
32
  3
Brighten
350
36
  3
ColorChange
350
3A
  3
Conceptual
350
34
  3
Dim
350
35
  3
EdgeColorOff
350
3D
  3
Facepattern
350
39
  3
Flat
350
2B
  3
FlatWithEdges
350
2C
  3
Gouraud
350
2D
  3
GouraudWithEdges
350
2E
  3
Hidden
350
31
  3
JitterOff
350
3B
  3
Linepattern
350
38
  3
OverhangOff
350
3C
  3
Realistic
350
33
  3
Shaded
350
42
  3
Shaded with edges
350
41
  3
Shades of Gray
350
3E
  3
Sketchy
350
3F
  3
Thicken
350
37
  3
Wireframe
350
30
  3
X-Ray
350
40
  0
XRECORD
  5
226
102
{ACAD_REACTORS
330
C
102
}
330
C
100
AcDbXrecord
280
     1
 90
        1
330
6A
  0
DICTIONARY
  5
1E6
102
{ACAD_REACTORS
330
C
102
}
330
C
100
AcDbDictionary
281
     1
  3
CANNOSCALE
350
1E7
  3
CMLEADERSTYLE
350
228
  3
CTABLESTYLE
350
227
  3
MSLTSCALE
350
1E8
  3
XCLIPFRAME
350
1E9
  0
XRECORD
  5
1E5
102
{ACAD_REACTORS
330
1E4
102
}
330
1E4
100
AcDbXrecord
280
     1
102
VTR_0.000_0.000_1.000_1.000_VISUALSTYLE
340
2F
102
VTR_0.000_0.000_1.000_1.000_GRIDDISPLAY
 70
     3
102
VTR_0.000_0.000_1.000_1.000_GRIDMAJOR
 70
     5
102
VTR_0.000_0.000_1.000_1.000_DEFAULTLIGHTING
280
     1
102
VTR_0.000_0.000_1.000_1.000_DEFAULTLIGHTINGTYPE
 70
     1
102
VTR_0.000_0.000_1.000_1.000_BRIGHTNESS
141
0.0
102
VTR_0.000_0.000_1.000_1.000_CONTRAST
142
0.0
  0
IMAGEDEF
  5
9E
102
{ACAD_REACTORS
330
9D
330
A0
102
}
330
9D
100
AcDbRasterImageDef
 90
        0
  1
__ID2_Coverit+www.jpg
 10
1576.0
 20
527.0
 11
0.0006345177664974619
 21
0.0006345177664974619
280
     1
281
     1
  0
IMAGEDEF
  5
A2
102
{ACAD_REACTORS
330
9D
102
}
330
9D
100
AcDbRasterImageDef
 90
        0
  1
__ID2_Coverit+www.jpg
 10
1576.0
 20
527.0
 11
0.0006345177664974619
 21
0.0006345177664974619
280
     1
281
     1
  0
LAYOUT
  5
1E
102
{ACAD_REACTORS
330
1A
102
}
330
1A
100
AcDbPlotSettings
  1

  2
none_device
  4

  6

 40
0.0
 41
0.0
 42
0.0
 43
0.0
 44
0.0
 45
0.0
 46
0.0
 47
0.0
 48
0.0
 49
0.0
140
0.0
141
0.0
142
1.0
143
1.0
 70
   688
 72
     0
 73
     0
 74
     5
  7

 75
    16
 76
     0
 77
     2
 78
   300
147
1.0
148
0.0
149
0.0
100
AcDbLayout
  1
Layout1
 70
     1
 71
     1
 10
0.0
 20
0.0
 11
12.0
 21
9.0
 12
0.0
 22
0.0
 32
0.0
 14
1.000000000000000E+20
 24
1.000000000000000E+20
 34
1.000000000000000E+20
 15
-1.000000000000000E+20
 25
-1.000000000000000E+20
 35
-1.000000000000000E+20
146
0.0
 13
0.0
 23
0.0
 33
0.0
 16
1.0
 26
0.0
 36
0.0
 17
0.0
 27
1.0
 37
0.0
 76
     0
330
1B
  0
LAYOUT
  5
26
102
{ACAD_REACTORS
330
1A
102
}
330
1A
100
AcDbPlotSettings
  1

  2
none_device
  4

  6

 40
0.0
 41
0.0
 42
0.0
 43
0.0
 44
0.0
 45
0.0
 46
0.0
 47
0.0
 48
0.0
 49
0.0
140
0.0
141
0.0
142
1.0
143
1.0
 70
   688
 72
     0
 73
     0
 74
     5
  7

 75
    16
 76
     0
 77
     2
 78
   300
147
1.0
148
0.0
149
0.0
100
AcDbLayout
  1
Layout2
 70
     1
 71
     2
 10
0.0
 20
0.0
 11
0.0
 21
0.0
 12
0.0
 22
0.0
 32
0.0
 14
0.0
 24
0.0
 34
0.0
 15
0.0
 25
0.0
 35
0.0
146
0.0
 13
0.0
 23
0.0
 33
0.0
 16
1.0
 26
0.0
 36
0.0
 17
0.0
 27
1.0
 37
0.0
 76
     0
330
23
  0
LAYOUT
  5
22
102
{ACAD_REACTORS
330
1A
102
}
330
1A
100
AcDbPlotSettings
  1

  2
none_device
  4
Letter_(8.50_x_11.00_Inches)
  6

 40
6.35
 41
6.35
 42
6.35000508
 43
6.35000508
 44
215.9
 45
279.4
 46
0.0
 47
0.0
 48
0.0
 49
0.0
140
0.0
141
0.0
142
1.0
143
1.0
 70
  1712
 72
     0
 73
     0
 74
     0
  7

 75
     0
 76
     0
 77
     2
 78
   300
147
1.0
148
0.0
149
0.0
100
AcDbLayout
  1
Model
 70
     1
 71
     0
 10
0.0
 20
0.0
 11
12.0
 21
9.0
 12
0.0
 22
0.0
 32
0.0
 14
2.614436619718617
 24
1.481514084507126
 34
0.0
 15
2972.614436619719
 25
2101.481514084507
 35
0.0
146
0.0
 13
0.0
 23
0.0
 33
0.0
 16
1.0
 26
0.0
 36
0.0
 17
0.0
 27
1.0
 37
0.0
 76
     0
330
1F
331
29
  0
MATERIAL
  5
45
102
{ACAD_REACTORS
330
43
102
}
102
{ACAD_XDICTIONARY
360
21C
102
}
330
43
100
AcDbMaterial
  1
ByBlock
  0
MATERIAL
  5
44
102
{ACAD_REACTORS
330
43
102
}
102
{ACAD_XDICTIONARY
360
21A
102
}
330
43
100
AcDbMaterial
  1
ByLayer
  0
MATERIAL
  5
46
102
{ACAD_REACTORS
330
43
102
}
102
{ACAD_XDICTIONARY
360
21E
102
}
330
43
100
AcDbMaterial
  1
Global
  0
MLEADERSTYLE
  5
6C
102
{ACAD_REACTORS
330
6B
102
}
102
{ACAD_XDICTIONARY
360
224
102
}
330
6B
100
AcDbMLeaderStyle
170
     2
171
     1
172
     0
 90
        2
 40
0.0
 41
0.0
173
     1
 91
-1056964608
340
14
 92
       -2
290
     1
 42
0.09
291
     1
 43
0.36
  3
Standard
341
0
 44
0.18
300

342
11
174
     1
178
     6
175
     1
176
     0
 93
-1056964608
 45
0.18
292
     0
297
     0
 46
0.18
343
0
 94
-1056964608
 47
1.0
 49
1.0
140
1.0
293
     1
141
0.0
294
     1
177
     0
142
1.0
295
     0
296
     0
143
0.125
1001
ACAD_MLEADERVER
1070
     2
  0
MLINESTYLE
  5
18
102
{ACAD_REACTORS
330
17
102
}
330
17
100
AcDbMlineStyle
  2
Standard
 70
     0
  3

 62
   256
 51
90.0
 52
90.0
 71
     2
 49
0.5
 62
   256
  6
BYLAYER
 49
-0.5
 62
   256
  6
BYLAYER
  0
ACDBPLACEHOLDER
  5
F
102
{ACAD_REACTORS
330
E
102
}
330
E
  0
SCALE
  5
48
102
{ACAD_REACTORS
330
47
102
}
330
47
100
AcDbScale
 70
     0
300
1:1
140
1.0
141
1.0
290
     1
  0
SCALE
  5
49
102
{ACAD_REACTORS
330
47
102
}
330
47
100
AcDbScale
 70
     0
300
1:2
140
1.0
141
2.0
290
     0
  0
SCALE
  5
4A
102
{ACAD_REACTORS
330
47
102
}
330
47
100
AcDbScale
 70
     0
300
1:4
140
1.0
141
4.0
290
     0
  0
SCALE
  5
4B
102
{ACAD_REACTORS
330
47
102
}
330
47
100
AcDbScale
 70
     0
300
1:5
140
1.0
141
5.0
290
     0
  0
SCALE
  5
4C
102
{ACAD_REACTORS
330
47
102
}
330
47
100
AcDbScale
 70
     0
300
1:8
140
1.0
141
8.0
290
     0
  0
SCALE
  5
4D
102
{ACAD_REACTORS
330
47
102
}
330
47
100
AcDbScale
 70
     0
300
1:10
140
1.0
141
10.0
290
     0
  0
SCALE
  5
4E
102
{ACAD_REACTORS
330
47
102
}
330
47
100
AcDbScale
 70
     0
300
1:16
140
1.0
141
16.0
290
     0
  0
SCALE
  5
4F
102
{ACAD_REACTORS
330
47
102
}
330
47
100
AcDbScale
 70
     0
300
1:20
140
1.0
141
20.0
290
     0
  0
SCALE
  5
50
102
{ACAD_REACTORS
330
47
102
}
330
47
100
AcDbScale
 70
     0
300
1:30
140
1.0
141
30.0
290
     0
  0
SCALE
  5
51
102
{ACAD_REACTORS
330
47
102
}
330
47
100
AcDbScale
 70
     0
300
1:40
140
1.0
141
40.0
290
     0
  0
SCALE
  5
52
102
{ACAD_REACTORS
330
47
102
}
330
47
100
AcDbScale
 70
     0
300
1:50
140
1.0
141
50.0
290
     0
  0
SCALE
  5
53
102
{ACAD_REACTORS
330
47
102
}
330
47
100
AcDbScale
 70
     0
300
1:100
140
1.0
141
100.0
290
     0
  0
SCALE
  5
54
102
{ACAD_REACTORS
330
47
102
}
330
47
100
AcDbScale
 70
     0
300
2:1
140
2.0
141
1.0
290
     0
  0
SCALE
  5
55
102
{ACAD_REACTORS
330
47
102
}
330
47
100
AcDbScale
 70
     0
300
4:1
140
4.0
141
1.0
290
     0
  0
SCALE
  5
56
102
{ACAD_REACTORS
330
47
102
}
330
47
100
AcDbScale
 70
     0
300
8:1
140
8.0
141
1.0
290
     0
  0
SCALE
  5
57
102
{ACAD_REACTORS
330
47
102
}
330
47
100
AcDbScale
 70
     0
300
10:1
140
10.0
141
1.0
290
     0
  0
SCALE
  5
58
102
{ACAD_REACTORS
330
47
102
}
330
47
100
AcDbScale
 70
     0
300
100:1
140
100.0
141
1.0
290
     0
  0
SCALE
  5
59
102
{ACAD_REACTORS
330
47
102
}
330
47
100
AcDbScale
 70
     0
300
1/128" = 1'-0"
140
0.0078125
141
12.0
290
     0
  0
SCALE
  5
5A
102
{ACAD_REACTORS
330
47
102
}
330
47
100
AcDbScale
 70
     0
300
1/64" = 1'-0"
140
0.015625
141
12.0
290
     0
  0
SCALE
  5
5B
102
{ACAD_REACTORS
330
47
102
}
330
47
100
AcDbScale
 70
     0
300
1/32" = 1'-0"
140
0.03125
141
12.0
290
     0
  0
SCALE
  5
5C
102
{ACAD_REACTORS
330
47
102
}
330
47
100
AcDbScale
 70
     0
300
1/16" = 1'-0"
140
0.0625
141
12.0
290
     0
  0
SCALE
  5
5D
102
{ACAD_REACTORS
330
47
102
}
330
47
100
AcDbScale
 70
     0
300
3/32" = 1'-0"
140
0.09375
141
12.0
290
     0
  0
SCALE
  5
5E
102
{ACAD_REACTORS
330
47
102
}
330
47
100
AcDbScale
 70
     0
300
1/8" = 1'-0"
140
0.125
141
12.0
290
     0
  0
SCALE
  5
5F
102
{ACAD_REACTORS
330
47
102
}
330
47
100
AcDbScale
 70
     0
300
3/16" = 1'-0"
140
0.1875
141
12.0
290
     0
  0
SCALE
  5
60
102
{ACAD_REACTORS
330
47
102
}
330
47
100
AcDbScale
 70
     0
300
1/4" = 1'-0"
140
0.25
141
12.0
290
     0
  0
SCALE
  5
61
102
{ACAD_REACTORS
330
47
102
}
330
47
100
AcDbScale
 70
     0
300
3/8" = 1'-0"
140
0.375
141
12.0
290
     0
  0
SCALE
  5
62
102
{ACAD_REACTORS
330
47
102
}
330
47
100
AcDbScale
 70
     0
300
1/2" = 1'-0"
140
0.5
141
12.0
290
     0
  0
SCALE
  5
63
102
{ACAD_REACTORS
330
47
102
}
330
47
100
AcDbScale
 70
     0
300
3/4" = 1'-0"
140
0.75
141
12.0
290
     0
  0
SCALE
  5
64
102
{ACAD_REACTORS
330
47
102
}
330
47
100
AcDbScale
 70
     0
300
1" = 1'-0"
140
1.0
141
12.0
290
     0
  0
SCALE
  5
65
102
{ACAD_REACTORS
330
47
102
}
330
47
100
AcDbScale
 70
     0
300
1-1/2" = 1'-0"
140
1.5
141
12.0
290
     0
  0
SCALE
  5
66
102
{ACAD_REACTORS
330
47
102
}
330
47
100
AcDbScale
 70
     0
300
3" = 1'-0"
140
3.0
141
12.0
290
     0
  0
SCALE
  5
67
102
{ACAD_REACTORS
330
47
102
}
330
47
100
AcDbScale
 70
     0
300
6" = 1'-0"
140
6.0
141
12.0
290
     0
  0
SCALE
  5
68
102
{ACAD_REACTORS
330
47
102
}
330
47
100
AcDbScale
 70
     0
300
1'-0" = 1'-0"
140
12.0
141
12.0
290
     0
  0
TABLESTYLE
  5
6A
102
{ACAD_REACTORS
330
69
102
}
102
{ACAD_XDICTIONARY
360
220
102
}
330
69
100
AcDbTableStyle
  3
Standard
 70
     0
 71
     0
 40
0.06
 41
0.06
280
     0
281
     0
  7
Standard
140
0.18
170
     2
 62
     0
 63
   257
283
     0
274
    -2
284
     1
 64
     0
275
    -2
285
     1
 65
     0
276
    -2
286
     1
 66
     0
277
    -2
287
     1
 67
     0
278
    -2
288
     1
 68
     0
279
    -2
289
     1
 69
     0
  7
Standard
140
0.25
170
     5
 62
     0
 63
   257
283
     0
274
    -2
284
     1
 64
     0
275
    -2
285
     1
 65
     0
276
    -2
286
     1
 66
     0
277
    -2
287
     1
 67
     0
278
    -2
288
     1
 68
     0
279
    -2
289
     1
 69
     0
  7
Standard
140
0.18
170
     5
 62
     0
 63
   257
283
     0
274
    -2
284
     1
 64
     0
275
    -2
285
     1
 65
     0
276
    -2
286
     1
 66
     0
277
    -2
287
     1
 67
     0
278
    -2
288
     1
 68
     0
279
    -2
289
     1
 69
     0
  0
VISUALSTYLE
  5
2F
102
{ACAD_REACTORS
330
2A
102
}
102
{ACAD_XDICTIONARY
360
1F2
102
}
330
2A
100
AcDbVisualStyle
  2
2dWireframe
 70
     4
 71
     0
 72
     2
 73
     0
 90
        0
 40
0.6
 41
30.0
 62
     5
 63
     7
421
 16777215
 74
     1
 91
        4
 64
     7
 65
   257
 75
     1
175
     1
 42
1.0
 92
        0
 66
   257
 43
1.0
 76
     1
 77
     6
 78
     2
 67
     7
 79
     5
170
     0
171
     0
290
     0
174
     0
 93
        1
 44
0.0
173
     0
291
     0
 45
0.0
1001
ACAD
1000
AcDbSavedByObjectVersion
1070
     0
  0
VISUALSTYLE
  5
32
102
{ACAD_REACTORS
330
2A
102
}
102
{ACAD_XDICTIONARY
360
1F8
102
}
330
2A
100
AcDbVisualStyle
  2
Basic
 70
     7
 71
     1
 72
     0
 73
     1
 90
        0
 40
0.6
 41
30.0
 62
     5
 63
     7
421
 16777215
 74
     0
 91
        4
 64
     7
 65
   257
 75
     1
175
     1
 42
1.0
 92
        8
 66
     7
 43
1.0
 76
     1
 77
     6
 78
     2
 67
     7
 79
     5
170
     0
171
     0
290
     0
174
     0
 93
        1
 44
0.0
173
     0
291
     1
 45
0.0
1001
ACAD
1000
AcDbSavedByObjectVersion
1070
     0
  0
VISUALSTYLE
  5
36
102
{ACAD_REACTORS
330
2A
102
}
102
{ACAD_XDICTIONARY
360
200
102
}
330
2A
100
AcDbVisualStyle
  2
Brighten
 70
    12
 71
     2
 72
     2
 73
     0
 90
        0
 40
0.6
 41
30.0
 62
     5
 63
     7
421
 16777215
 74
     1
 91
        4
 64
     7
 65
   257
 75
     1
175
     1
 42
1.0
 92
        8
 66
     7
 43
1.0
 76
     1
 77
     6
 78
     2
 67
     7
 79
     5
170
     0
171
     0
290
     0
174
     0
 93
        1
 44
50.0
173
     0
291
     1
 45
0.0
1001
ACAD
1000
AcDbSavedByObjectVersion
1070
     0
  0
VISUALSTYLE
  5
3A
102
{ACAD_REACTORS
330
2A
102
}
102
{ACAD_XDICTIONARY
360
208
102
}
330
2A
100
AcDbVisualStyle
  2
ColorChange
 70
    16
 71
     2
 72
     2
 73
     3
 90
        0
 40
0.6
 41
30.0
 62
     5
 63
     8
421
  8421504
 74
     1
 91
        4
 64
     7
 65
   257
 75
     1
175
     1
 42
1.0
 92
        8
 66
     8
424
  8421504
 43
1.0
 76
     1
 77
     6
 78
     2
 67
     7
 79
     5
170
     0
171
     0
290
     0
174
     0
 93
        1
 44
0.0
173
     0
291
     1
 45
0.0
1001
ACAD
1000
AcDbSavedByObjectVersion
1070
     0
  0
VISUALSTYLE
  5
34
102
{ACAD_REACTORS
330
2A
102
}
102
{ACAD_XDICTIONARY
360
1FC
102
}
330
2A
100
AcDbVisualStyle
  2
Conceptual
 70
     9
 71
     3
 72
     2
 73
     0
 90
        0
 40
0.6
 41
30.0
 62
     5
 63
     7
421
 16777215
 74
     2
 91
        2
 64
     7
 65
   257
 75
     1
175
     1
 42
179.0
 92
        8
 66
     7
 43
1.0
 76
     1
 77
     6
 78
     2
 67
     7
 79
     3
170
     0
171
     0
290
     0
174
     0
 93
        1
 44
0.0
173
     0
291
     0
 45
0.0
1001
ACAD
1000
AcDbSavedByObjectVersion
1070
     0
  0
VISUALSTYLE
  5
35
102
{ACAD_REACTORS
330
2A
102
}
102
{ACAD_XDICTIONARY
360
1FE
102
}
330
2A
100
AcDbVisualStyle
  2
Dim
 70
    11
 71
     2
 72
     2
 73
     0
 90
        0
 40
0.6
 41
30.0
 62
     5
 63
     7
421
 16777215
 74
     1
 91
        4
 64
     7
 65
   257
 75
     1
175
     1
 42
1.0
 92
        8
 66
     7
 43
1.0
 76
     1
 77
     6
 78
     2
 67
     7
 79
     5
170
     0
171
     0
290
     0
174
     0
 93
        1
 44
-50.0
173
     0
291
     1
 45
0.0
1001
ACAD
1000
AcDbSavedByObjectVersion
1070
     0
  0
VISUALSTYLE
  5
3D
102
{ACAD_REACTORS
330
2A
102
}
102
{ACAD_XDICTIONARY
360
20E
102
}
330
2A
100
AcDbVisualStyle
  2
EdgeColorOff
 70
    22
 71
     2
 72
     2
 73
     0
 90
        0
 40
0.6
 41
30.0
 62
     5
 63
     7
421
 16777215
 74
     1
 91
        4
 64
     7
 65
   257
 75
     1
175
     1
 42
1.0
 92
        8
 66
     7
 43
1.0
 76
     1
 77
     6
 78
     2
 67
     7
 79
     5
170
     0
171
     0
290
     0
174
     0
 93
        1
 44
0.0
173
     0
291
     1
 45
0.0
1001
ACAD
1000
AcDbSavedByObjectVersion
1070
     0
  0
VISUALSTYLE
  5
39
102
{ACAD_REACTORS
330
2A
102
}
102
{ACAD_XDICTIONARY
360
206
102
}
330
2A
100
AcDbVisualStyle
  2
Facepattern
 70
    15
 71
     2
 72
     2
 73
     0
 90
        0
 40
0.6
 41
30.0
 62
     5
 63
     7
421
 16777215
 74
     1
 91
        4
 64
     7
 65
   257
 75
     1
175
     1
 42
1.0
 92
        8
 66
     7
 43
1.0
 76
     1
 77
     6
 78
     2
 67
     7
 79
     5
170
     0
171
     0
290
     0
174
     0
 93
        1
 44
0.0
173
     0
291
     1
 45
0.0
1001
ACAD
1000
AcDbSavedByObjectVersion
1070
     0
  0
VISUALSTYLE
  5
2B
102
{ACAD_REACTORS
330
2A
102
}
102
{ACAD_XDICTIONARY
360
1EA
102
}
330
2A
100
AcDbVisualStyle
  2
Flat
 70
     0
 71
     2
 72
     1
 73
     1
 90
        2
 40
0.6
 41
30.0
 62
     5
 63
     7
421
 16777215
 74
     0
 91
        0
 64
     7
 65
   257
 75
     1
175
     1
 42
1.0
 92
        8
 66
     7
 43
1.0
 76
     1
 77
     6
 78
     2
 67
     7
 79
     5
170
     0
171
     0
290
     0
174
     0
 93
       13
 44
0.0
173
     0
291
     1
 45
0.0
1001
ACAD
1000
AcDbSavedByObjectVersion
1070
     0
  0
VISUALSTYLE
  5
2C
102
{ACAD_REACTORS
330
2A
102
}
102
{ACAD_XDICTIONARY
360
1EC
102
}
330
2A
100
AcDbVisualStyle
  2
FlatWithEdges
 70
     1
 71
     2
 72
     1
 73
     1
 90
        2
 40
0.6
 41
30.0
 62
     5
 63
     7
421
 16777215
 74
     1
 91
        0
 64
     7
 65
   257
 75
     1
175
     1
 42
1.0
 92
        0
 66
   257
 43
1.0
 76
     1
 77
     6
 78
     2
 67
     7
 79
     5
170
     0
171
     0
290
     0
174
     0
 93
       13
 44
0.0
173
     0
291
     1
 45
0.0
1001
ACAD
1000
AcDbSavedByObjectVersion
1070
     0
  0
VISUALSTYLE
  5
2D
102
{ACAD_REACTORS
330
2A
102
}
102
{ACAD_XDICTIONARY
360
1EE
102
}
330
2A
100
AcDbVisualStyle
  2
Gouraud
 70
     2
 71
     2
 72
     2
 73
     1
 90
        2
 40
0.6
 41
30.0
 62
     5
 63
     7
421
 16777215
 74
     0
 91
        0
 64
     7
 65
   257
 75
     1
175
     1
 42
1.0
 92
        0
 66
     7
 43
1.0
 76
     1
 77
     6
 78
     2
 67
     7
 79
     5
170
     0
171
     0
290
     0
174
     0
 93
       13
 44
0.0
173
     0
291
     1
 45
0.0
1001
ACAD
1000
AcDbSavedByObjectVersion
1070
     0
  0
VISUALSTYLE
  5
2E
102
{ACAD_REACTORS
330
2A
102
}
102
{ACAD_XDICTIONARY
360
1F0
102
}
330
2A
100
AcDbVisualStyle
  2
GouraudWithEdges
 70
     3
 71
     2
 72
     2
 73
     1
 90
        2
 40
0.6
 41
30.0
 62
     5
 63
     7
421
 16777215
 74
     1
 91
        0
 64
     7
 65
   257
 75
     1
175
     1
 42
1.0
 92
        0
 66
   257
 43
1.0
 76
     1
 77
     6
 78
     2
 67
     7
 79
     5
170
     0
171
     0
290
     0
174
     0
 93
       13
 44
0.0
173
     0
291
     1
 45
0.0
1001
ACAD
1000
AcDbSavedByObjectVersion
1070
     0
  0
VISUALSTYLE
  5
31
102
{ACAD_REACTORS
330
2A
102
}
102
{ACAD_XDICTIONARY
360
1F6
102
}
330
2A
100
AcDbVisualStyle
  2
Hidden
 70
     6
 71
     1
 72
     2
 73
     2
 90
        0
 40
0.6
 41
30.0
 62
     5
 63
     7
421
 16777215
 74
     2
 91
        2
 64
     7
 65
   257
 75
     2
175
     1
 42
40.0
 92
        0
 66
   257
 43
1.0
 76
     1
 77
     6
 78
     2
 67
     7
 79
     3
170
     0
171
     0
290
     0
174
     0
 93
        1
 44
0.0
173
     0
291
     0
 45
0.0
1001
ACAD
1000
AcDbSavedByObjectVersion
1070
     0
  0
VISUALSTYLE
  5
3B
102
{ACAD_REACTORS
330
2A
102
}
102
{ACAD_XDICTIONARY
360
20A
102
}
330
2A
100
AcDbVisualStyle
  2
JitterOff
 70
    20
 71
     2
 72
     2
 73
     0
 90
        0
 40
0.6
 41
30.0
 62
     5
 63
     7
421
 16777215
 74
     1
 91
        4
 64
     7
 65
   257
 75
     1
175
     1
 42
1.0
 92
       10
 66
     7
 43
1.0
 76
     1
 77
     6
 78
     2
 67
     7
 79
     5
170
     0
171
     0
290
     0
174
     0
 93
        1
 44
0.0
173
     0
291
     1
 45
0.0
1001
ACAD
1000
AcDbSavedByObjectVersion
1070
     0
  0
VISUALSTYLE
  5
38
102
{ACAD_REACTORS
330
2A
102
}
102
{ACAD_XDICTIONARY
360
204
102
}
330
2A
100
AcDbVisualStyle
  2
Linepattern
 70
    14
 71
     2
 72
     2
 73
     0
 90
        0
 40
0.6
 41
30.0
 62
     5
 63
     7
421
 16777215
 74
     1
 91
        4
 64
     7
 65
   257
 75
     7
175
     7
 42
1.0
 92
        8
 66
     7
 43
1.0
 76
     1
 77
     6
 78
     2
 67
     7
 79
     5
170
     0
171
     0
290
     0
174
     0
 93
        1
 44
0.0
173
     0
291
     1
 45
0.0
1001
ACAD
1000
AcDbSavedByObjectVersion
1070
     0
  0
VISUALSTYLE
  5
3C
102
{ACAD_REACTORS
330
2A
102
}
102
{ACAD_XDICTIONARY
360
20C
102
}
330
2A
100
AcDbVisualStyle
  2
OverhangOff
 70
    21
 71
     2
 72
     2
 73
     0
 90
        0
 40
0.6
 41
30.0
 62
     5
 63
     7
421
 16777215
 74
     1
 91
        4
 64
     7
 65
   257
 75
     1
175
     1
 42
1.0
 92
        9
 66
     7
 43
1.0
 76
     1
 77
     6
 78
     2
 67
     7
 79
     5
170
     0
171
     0
290
     0
174
     0
 93
        1
 44
0.0
173
     0
291
     1
 45
0.0
1001
ACAD
1000
AcDbSavedByObjectVersion
1070
     0
  0
VISUALSTYLE
  5
33
102
{ACAD_REACTORS
330
2A
102
}
102
{ACAD_XDICTIONARY
360
1FA
102
}
330
2A
100
AcDbVisualStyle
  2
Realistic
 70
     8
 71
     2
 72
     3
 73
     0
 90
        2
 40
0.6
 41
30.0
 62
     5
 63
     7
421
 16777215
 74
     0
 91
        0
 64
     7
 65
   257
 75
     1
175
     1
 42
1.0
 92
        8
 66
   257
 43
1.0
 76
     1
 77
     6
 78
     2
 67
     7
 79
     3
170
     0
171
     0
290
     0
174
     0
 93
       13
 44
0.0
173
     0
291
     0
 45
0.0
1001
ACAD
1000
AcDbSavedByObjectVersion
1070
     0
  0
VISUALSTYLE
  5
42
102
{ACAD_REACTORS
330
2A
102
}
102
{ACAD_XDICTIONARY
360
218
102
}
330
2A
100
AcDbVisualStyle
  2
Shaded
 70
    27
 71
     2
 72
     2
 73
     1
 90
        2
 40
0.6
 41
30.0
 62
     5
 63
     7
421
 16777215
 74
     0
 91
        4
 64
     7
 65
   257
 75
     1
175
     1
 42
1.0
 92
        8
 66
   257
 43
1.0
 76
     1
 77
     6
 78
     2
 67
     8
425
  7895160
 79
     3
170
     0
171
     0
290
     0
174
     0
 93
        5
 44
0.0
173
     0
291
     0
 45
0.0
1001
ACAD
1000
AcDbSavedByObjectVersion
1070
     0
  0
VISUALSTYLE
  5
41
102
{ACAD_REACTORS
330
2A
102
}
102
{ACAD_XDICTIONARY
360
216
102
}
330
2A
100
AcDbVisualStyle
  2
Shaded with edges
 70
    26
 71
     2
 72
     2
 73
     1
 90
        2
 40
0.6
 41
30.0
 62
     5
 63
     7
421
 16777215
 74
     1
 91
       10
 64
     7
 65
   257
 75
     2
175
     1
 42
1.0
 92
        8
 66
   257
 43
1.0
 76
     1
 77
     6
 78
     2
 67
     7
 79
     3
170
     0
171
     0
290
     0
174
     0
 93
        5
 44
0.0
173
     0
291
     0
 45
0.0
1001
ACAD
1000
AcDbSavedByObjectVersion
1070
     0
  0
VISUALSTYLE
  5
3E
102
{ACAD_REACTORS
330
2A
102
}
102
{ACAD_XDICTIONARY
360
210
102
}
330
2A
100
AcDbVisualStyle
  2
Shades of Gray
 70
    23
 71
     2
 72
     2
 73
     3
 90
        0
 40
0.6
 41
30.0
 62
     5
 63
     7
421
 16777215
 74
     2
 91
        2
 64
     7
 65
     7
 75
     1
175
     1
 42
40.0
 92
        8
 66
     7
 43
1.0
 76
     1
 77
     6
 78
     2
 67
     7
 79
     3
170
     0
171
     0
290
     0
174
     0
 93
        1
 44
0.0
173
     0
291
     0
 45
0.0
1001
ACAD
1000
AcDbSavedByObjectVersion
1070
     0
  0
VISUALSTYLE
  5
3F
102
{ACAD_REACTORS
330
2A
102
}
102
{ACAD_XDICTIONARY
360
212
102
}
330
2A
100
AcDbVisualStyle
  2
Sketchy
 70
    24
 71
     1
 72
     2
 73
     2
 90
        0
 40
0.6
 41
30.0
 62
     5
 63
     7
421
 16777215
 74
     2
 91
        2
 64
     7
 65
     7
 75
     1
175
     1
 42
40.0
 92
       11
 66
     7
 43
1.0
 76
     1
 77
     6
 78
     2
 67
     7
 79
     6
170
     0
171
     0
290
     0
174
     0
 93
        1
 44
0.0
173
     0
291
     0
 45
0.0
1001
ACAD
1000
AcDbSavedByObjectVersion
1070
     0
  0
VISUALSTYLE
  5
37
102
{ACAD_REACTORS
330
2A
102
}
102
{ACAD_XDICTIONARY
360
202
102
}
330
2A
100
AcDbVisualStyle
  2
Thicken
 70
    13
 71
     2
 72
     2
 73
     0
 90
        0
 40
0.6
 41
30.0
 62
     5
 63
     7
421
 16777215
 74
     1
 91
        4
 64
     7
 65
   257
 75
     1
175
     1
 42
1.0
 92
       12
 66
     7
 43
1.0
 76
     1
 77
     6
 78
     2
 67
     7
 79
     5
170
     0
171
     0
290
     0
174
     0
 93
        1
 44
0.0
173
     0
291
     1
 45
0.0
1001
ACAD
1000
AcDbSavedByObjectVersion
1070
     0
  0
VISUALSTYLE
  5
30
102
{ACAD_REACTORS
330
2A
102
}
102
{ACAD_XDICTIONARY
360
1F4
102
}
330
2A
100
AcDbVisualStyle
  2
Wireframe
 70
     5
 71
     0
 72
     2
 73
     0
 90
        0
 40
0.6
 41
30.0
 62
     5
 63
     7
421
 16777215
 74
     1
 91
        4
 64
     7
 65
   257
 75
     1
175
     1
 42
1.0
 92
        0
 66
   257
 43
1.0
 76
     1
 77
     6
 78
     2
 67
     7
 79
     3
170
     0
171
     0
290
     0
174
     0
 93
        1
 44
0.0
173
     0
291
     0
 45
0.0
1001
ACAD
1000
AcDbSavedByObjectVersion
1070
     0
  0
VISUALSTYLE
  5
40
102
{ACAD_REACTORS
330
2A
102
}
102
{ACAD_XDICTIONARY
360
214
102
}
330
2A
100
AcDbVisualStyle
  2
X-Ray
 70
    25
 71
     2
 72
     2
 73
     1
 90
        1
 40
0.5
 41
30.0
 62
     5
 63
     7
421
 16777215
 74
     1
 91
        0
 64
     7
 65
   257
 75
     1
175
     1
 42
1.0
 92
        8
 66
     7
 43
1.0
 76
     1
 77
     6
 78
     2
 67
     7
 79
     3
170
     0
171
     0
290
     0
174
     0
 93
       13
 44
0.0
173
     0
291
     0
 45
0.0
1001
ACAD
1000
AcDbSavedByObjectVersion
1070
     0
  0
DICTIONARYVAR
  5
1E7
102
{ACAD_REACTORS
330
1E6
102
}
330
1E6
100
DictionaryVariables
280
     0
  1
1:1
  0
DICTIONARYVAR
  5
228
102
{ACAD_REACTORS
330
1E6
102
}
330
1E6
100
DictionaryVariables
280
     0
  1
Standard
  0
DICTIONARYVAR
  5
227
102
{ACAD_REACTORS
330
1E6
102
}
330
1E6
100
DictionaryVariables
280
     0
  1
Standard
  0
DICTIONARYVAR
  5
1E8
102
{ACAD_REACTORS
330
1E6
102
}
330
1E6
100
DictionaryVariables
280
     0
  1
1
  0
DICTIONARYVAR
  5
1E9
102
{ACAD_REACTORS
330
1E6
102
}
330
1E6
100
DictionaryVariables
280
     0
  1
2
  0
DICTIONARY
  5
21C
330
45
100
AcDbDictionary
280
     1
281
     1
  3
ACAD_XREC_ROUNDTRIP
360
21D
  0
DICTIONARY
  5
21A
330
44
100
AcDbDictionary
280
     1
281
     1
  3
ACAD_XREC_ROUNDTRIP
360
21B
  0
DICTIONARY
  5
21E
330
46
100
AcDbDictionary
280
     1
281
     1
  3
ACAD_XREC_ROUNDTRIP
360
21F
  0
DICTIONARY
  5
224
330
6C
100
AcDbDictionary
280
     1
281
     1
  3
ACAD_XREC_ROUNDTRIP
360
225
  0
DICTIONARY
  5
220
330
6A
100
AcDbDictionary
280
     1
281
     1
  3
ACAD_ROUNDTRIP_2008_TABLESTYLE_CELLSTYLEMAP
360
222
  3
ACAD_XREC_ROUNDTRIP
360
221
  0
DICTIONARY
  5
1F2
330
2F
100
AcDbDictionary
280
     1
281
     1
  3
ACAD_XREC_ROUNDTRIP
360
1F3
  0
DICTIONARY
  5
1F8
330
32
100
AcDbDictionary
280
     1
281
     1
  3
ACAD_XREC_ROUNDTRIP
360
1F9
  0
DICTIONARY
  5
200
330
36
100
AcDbDictionary
280
     1
281
     1
  3
ACAD_XREC_ROUNDTRIP
360
201
  0
DICTIONARY
  5
208
330
3A
100
AcDbDictionary
280
     1
281
     1
  3
ACAD_XREC_ROUNDTRIP
360
209
  0
DICTIONARY
  5
1FC
330
34
100
AcDbDictionary
280
     1
281
     1
  3
ACAD_XREC_ROUNDTRIP
360
1FD
  0
DICTIONARY
  5
1FE
330
35
100
AcDbDictionary
280
     1
281
     1
  3
ACAD_XREC_ROUNDTRIP
360
1FF
  0
DICTIONARY
  5
20E
330
3D
100
AcDbDictionary
280
     1
281
     1
  3
ACAD_XREC_ROUNDTRIP
360
20F
  0
DICTIONARY
  5
206
330
39
100
AcDbDictionary
280
     1
281
     1
  3
ACAD_XREC_ROUNDTRIP
360
207
  0
DICTIONARY
  5
1EA
330
2B
100
AcDbDictionary
280
     1
281
     1
  3
ACAD_XREC_ROUNDTRIP
360
1EB
  0
DICTIONARY
  5
1EC
330
2C
100
AcDbDictionary
280
     1
281
     1
  3
ACAD_XREC_ROUNDTRIP
360
1ED
  0
DICTIONARY
  5
1EE
330
2D
100
AcDbDictionary
280
     1
281
     1
  3
ACAD_XREC_ROUNDTRIP
360
1EF
  0
DICTIONARY
  5
1F0
330
2E
100
AcDbDictionary
280
     1
281
     1
  3
ACAD_XREC_ROUNDTRIP
360
1F1
  0
DICTIONARY
  5
1F6
330
31
100
AcDbDictionary
280
     1
281
     1
  3
ACAD_XREC_ROUNDTRIP
360
1F7
  0
DICTIONARY
  5
20A
330
3B
100
AcDbDictionary
280
     1
281
     1
  3
ACAD_XREC_ROUNDTRIP
360
20B
  0
DICTIONARY
  5
204
330
38
100
AcDbDictionary
280
     1
281
     1
  3
ACAD_XREC_ROUNDTRIP
360
205
  0
DICTIONARY
  5
20C
330
3C
100
AcDbDictionary
280
     1
281
     1
  3
ACAD_XREC_ROUNDTRIP
360
20D
  0
DICTIONARY
  5
1FA
330
33
100
AcDbDictionary
280
     1
281
     1
  3
ACAD_XREC_ROUNDTRIP
360
1FB
  0
DICTIONARY
  5
218
330
42
100
AcDbDictionary
280
     1
281
     1
  3
ACAD_XREC_ROUNDTRIP
360
219
  0
DICTIONARY
  5
216
330
41
100
AcDbDictionary
280
     1
281
     1
  3
ACAD_XREC_ROUNDTRIP
360
217
  0
DICTIONARY
  5
210
330
3E
100
AcDbDictionary
280
     1
281
     1
  3
ACAD_XREC_ROUNDTRIP
360
211
  0
DICTIONARY
  5
212
330
3F
100
AcDbDictionary
280
     1
281
     1
  3
ACAD_XREC_ROUNDTRIP
360
213
  0
DICTIONARY
  5
202
330
37
100
AcDbDictionary
280
     1
281
     1
  3
ACAD_XREC_ROUNDTRIP
360
203
  0
DICTIONARY
  5
1F4
330
30
100
AcDbDictionary
280
     1
281
     1
  3
ACAD_XREC_ROUNDTRIP
360
1F5
  0
DICTIONARY
  5
214
330
40
100
AcDbDictionary
280
     1
281
     1
  3
ACAD_XREC_ROUNDTRIP
360
215
  0
XRECORD
  5
21D
102
{ACAD_REACTORS
330
21C
102
}
330
21C
100
AcDbXrecord
280
     1
102
MATERIAL
148
0.0
149
0.0
149
0.0
 93
        0
 94
      127
282
     0
 72
     1
 77
     1
171
     1
175
     1
179
     1
273
     0
  0
XRECORD
  5
21B
102
{ACAD_REACTORS
330
21A
102
}
330
21A
100
AcDbXrecord
280
     1
102
MATERIAL
148
0.0
149
0.0
149
0.0
 93
        0
 94
      127
282
     0
 72
     1
 77
     1
171
     1
175
     1
179
     1
273
     0
  0
XRECORD
  5
21F
102
{ACAD_REACTORS
330
21E
102
}
330
21E
100
AcDbXrecord
280
     1
102
MATERIAL
148
0.0
149
0.0
149
0.0
 93
        0
 94
      127
282
     0
 72
     1
 77
     1
171
     1
175
     1
179
     1
273
     0
  0
XRECORD
  5
225
102
{ACAD_REACTORS
330
224
102
}
330
224
100
AcDbXrecord
280
     1
102
ACAD_ROUNDTRIP_2010_MLEADER_STYLE
  0
CELLSTYLEMAP
  5
222
102
{ACAD_REACTORS
330
220
102
}
330
220
100
AcDbCellStyleMap
 90
        3
300
CELLSTYLE
  1
TABLEFORMAT_BEGIN
 90
        5
170
     1
 91
        0
 92
    32768
 62
   257
 93
        1
300
CONTENTFORMAT
  1
CONTENTFORMAT_BEGIN
 90
        0
 91
        0
 92
        4
 93
        0
300

 40
0.0
140
1.0
 94
        5
 62
     0
340
11
144
0.25
309
CONTENTFORMAT_END
171
     1
301
MARGIN
  1
CELLMARGIN_BEGIN
 40
0.06
 40
0.06
 40
0.06
 40
0.06
 40
0.06
 40
0.06
309
CELLMARGIN_END
 94
        6
 95
        1
302
GRIDFORMAT
  1
GRIDFORMAT_BEGIN
 90
        0
 91
        1
 62
     0
 92
       -2
340
14
 93
        0
 40
0.045
309
GRIDFORMAT_END
 95
        2
302
GRIDFORMAT
  1
GRIDFORMAT_BEGIN
 90
        0
 91
        1
 62
     0
 92
       -2
340
14
 93
        0
 40
0.045
309
GRIDFORMAT_END
 95
        4
302
GRIDFORMAT
  1
GRIDFORMAT_BEGIN
 90
        0
 91
        1
 62
     0
 92
       -2
340
14
 93
        0
 40
0.045
309
GRIDFORMAT_END
 95
        8
302
GRIDFORMAT
  1
GRIDFORMAT_BEGIN
 90
        0
 91
        1
 62
     0
 92
       -2
340
14
 93
        0
 40
0.045
309
GRIDFORMAT_END
 95
       16
302
GRIDFORMAT
  1
GRIDFORMAT_BEGIN
 90
        0
 91
        1
 62
     0
 92
       -2
340
14
 93
        0
 40
0.045
309
GRIDFORMAT_END
 95
       32
302
GRIDFORMAT
  1
GRIDFORMAT_BEGIN
 90
        0
 91
        1
 62
     0
 92
       -2
340
14
 93
        0
 40
0.045
309
GRIDFORMAT_END
309
TABLEFORMAT_END
  1
CELLSTYLE_BEGIN
 90
        1
 91
        1
300
_TITLE
309
CELLSTYLE_END
300
CELLSTYLE
  1
TABLEFORMAT_BEGIN
 90
        5
170
     1
 91
        0
 92
        0
 62
   257
 93
        1
300
CONTENTFORMAT
  1
CONTENTFORMAT_BEGIN
 90
        0
 91
        0
 92
        4
 93
        0
300

 40
0.0
140
1.0
 94
        5
 62
     0
340
11
144
0.18
309
CONTENTFORMAT_END
171
     1
301
MARGIN
  1
CELLMARGIN_BEGIN
 40
0.06
 40
0.06
 40
0.06
 40
0.06
 40
0.06
 40
0.06
309
CELLMARGIN_END
 94
        6
 95
        1
302
GRIDFORMAT
  1
GRIDFORMAT_BEGIN
 90
        0
 91
        1
 62
     0
 92
       -2
340
14
 93
        0
 40
0.045
309
GRIDFORMAT_END
 95
        2
302
GRIDFORMAT
  1
GRIDFORMAT_BEGIN
 90
        0
 91
        1
 62
     0
 92
       -2
340
14
 93
        0
 40
0.045
309
GRIDFORMAT_END
 95
        4
302
GRIDFORMAT
  1
GRIDFORMAT_BEGIN
 90
        0
 91
        1
 62
     0
 92
       -2
340
14
 93
        0
 40
0.045
309
GRIDFORMAT_END
 95
        8
302
GRIDFORMAT
  1
GRIDFORMAT_BEGIN
 90
        0
 91
        1
 62
     0
 92
       -2
340
14
 93
        0
 40
0.045
309
GRIDFORMAT_END
 95
       16
302
GRIDFORMAT
  1
GRIDFORMAT_BEGIN
 90
        0
 91
        1
 62
     0
 92
       -2
340
14
 93
        0
 40
0.045
309
GRIDFORMAT_END
 95
       32
302
GRIDFORMAT
  1
GRIDFORMAT_BEGIN
 90
        0
 91
        1
 62
     0
 92
       -2
340
14
 93
        0
 40
0.045
309
GRIDFORMAT_END
309
TABLEFORMAT_END
  1
CELLSTYLE_BEGIN
 90
        2
 91
        1
300
_HEADER
309
CELLSTYLE_END
300
CELLSTYLE
  1
TABLEFORMAT_BEGIN
 90
        5
170
     1
 91
        0
 92
        0
 62
   257
 93
        1
300
CONTENTFORMAT
  1
CONTENTFORMAT_BEGIN
 90
        0
 91
        0
 92
        4
 93
        0
300

 40
0.0
140
1.0
 94
        2
 62
     0
340
11
144
0.18
309
CONTENTFORMAT_END
171
     1
301
MARGIN
  1
CELLMARGIN_BEGIN
 40
0.06
 40
0.06
 40
0.06
 40
0.06
 40
0.06
 40
0.06
309
CELLMARGIN_END
 94
        6
 95
        1
302
GRIDFORMAT
  1
GRIDFORMAT_BEGIN
 90
        0
 91
        1
 62
     0
 92
       -2
340
14
 93
        0
 40
0.045
309
GRIDFORMAT_END
 95
        2
302
GRIDFORMAT
  1
GRIDFORMAT_BEGIN
 90
        0
 91
        1
 62
     0
 92
       -2
340
14
 93
        0
 40
0.045
309
GRIDFORMAT_END
 95
        4
302
GRIDFORMAT
  1
GRIDFORMAT_BEGIN
 90
        0
 91
        1
 62
     0
 92
       -2
340
14
 93
        0
 40
0.045
309
GRIDFORMAT_END
 95
        8
302
GRIDFORMAT
  1
GRIDFORMAT_BEGIN
 90
        0
 91
        1
 62
     0
 92
       -2
340
14
 93
        0
 40
0.045
309
GRIDFORMAT_END
 95
       16
302
GRIDFORMAT
  1
GRIDFORMAT_BEGIN
 90
        0
 91
        1
 62
     0
 92
       -2
340
14
 93
        0
 40
0.045
309
GRIDFORMAT_END
 95
       32
302
GRIDFORMAT
  1
GRIDFORMAT_BEGIN
 90
        0
 91
        1
 62
     0
 92
       -2
340
14
 93
        0
 40
0.045
309
GRIDFORMAT_END
309
TABLEFORMAT_END
  1
CELLSTYLE_BEGIN
 90
        3
 91
        2
300
_DATA
309
CELLSTYLE_END
  0
XRECORD
  5
221
102
{ACAD_REACTORS
330
220
102
}
330
220
100
AcDbXrecord
280
     1
102
ACAD_ROUNDTRIP_PRE2007_TABLESTYLE
 90
        4
 91
        0
  1

 92
        4
 93
        0
  2

 94
        4
 95
        0
  3

  0
XRECORD
  5
1F3
102
{ACAD_REACTORS
330
1F2
102
}
330
1F2
100
AcDbXrecord
280
     1
102
RTVSPropertyOp0
 70
     1
102
RTVSPropertyOp1
 70
     1
102
RTVSPropertyOp2
 70
     1
102
RTVSPropertyOp3
 70
     1
102
RTVSPropertyOp4
 70
     1
102
RTVSPropertyOp5
 70
     1
102
RTVSPropertyOp6
 70
     1
102
RTVSPropertyOp7
 70
     1
102
RTVSPropertyOp8
 70
     1
102
RTVSPropertyOp9
 70
     1
102
RTVSPropertyOp10
 70
     1
102
RTVSPropertyOp11
 70
     1
102
RTVSPropertyOp12
 70
     1
102
RTVSPropertyOp13
 70
     1
102
RTVSPropertyOp14
 70
     1
102
RTVSPropertyOp15
 70
     1
102
RTVSPropertyOp16
 70
     1
102
RTVSPropertyOp17
 70
     1
102
RTVSPropertyOp18
 70
     1
102
RTVSPropertyOp19
 70
     1
102
RTVSPropertyOp20
 70
     1
102
RTVSPropertyOp21
 70
     1
102
RTVSPropertyOp22
 70
     1
102
RTVSPropertyOp23
 70
     1
102
RTVSPropertyOp24
 70
     1
102
RTVSPropertyOp25
 70
     1
102
RTVSPropertyOp26
 70
     1
102
RTVSPropertyOp27
 70
     1
102
RTVSPropertyOp28
 70
     1
102
RTVSPropertyOp29
 70
     1
102
RTVSPropertyOp30
 70
     1
102
RTVSPropertyOp31
 70
     1
102
RTVSPropertyOp32
 70
     1
102
RTVSPropertyOp33
 70
     1
102
RTVSPropertyOp34
 70
     1
102
RTVSPropertyOp35
 70
     1
102
RTVSPropertyOp36
 70
     1
102
RTVSPropertyOp37
 70
     1
102
RTVSPropertyOp38
 70
     1
102
RTVSPropertyOp39
 70
     1
102
RTVSPropertyOp40
 70
     1
102
RTVSPropertyOp41
 70
     1
102
RTVSPropertyOp42
 70
     1
102
RTVSPropertyOp43
 70
     1
102
RTVSPropertyOp44
 70
     1
102
RTVSPropertyOp45
 70
     1
102
RTVSPropertyOp46
 70
     1
102
RTVSPropertyOp47
 70
     1
102
RTVSPropertyOp48
 70
     1
102
RTVSPropertyOp49
 70
     1
102
RTVSPropertyOp50
 70
     1
102
RTVSPropertyOp51
 70
     0
102
RTVSPropertyOp52
 70
     0
102
RTVSPropertyOp53
 70
     1
102
RTVSPropertyOp54
 70
     1
102
RTVSPropertyOp55
 70
     1
102
RTVSPropertyOp56
 70
     1
102
RTVSPropertyOp57
 70
     1
102
RTVSPost2010Prop28
280
     1
102
RTVSPost2010PropOp28
 70
     1
102
RTVSPost2010Prop29
280
     1
102
RTVSPost2010PropOp29
 70
     1
102
RTVSPost2010Prop30
280
     0
102
RTVSPost2010PropOp30
 70
     1
102
RTVSPost2010Prop31
280
     0
102
RTVSPost2010PropOp31
 70
     1
102
RTVSPost2010Prop32
280
     0
102
RTVSPost2010PropOp32
 70
     1
102
RTVSPost2010Prop33
280
     0
102
RTVSPost2010PropOp33
 70
     1
102
RTVSPost2010Prop34
280
     0
102
RTVSPost2010PropOp34
 70
     1
102
RTVSPost2010Prop35
280
     0
102
RTVSPost2010PropOp35
 70
     1
102
RTVSPost2010Prop36
280
     0
102
RTVSPost2010PropOp36
 70
     1
102
RTVSPost2010Prop37
 90
       50
102
RTVSPost2010PropOp37
 70
     1
102
RTVSPost2010Prop38
140
0.0
102
RTVSPost2010PropOp38
 70
     1
102
RTVSPost2010Prop39
140
1.0
102
RTVSPost2010PropOp39
 70
     1
102
RTVSPost2010Prop40
 90
        0
102
RTVSPost2010PropOp40
 70
     1
102
RTVSPost2010Prop41ColorIndex
 90
       18
102
RTVSPost2010Prop41ColorRGB
 90
        0
102
RTVSPost2010PropOp41
 70
     1
102
RTVSPost2010Prop42
 90
       50
102
RTVSPost2010PropOp42
 70
     1
102
RTVSPost2010Prop43
 90
        3
102
RTVSPost2010PropOp43
 70
     1
102
RTVSPost2010Prop44ColorIndex
 90
        5
102
RTVSPost2010Prop44ColorRGB
 90
      255
102
RTVSPost2010PropOp44
 70
     1
102
RTVSPost2010Prop45
280
     0
102
RTVSPost2010PropOp45
 70
     1
102
RTVSPost2010Prop46
 90
       50
102
RTVSPost2010PropOp46
 70
     1
102
RTVSPost2010Prop47
 90
       50
102
RTVSPost2010PropOp47
 70
     1
102
RTVSPost2010Prop48
 90
       50
102
RTVSPost2010PropOp48
 70
     1
102
RTVSPost2010Prop49
280
     0
102
RTVSPost2010PropOp49
 70
     1
102
RTVSPost2010Prop50
 90
       50
102
RTVSPost2010PropOp50
 70
     1
102
RTVSPost2010Prop51ColorIndex
 90
      256
102
RTVSPost2010Prop51ColorRGB
 90
-16777216
102
RTVSPost2010PropOp51
 70
     0
102
RTVSPost2010Prop52
140
1.0
102
RTVSPost2010PropOp52
 70
     0
102
RTVSPost2010Prop53
 90
        2
102
RTVSPost2010PropOp53
 70
     1
102
RTVSPost2010Prop54
  1
strokes_ogs.tif
102
RTVSPost2010PropOp54
 70
     1
102
RTVSPost2010Prop55
280
     0
102
RTVSPost2010PropOp55
 70
     1
102
RTVSPost2010Prop56
140
1.0
102
RTVSPost2010PropOp56
 70
     1
102
RTVSPost2010Prop57
140
1.0
102
RTVSPost2010PropOp57
 70
     1
  0
XRECORD
  5
1F9
102
{ACAD_REACTORS
330
1F8
102
}
330
1F8
100
AcDbXrecord
280
     1
102
RTVSPropertyOp0
 70
     1
102
RTVSPropertyOp1
 70
     1
102
RTVSPropertyOp2
 70
     1
102
RTVSPropertyOp3
 70
     1
102
RTVSPropertyOp4
 70
     1
102
RTVSPropertyOp5
 70
     1
102
RTVSPropertyOp6
 70
     1
102
RTVSPropertyOp7
 70
     1
102
RTVSPropertyOp8
 70
     1
102
RTVSPropertyOp9
 70
     1
102
RTVSPropertyOp10
 70
     1
102
RTVSPropertyOp11
 70
     1
102
RTVSPropertyOp12
 70
     1
102
RTVSPropertyOp13
 70
     1
102
RTVSPropertyOp14
 70
     1
102
RTVSPropertyOp15
 70
     1
102
RTVSPropertyOp16
 70
     1
102
RTVSPropertyOp17
 70
     1
102
RTVSPropertyOp18
 70
     1
102
RTVSPropertyOp19
 70
     1
102
RTVSPropertyOp20
 70
     1
102
RTVSPropertyOp21
 70
     1
102
RTVSPropertyOp22
 70
     1
102
RTVSPropertyOp23
 70
     1
102
RTVSPropertyOp24
 70
     1
102
RTVSPropertyOp25
 70
     1
102
RTVSPropertyOp26
 70
     1
102
RTVSPropertyOp27
 70
     1
102
RTVSPropertyOp28
 70
     1
102
RTVSPropertyOp29
 70
     1
102
RTVSPropertyOp30
 70
     1
102
RTVSPropertyOp31
 70
     1
102
RTVSPropertyOp32
 70
     1
102
RTVSPropertyOp33
 70
     1
102
RTVSPropertyOp34
 70
     1
102
RTVSPropertyOp35
 70
     1
102
RTVSPropertyOp36
 70
     1
102
RTVSPropertyOp37
 70
     1
102
RTVSPropertyOp38
 70
     1
102
RTVSPropertyOp39
 70
     1
102
RTVSPropertyOp40
 70
     1
102
RTVSPropertyOp41
 70
     1
102
RTVSPropertyOp42
 70
     1
102
RTVSPropertyOp43
 70
     1
102
RTVSPropertyOp44
 70
     1
102
RTVSPropertyOp45
 70
     1
102
RTVSPropertyOp46
 70
     1
102
RTVSPropertyOp47
 70
     1
102
RTVSPropertyOp48
 70
     1
102
RTVSPropertyOp49
 70
     1
102
RTVSPropertyOp50
 70
     1
102
RTVSPropertyOp51
 70
     0
102
RTVSPropertyOp52
 70
     0
102
RTVSPropertyOp53
 70
     1
102
RTVSPropertyOp54
 70
     1
102
RTVSPropertyOp55
 70
     1
102
RTVSPropertyOp56
 70
     1
102
RTVSPropertyOp57
 70
     1
102
RTVSPost2010Prop28
280
     0
102
RTVSPost2010PropOp28
 70
     1
102
RTVSPost2010Prop29
280
     1
102
RTVSPost2010PropOp29
 70
     1
102
RTVSPost2010Prop30
280
     1
102
RTVSPost2010PropOp30
 70
     1
102
RTVSPost2010Prop31
280
     0
102
RTVSPost2010PropOp31
 70
     1
102
RTVSPost2010Prop32
280
     0
102
RTVSPost2010PropOp32
 70
     1
102
RTVSPost2010Prop33
280
     0
102
RTVSPost2010PropOp33
 70
     1
102
RTVSPost2010Prop34
280
     0
102
RTVSPost2010PropOp34
 70
     1
102
RTVSPost2010Prop35
280
     0
102
RTVSPost2010PropOp35
 70
     1
102
RTVSPost2010Prop36
280
     0
102
RTVSPost2010PropOp36
 70
     1
102
RTVSPost2010Prop37
 90
       50
102
RTVSPost2010PropOp37
 70
     1
102
RTVSPost2010Prop38
140
0.0
102
RTVSPost2010PropOp38
 70
     1
102
RTVSPost2010Prop39
140
1.0
102
RTVSPost2010PropOp39
 70
     1
102
RTVSPost2010Prop40
 90
        0
102
RTVSPost2010PropOp40
 70
     1
102
RTVSPost2010Prop41ColorIndex
 90
       18
102
RTVSPost2010Prop41ColorRGB
 90
        0
102
RTVSPost2010PropOp41
 70
     1
102
RTVSPost2010Prop42
 90
       50
102
RTVSPost2010PropOp42
 70
     1
102
RTVSPost2010Prop43
 90
        3
102
RTVSPost2010PropOp43
 70
     1
102
RTVSPost2010Prop44ColorIndex
 90
        5
102
RTVSPost2010Prop44ColorRGB
 90
      255
102
RTVSPost2010PropOp44
 70
     1
102
RTVSPost2010Prop45
280
     0
102
RTVSPost2010PropOp45
 70
     1
102
RTVSPost2010Prop46
 90
       50
102
RTVSPost2010PropOp46
 70
     1
102
RTVSPost2010Prop47
 90
       50
102
RTVSPost2010PropOp47
 70
     1
102
RTVSPost2010Prop48
 90
       50
102
RTVSPost2010PropOp48
 70
     1
102
RTVSPost2010Prop49
280
     0
102
RTVSPost2010PropOp49
 70
     1
102
RTVSPost2010Prop50
 90
       50
102
RTVSPost2010PropOp50
 70
     1
102
RTVSPost2010Prop51ColorIndex
 90
      256
102
RTVSPost2010Prop51ColorRGB
 90
-16777216
102
RTVSPost2010PropOp51
 70
     0
102
RTVSPost2010Prop52
140
1.0
102
RTVSPost2010PropOp52
 70
     0
102
RTVSPost2010Prop53
 90
        2
102
RTVSPost2010PropOp53
 70
     1
102
RTVSPost2010Prop54
  1
strokes_ogs.tif
102
RTVSPost2010PropOp54
 70
     1
102
RTVSPost2010Prop55
280
     0
102
RTVSPost2010PropOp55
 70
     1
102
RTVSPost2010Prop56
140
1.0
102
RTVSPost2010PropOp56
 70
     1
102
RTVSPost2010Prop57
140
1.0
102
RTVSPost2010PropOp57
 70
     1
  0
XRECORD
  5
201
102
{ACAD_REACTORS
330
200
102
}
330
200
100
AcDbXrecord
280
     1
102
RTVSPropertyOp0
 70
     1
102
RTVSPropertyOp1
 70
     1
102
RTVSPropertyOp2
 70
     1
102
RTVSPropertyOp3
 70
     1
102
RTVSPropertyOp4
 70
     1
102
RTVSPropertyOp5
 70
     1
102
RTVSPropertyOp6
 70
     1
102
RTVSPropertyOp7
 70
     1
102
RTVSPropertyOp8
 70
     1
102
RTVSPropertyOp9
 70
     1
102
RTVSPropertyOp10
 70
     1
102
RTVSPropertyOp11
 70
     1
102
RTVSPropertyOp12
 70
     1
102
RTVSPropertyOp13
 70
     1
102
RTVSPropertyOp14
 70
     1
102
RTVSPropertyOp15
 70
     1
102
RTVSPropertyOp16
 70
     1
102
RTVSPropertyOp17
 70
     1
102
RTVSPropertyOp18
 70
     1
102
RTVSPropertyOp19
 70
     1
102
RTVSPropertyOp20
 70
     1
102
RTVSPropertyOp21
 70
     1
102
RTVSPropertyOp22
 70
     1
102
RTVSPropertyOp23
 70
     1
102
RTVSPropertyOp24
 70
     1
102
RTVSPropertyOp25
 70
     1
102
RTVSPropertyOp26
 70
     1
102
RTVSPropertyOp27
 70
     1
102
RTVSPropertyOp28
 70
     1
102
RTVSPropertyOp29
 70
     1
102
RTVSPropertyOp30
 70
     1
102
RTVSPropertyOp31
 70
     1
102
RTVSPropertyOp32
 70
     1
102
RTVSPropertyOp33
 70
     1
102
RTVSPropertyOp34
 70
     1
102
RTVSPropertyOp35
 70
     1
102
RTVSPropertyOp36
 70
     1
102
RTVSPropertyOp37
 70
     1
102
RTVSPropertyOp38
 70
     1
102
RTVSPropertyOp39
 70
     1
102
RTVSPropertyOp40
 70
     1
102
RTVSPropertyOp41
 70
     1
102
RTVSPropertyOp42
 70
     1
102
RTVSPropertyOp43
 70
     1
102
RTVSPropertyOp44
 70
     1
102
RTVSPropertyOp45
 70
     1
102
RTVSPropertyOp46
 70
     1
102
RTVSPropertyOp47
 70
     1
102
RTVSPropertyOp48
 70
     1
102
RTVSPropertyOp49
 70
     1
102
RTVSPropertyOp50
 70
     1
102
RTVSPropertyOp51
 70
     0
102
RTVSPropertyOp52
 70
     0
102
RTVSPropertyOp53
 70
     1
102
RTVSPropertyOp54
 70
     1
102
RTVSPropertyOp55
 70
     1
102
RTVSPropertyOp56
 70
     1
102
RTVSPropertyOp57
 70
     1
102
RTVSPost2010Prop28
280
     0
102
RTVSPost2010PropOp28
 70
     1
102
RTVSPost2010Prop29
280
     1
102
RTVSPost2010PropOp29
 70
     1
102
RTVSPost2010Prop30
280
     1
102
RTVSPost2010PropOp30
 70
     1
102
RTVSPost2010Prop31
280
     0
102
RTVSPost2010PropOp31
 70
     1
102
RTVSPost2010Prop32
280
     0
102
RTVSPost2010PropOp32
 70
     1
102
RTVSPost2010Prop33
280
     0
102
RTVSPost2010PropOp33
 70
     1
102
RTVSPost2010Prop34
280
     0
102
RTVSPost2010PropOp34
 70
     1
102
RTVSPost2010Prop35
280
     0
102
RTVSPost2010PropOp35
 70
     1
102
RTVSPost2010Prop36
280
     0
102
RTVSPost2010PropOp36
 70
     1
102
RTVSPost2010Prop37
 90
       50
102
RTVSPost2010PropOp37
 70
     1
102
RTVSPost2010Prop38
140
0.0
102
RTVSPost2010PropOp38
 70
     1
102
RTVSPost2010Prop39
140
1.0
102
RTVSPost2010PropOp39
 70
     1
102
RTVSPost2010Prop40
 90
        0
102
RTVSPost2010PropOp40
 70
     1
102
RTVSPost2010Prop41ColorIndex
 90
       18
102
RTVSPost2010Prop41ColorRGB
 90
        0
102
RTVSPost2010PropOp41
 70
     1
102
RTVSPost2010Prop42
 90
       50
102
RTVSPost2010PropOp42
 70
     1
102
RTVSPost2010Prop43
 90
        3
102
RTVSPost2010PropOp43
 70
     1
102
RTVSPost2010Prop44ColorIndex
 90
        5
102
RTVSPost2010Prop44ColorRGB
 90
      255
102
RTVSPost2010PropOp44
 70
     1
102
RTVSPost2010Prop45
280
     0
102
RTVSPost2010PropOp45
 70
     1
102
RTVSPost2010Prop46
 90
       50
102
RTVSPost2010PropOp46
 70
     1
102
RTVSPost2010Prop47
 90
       50
102
RTVSPost2010PropOp47
 70
     1
102
RTVSPost2010Prop48
 90
       50
102
RTVSPost2010PropOp48
 70
     1
102
RTVSPost2010Prop49
280
     0
102
RTVSPost2010PropOp49
 70
     1
102
RTVSPost2010Prop50
 90
       50
102
RTVSPost2010PropOp50
 70
     1
102
RTVSPost2010Prop51ColorIndex
 90
      256
102
RTVSPost2010Prop51ColorRGB
 90
-16777216
102
RTVSPost2010PropOp51
 70
     0
102
RTVSPost2010Prop52
140
1.0
102
RTVSPost2010PropOp52
 70
     0
102
RTVSPost2010Prop53
 90
        2
102
RTVSPost2010PropOp53
 70
     1
102
RTVSPost2010Prop54
  1
strokes_ogs.tif
102
RTVSPost2010PropOp54
 70
     1
102
RTVSPost2010Prop55
280
     0
102
RTVSPost2010PropOp55
 70
     1
102
RTVSPost2010Prop56
140
1.0
102
RTVSPost2010PropOp56
 70
     1
102
RTVSPost2010Prop57
140
1.0
102
RTVSPost2010PropOp57
 70
     1
  0
XRECORD
  5
209
102
{ACAD_REACTORS
330
208
102
}
330
208
100
AcDbXrecord
280
     1
102
RTVSPropertyOp0
 70
     1
102
RTVSPropertyOp1
 70
     1
102
RTVSPropertyOp2
 70
     1
102
RTVSPropertyOp3
 70
     1
102
RTVSPropertyOp4
 70
     1
102
RTVSPropertyOp5
 70
     1
102
RTVSPropertyOp6
 70
     1
102
RTVSPropertyOp7
 70
     1
102
RTVSPropertyOp8
 70
     1
102
RTVSPropertyOp9
 70
     1
102
RTVSPropertyOp10
 70
     1
102
RTVSPropertyOp11
 70
     1
102
RTVSPropertyOp12
 70
     1
102
RTVSPropertyOp13
 70
     1
102
RTVSPropertyOp14
 70
     1
102
RTVSPropertyOp15
 70
     1
102
RTVSPropertyOp16
 70
     1
102
RTVSPropertyOp17
 70
     1
102
RTVSPropertyOp18
 70
     1
102
RTVSPropertyOp19
 70
     1
102
RTVSPropertyOp20
 70
     1
102
RTVSPropertyOp21
 70
     1
102
RTVSPropertyOp22
 70
     1
102
RTVSPropertyOp23
 70
     1
102
RTVSPropertyOp24
 70
     1
102
RTVSPropertyOp25
 70
     1
102
RTVSPropertyOp26
 70
     1
102
RTVSPropertyOp27
 70
     1
102
RTVSPropertyOp28
 70
     1
102
RTVSPropertyOp29
 70
     1
102
RTVSPropertyOp30
 70
     1
102
RTVSPropertyOp31
 70
     1
102
RTVSPropertyOp32
 70
     1
102
RTVSPropertyOp33
 70
     1
102
RTVSPropertyOp34
 70
     1
102
RTVSPropertyOp35
 70
     1
102
RTVSPropertyOp36
 70
     1
102
RTVSPropertyOp37
 70
     1
102
RTVSPropertyOp38
 70
     1
102
RTVSPropertyOp39
 70
     1
102
RTVSPropertyOp40
 70
     1
102
RTVSPropertyOp41
 70
     1
102
RTVSPropertyOp42
 70
     1
102
RTVSPropertyOp43
 70
     1
102
RTVSPropertyOp44
 70
     1
102
RTVSPropertyOp45
 70
     1
102
RTVSPropertyOp46
 70
     1
102
RTVSPropertyOp47
 70
     1
102
RTVSPropertyOp48
 70
     1
102
RTVSPropertyOp49
 70
     1
102
RTVSPropertyOp50
 70
     1
102
RTVSPropertyOp51
 70
     0
102
RTVSPropertyOp52
 70
     0
102
RTVSPropertyOp53
 70
     1
102
RTVSPropertyOp54
 70
     1
102
RTVSPropertyOp55
 70
     1
102
RTVSPropertyOp56
 70
     1
102
RTVSPropertyOp57
 70
     1
102
RTVSPost2010Prop28
280
     0
102
RTVSPost2010PropOp28
 70
     1
102
RTVSPost2010Prop29
280
     1
102
RTVSPost2010PropOp29
 70
     1
102
RTVSPost2010Prop30
280
     1
102
RTVSPost2010PropOp30
 70
     1
102
RTVSPost2010Prop31
280
     0
102
RTVSPost2010PropOp31
 70
     1
102
RTVSPost2010Prop32
280
     0
102
RTVSPost2010PropOp32
 70
     1
102
RTVSPost2010Prop33
280
     0
102
RTVSPost2010PropOp33
 70
     1
102
RTVSPost2010Prop34
280
     0
102
RTVSPost2010PropOp34
 70
     1
102
RTVSPost2010Prop35
280
     0
102
RTVSPost2010PropOp35
 70
     1
102
RTVSPost2010Prop36
280
     0
102
RTVSPost2010PropOp36
 70
     1
102
RTVSPost2010Prop37
 90
       50
102
RTVSPost2010PropOp37
 70
     1
102
RTVSPost2010Prop38
140
0.0
102
RTVSPost2010PropOp38
 70
     1
102
RTVSPost2010Prop39
140
1.0
102
RTVSPost2010PropOp39
 70
     1
102
RTVSPost2010Prop40
 90
        0
102
RTVSPost2010PropOp40
 70
     1
102
RTVSPost2010Prop41ColorIndex
 90
       18
102
RTVSPost2010Prop41ColorRGB
 90
        0
102
RTVSPost2010PropOp41
 70
     1
102
RTVSPost2010Prop42
 90
       50
102
RTVSPost2010PropOp42
 70
     1
102
RTVSPost2010Prop43
 90
        3
102
RTVSPost2010PropOp43
 70
     1
102
RTVSPost2010Prop44ColorIndex
 90
        5
102
RTVSPost2010Prop44ColorRGB
 90
      255
102
RTVSPost2010PropOp44
 70
     1
102
RTVSPost2010Prop45
280
     0
102
RTVSPost2010PropOp45
 70
     1
102
RTVSPost2010Prop46
 90
       50
102
RTVSPost2010PropOp46
 70
     1
102
RTVSPost2010Prop47
 90
       50
102
RTVSPost2010PropOp47
 70
     1
102
RTVSPost2010Prop48
 90
       50
102
RTVSPost2010PropOp48
 70
     1
102
RTVSPost2010Prop49
280
     0
102
RTVSPost2010PropOp49
 70
     1
102
RTVSPost2010Prop50
 90
       50
102
RTVSPost2010PropOp50
 70
     1
102
RTVSPost2010Prop51ColorIndex
 90
      256
102
RTVSPost2010Prop51ColorRGB
 90
-16777216
102
RTVSPost2010PropOp51
 70
     0
102
RTVSPost2010Prop52
140
1.0
102
RTVSPost2010PropOp52
 70
     0
102
RTVSPost2010Prop53
 90
        2
102
RTVSPost2010PropOp53
 70
     1
102
RTVSPost2010Prop54
  1
strokes_ogs.tif
102
RTVSPost2010PropOp54
 70
     1
102
RTVSPost2010Prop55
280
     0
102
RTVSPost2010PropOp55
 70
     1
102
RTVSPost2010Prop56
140
1.0
102
RTVSPost2010PropOp56
 70
     1
102
RTVSPost2010Prop57
140
1.0
102
RTVSPost2010PropOp57
 70
     1
  0
XRECORD
  5
1FD
102
{ACAD_REACTORS
330
1FC
102
}
330
1FC
100
AcDbXrecord
280
     1
102
RTVSPropertyOp0
 70
     1
102
RTVSPropertyOp1
 70
     1
102
RTVSPropertyOp2
 70
     1
102
RTVSPropertyOp3
 70
     1
102
RTVSPropertyOp4
 70
     1
102
RTVSPropertyOp5
 70
     1
102
RTVSPropertyOp6
 70
     1
102
RTVSPropertyOp7
 70
     1
102
RTVSPropertyOp8
 70
     1
102
RTVSPropertyOp9
 70
     1
102
RTVSPropertyOp10
 70
     1
102
RTVSPropertyOp11
 70
     1
102
RTVSPropertyOp12
 70
     1
102
RTVSPropertyOp13
 70
     1
102
RTVSPropertyOp14
 70
     1
102
RTVSPropertyOp15
 70
     1
102
RTVSPropertyOp16
 70
     1
102
RTVSPropertyOp17
 70
     1
102
RTVSPropertyOp18
 70
     1
102
RTVSPropertyOp19
 70
     1
102
RTVSPropertyOp20
 70
     1
102
RTVSPropertyOp21
 70
     1
102
RTVSPropertyOp22
 70
     1
102
RTVSPropertyOp23
 70
     1
102
RTVSPropertyOp24
 70
     1
102
RTVSPropertyOp25
 70
     1
102
RTVSPropertyOp26
 70
     1
102
RTVSPropertyOp27
 70
     1
102
RTVSPropertyOp28
 70
     1
102
RTVSPropertyOp29
 70
     1
102
RTVSPropertyOp30
 70
     1
102
RTVSPropertyOp31
 70
     1
102
RTVSPropertyOp32
 70
     1
102
RTVSPropertyOp33
 70
     1
102
RTVSPropertyOp34
 70
     1
102
RTVSPropertyOp35
 70
     1
102
RTVSPropertyOp36
 70
     1
102
RTVSPropertyOp37
 70
     1
102
RTVSPropertyOp38
 70
     1
102
RTVSPropertyOp39
 70
     1
102
RTVSPropertyOp40
 70
     1
102
RTVSPropertyOp41
 70
     1
102
RTVSPropertyOp42
 70
     1
102
RTVSPropertyOp43
 70
     1
102
RTVSPropertyOp44
 70
     1
102
RTVSPropertyOp45
 70
     1
102
RTVSPropertyOp46
 70
     1
102
RTVSPropertyOp47
 70
     1
102
RTVSPropertyOp48
 70
     1
102
RTVSPropertyOp49
 70
     1
102
RTVSPropertyOp50
 70
     1
102
RTVSPropertyOp51
 70
     0
102
RTVSPropertyOp52
 70
     0
102
RTVSPropertyOp53
 70
     1
102
RTVSPropertyOp54
 70
     1
102
RTVSPropertyOp55
 70
     1
102
RTVSPropertyOp56
 70
     1
102
RTVSPropertyOp57
 70
     1
102
RTVSPost2010Prop28
280
     0
102
RTVSPost2010PropOp28
 70
     1
102
RTVSPost2010Prop29
280
     1
102
RTVSPost2010PropOp29
 70
     1
102
RTVSPost2010Prop30
280
     1
102
RTVSPost2010PropOp30
 70
     1
102
RTVSPost2010Prop31
280
     0
102
RTVSPost2010PropOp31
 70
     1
102
RTVSPost2010Prop32
280
     0
102
RTVSPost2010PropOp32
 70
     1
102
RTVSPost2010Prop33
280
     0
102
RTVSPost2010PropOp33
 70
     1
102
RTVSPost2010Prop34
280
     0
102
RTVSPost2010PropOp34
 70
     1
102
RTVSPost2010Prop35
280
     0
102
RTVSPost2010PropOp35
 70
     1
102
RTVSPost2010Prop36
280
     0
102
RTVSPost2010PropOp36
 70
     1
102
RTVSPost2010Prop37
 90
       50
102
RTVSPost2010PropOp37
 70
     1
102
RTVSPost2010Prop38
140
0.0
102
RTVSPost2010PropOp38
 70
     1
102
RTVSPost2010Prop39
140
1.0
102
RTVSPost2010PropOp39
 70
     1
102
RTVSPost2010Prop40
 90
        0
102
RTVSPost2010PropOp40
 70
     1
102
RTVSPost2010Prop41ColorIndex
 90
       18
102
RTVSPost2010Prop41ColorRGB
 90
        0
102
RTVSPost2010PropOp41
 70
     1
102
RTVSPost2010Prop42
 90
       50
102
RTVSPost2010PropOp42
 70
     1
102
RTVSPost2010Prop43
 90
        3
102
RTVSPost2010PropOp43
 70
     1
102
RTVSPost2010Prop44ColorIndex
 90
        5
102
RTVSPost2010Prop44ColorRGB
 90
      255
102
RTVSPost2010PropOp44
 70
     1
102
RTVSPost2010Prop45
280
     0
102
RTVSPost2010PropOp45
 70
     1
102
RTVSPost2010Prop46
 90
       50
102
RTVSPost2010PropOp46
 70
     1
102
RTVSPost2010Prop47
 90
       50
102
RTVSPost2010PropOp47
 70
     1
102
RTVSPost2010Prop48
 90
       50
102
RTVSPost2010PropOp48
 70
     1
102
RTVSPost2010Prop49
280
     0
102
RTVSPost2010PropOp49
 70
     1
102
RTVSPost2010Prop50
 90
       50
102
RTVSPost2010PropOp50
 70
     1
102
RTVSPost2010Prop51ColorIndex
 90
      256
102
RTVSPost2010Prop51ColorRGB
 90
-16777216
102
RTVSPost2010PropOp51
 70
     0
102
RTVSPost2010Prop52
140
1.0
102
RTVSPost2010PropOp52
 70
     0
102
RTVSPost2010Prop53
 90
        2
102
RTVSPost2010PropOp53
 70
     1
102
RTVSPost2010Prop54
  1
strokes_ogs.tif
102
RTVSPost2010PropOp54
 70
     1
102
RTVSPost2010Prop55
280
     0
102
RTVSPost2010PropOp55
 70
     1
102
RTVSPost2010Prop56
140
1.0
102
RTVSPost2010PropOp56
 70
     1
102
RTVSPost2010Prop57
140
1.0
102
RTVSPost2010PropOp57
 70
     1
  0
XRECORD
  5
1FF
102
{ACAD_REACTORS
330
1FE
102
}
330
1FE
100
AcDbXrecord
280
     1
102
RTVSPropertyOp0
 70
     1
102
RTVSPropertyOp1
 70
     1
102
RTVSPropertyOp2
 70
     1
102
RTVSPropertyOp3
 70
     1
102
RTVSPropertyOp4
 70
     1
102
RTVSPropertyOp5
 70
     1
102
RTVSPropertyOp6
 70
     1
102
RTVSPropertyOp7
 70
     1
102
RTVSPropertyOp8
 70
     1
102
RTVSPropertyOp9
 70
     1
102
RTVSPropertyOp10
 70
     1
102
RTVSPropertyOp11
 70
     1
102
RTVSPropertyOp12
 70
     1
102
RTVSPropertyOp13
 70
     1
102
RTVSPropertyOp14
 70
     1
102
RTVSPropertyOp15
 70
     1
102
RTVSPropertyOp16
 70
     1
102
RTVSPropertyOp17
 70
     1
102
RTVSPropertyOp18
 70
     1
102
RTVSPropertyOp19
 70
     1
102
RTVSPropertyOp20
 70
     1
102
RTVSPropertyOp21
 70
     1
102
RTVSPropertyOp22
 70
     1
102
RTVSPropertyOp23
 70
     1
102
RTVSPropertyOp24
 70
     1
102
RTVSPropertyOp25
 70
     1
102
RTVSPropertyOp26
 70
     1
102
RTVSPropertyOp27
 70
     1
102
RTVSPropertyOp28
 70
     1
102
RTVSPropertyOp29
 70
     1
102
RTVSPropertyOp30
 70
     1
102
RTVSPropertyOp31
 70
     1
102
RTVSPropertyOp32
 70
     1
102
RTVSPropertyOp33
 70
     1
102
RTVSPropertyOp34
 70
     1
102
RTVSPropertyOp35
 70
     1
102
RTVSPropertyOp36
 70
     1
102
RTVSPropertyOp37
 70
     1
102
RTVSPropertyOp38
 70
     1
102
RTVSPropertyOp39
 70
     1
102
RTVSPropertyOp40
 70
     1
102
RTVSPropertyOp41
 70
     1
102
RTVSPropertyOp42
 70
     1
102
RTVSPropertyOp43
 70
     1
102
RTVSPropertyOp44
 70
     1
102
RTVSPropertyOp45
 70
     1
102
RTVSPropertyOp46
 70
     1
102
RTVSPropertyOp47
 70
     1
102
RTVSPropertyOp48
 70
     1
102
RTVSPropertyOp49
 70
     1
102
RTVSPropertyOp50
 70
     1
102
RTVSPropertyOp51
 70
     0
102
RTVSPropertyOp52
 70
     0
102
RTVSPropertyOp53
 70
     1
102
RTVSPropertyOp54
 70
     1
102
RTVSPropertyOp55
 70
     1
102
RTVSPropertyOp56
 70
     1
102
RTVSPropertyOp57
 70
     1
102
RTVSPost2010Prop28
280
     0
102
RTVSPost2010PropOp28
 70
     1
102
RTVSPost2010Prop29
280
     1
102
RTVSPost2010PropOp29
 70
     1
102
RTVSPost2010Prop30
280
     1
102
RTVSPost2010PropOp30
 70
     1
102
RTVSPost2010Prop31
280
     0
102
RTVSPost2010PropOp31
 70
     1
102
RTVSPost2010Prop32
280
     0
102
RTVSPost2010PropOp32
 70
     1
102
RTVSPost2010Prop33
280
     0
102
RTVSPost2010PropOp33
 70
     1
102
RTVSPost2010Prop34
280
     0
102
RTVSPost2010PropOp34
 70
     1
102
RTVSPost2010Prop35
280
     0
102
RTVSPost2010PropOp35
 70
     1
102
RTVSPost2010Prop36
280
     0
102
RTVSPost2010PropOp36
 70
     1
102
RTVSPost2010Prop37
 90
       50
102
RTVSPost2010PropOp37
 70
     1
102
RTVSPost2010Prop38
140
0.0
102
RTVSPost2010PropOp38
 70
     1
102
RTVSPost2010Prop39
140
1.0
102
RTVSPost2010PropOp39
 70
     1
102
RTVSPost2010Prop40
 90
        0
102
RTVSPost2010PropOp40
 70
     1
102
RTVSPost2010Prop41ColorIndex
 90
       18
102
RTVSPost2010Prop41ColorRGB
 90
        0
102
RTVSPost2010PropOp41
 70
     1
102
RTVSPost2010Prop42
 90
       50
102
RTVSPost2010PropOp42
 70
     1
102
RTVSPost2010Prop43
 90
        3
102
RTVSPost2010PropOp43
 70
     1
102
RTVSPost2010Prop44ColorIndex
 90
        5
102
RTVSPost2010Prop44ColorRGB
 90
      255
102
RTVSPost2010PropOp44
 70
     1
102
RTVSPost2010Prop45
280
     0
102
RTVSPost2010PropOp45
 70
     1
102
RTVSPost2010Prop46
 90
       50
102
RTVSPost2010PropOp46
 70
     1
102
RTVSPost2010Prop47
 90
       50
102
RTVSPost2010PropOp47
 70
     1
102
RTVSPost2010Prop48
 90
       50
102
RTVSPost2010PropOp48
 70
     1
102
RTVSPost2010Prop49
280
     0
102
RTVSPost2010PropOp49
 70
     1
102
RTVSPost2010Prop50
 90
       50
102
RTVSPost2010PropOp50
 70
     1
102
RTVSPost2010Prop51ColorIndex
 90
      256
102
RTVSPost2010Prop51ColorRGB
 90
-16777216
102
RTVSPost2010PropOp51
 70
     0
102
RTVSPost2010Prop52
140
1.0
102
RTVSPost2010PropOp52
 70
     0
102
RTVSPost2010Prop53
 90
        2
102
RTVSPost2010PropOp53
 70
     1
102
RTVSPost2010Prop54
  1
strokes_ogs.tif
102
RTVSPost2010PropOp54
 70
     1
102
RTVSPost2010Prop55
280
     0
102
RTVSPost2010PropOp55
 70
     1
102
RTVSPost2010Prop56
140
1.0
102
RTVSPost2010PropOp56
 70
     1
102
RTVSPost2010Prop57
140
1.0
102
RTVSPost2010PropOp57
 70
     1
  0
XRECORD
  5
20F
102
{ACAD_REACTORS
330
20E
102
}
330
20E
100
AcDbXrecord
280
     1
102
RTVSPropertyOp0
 70
     0
102
RTVSPropertyOp1
 70
     0
102
RTVSPropertyOp2
 70
     0
102
RTVSPropertyOp3
 70
     0
102
RTVSPropertyOp4
 70
     0
102
RTVSPropertyOp5
 70
     0
102
RTVSPropertyOp6
 70
     0
102
RTVSPropertyOp7
 70
     0
102
RTVSPropertyOp8
 70
     0
102
RTVSPropertyOp9
 70
     0
102
RTVSPropertyOp10
 70
     0
102
RTVSPropertyOp11
 70
     0
102
RTVSPropertyOp12
 70
     0
102
RTVSPropertyOp13
 70
     0
102
RTVSPropertyOp14
 70
     2
102
RTVSPropertyOp15
 70
     0
102
RTVSPropertyOp16
 70
     0
102
RTVSPropertyOp17
 70
     0
102
RTVSPropertyOp18
 70
     0
102
RTVSPropertyOp19
 70
     0
102
RTVSPropertyOp20
 70
     0
102
RTVSPropertyOp21
 70
     0
102
RTVSPropertyOp22
 70
     0
102
RTVSPropertyOp23
 70
     0
102
RTVSPropertyOp24
 70
     0
102
RTVSPropertyOp25
 70
     0
102
RTVSPropertyOp26
 70
     0
102
RTVSPropertyOp27
 70
     0
102
RTVSPropertyOp28
 70
     0
102
RTVSPropertyOp29
 70
     0
102
RTVSPropertyOp30
 70
     0
102
RTVSPropertyOp31
 70
     0
102
RTVSPropertyOp32
 70
     0
102
RTVSPropertyOp33
 70
     0
102
RTVSPropertyOp34
 70
     0
102
RTVSPropertyOp35
 70
     0
102
RTVSPropertyOp36
 70
     0
102
RTVSPropertyOp37
 70
     0
102
RTVSPropertyOp38
 70
     0
102
RTVSPropertyOp39
 70
     0
102
RTVSPropertyOp40
 70
     0
102
RTVSPropertyOp41
 70
     0
102
RTVSPropertyOp42
 70
     0
102
RTVSPropertyOp43
 70
     0
102
RTVSPropertyOp44
 70
     0
102
RTVSPropertyOp45
 70
     0
102
RTVSPropertyOp46
 70
     0
102
RTVSPropertyOp47
 70
     0
102
RTVSPropertyOp48
 70
     0
102
RTVSPropertyOp49
 70
     0
102
RTVSPropertyOp50
 70
     0
102
RTVSPropertyOp51
 70
     0
102
RTVSPropertyOp52
 70
     0
102
RTVSPropertyOp53
 70
     0
102
RTVSPropertyOp54
 70
     0
102
RTVSPropertyOp55
 70
     0
102
RTVSPropertyOp56
 70
     0
102
RTVSPropertyOp57
 70
     0
102
RTVSPost2010Prop28
280
     0
102
RTVSPost2010PropOp28
 70
     0
102
RTVSPost2010Prop29
280
     1
102
RTVSPost2010PropOp29
 70
     0
102
RTVSPost2010Prop30
280
     1
102
RTVSPost2010PropOp30
 70
     0
102
RTVSPost2010Prop31
280
     0
102
RTVSPost2010PropOp31
 70
     0
102
RTVSPost2010Prop32
280
     0
102
RTVSPost2010PropOp32
 70
     0
102
RTVSPost2010Prop33
280
     0
102
RTVSPost2010PropOp33
 70
     0
102
RTVSPost2010Prop34
280
     0
102
RTVSPost2010PropOp34
 70
     0
102
RTVSPost2010Prop35
280
     0
102
RTVSPost2010PropOp35
 70
     0
102
RTVSPost2010Prop36
280
     0
102
RTVSPost2010PropOp36
 70
     0
102
RTVSPost2010Prop37
 90
       50
102
RTVSPost2010PropOp37
 70
     0
102
RTVSPost2010Prop38
140
0.0
102
RTVSPost2010PropOp38
 70
     0
102
RTVSPost2010Prop39
140
1.0
102
RTVSPost2010PropOp39
 70
     0
102
RTVSPost2010Prop40
 90
        0
102
RTVSPost2010PropOp40
 70
     0
102
RTVSPost2010Prop41ColorIndex
 90
       18
102
RTVSPost2010Prop41ColorRGB
 90
        0
102
RTVSPost2010PropOp41
 70
     0
102
RTVSPost2010Prop42
 90
       50
102
RTVSPost2010PropOp42
 70
     0
102
RTVSPost2010Prop43
 90
        3
102
RTVSPost2010PropOp43
 70
     0
102
RTVSPost2010Prop44ColorIndex
 90
        5
102
RTVSPost2010Prop44ColorRGB
 90
      255
102
RTVSPost2010PropOp44
 70
     0
102
RTVSPost2010Prop45
280
     0
102
RTVSPost2010PropOp45
 70
     0
102
RTVSPost2010Prop46
 90
       50
102
RTVSPost2010PropOp46
 70
     0
102
RTVSPost2010Prop47
 90
       50
102
RTVSPost2010PropOp47
 70
     0
102
RTVSPost2010Prop48
 90
       50
102
RTVSPost2010PropOp48
 70
     0
102
RTVSPost2010Prop49
280
     0
102
RTVSPost2010PropOp49
 70
     0
102
RTVSPost2010Prop50
 90
       50
102
RTVSPost2010PropOp50
 70
     0
102
RTVSPost2010Prop51ColorIndex
 90
      256
102
RTVSPost2010Prop51ColorRGB
 90
-16777216
102
RTVSPost2010PropOp51
 70
     0
102
RTVSPost2010Prop52
140
1.0
102
RTVSPost2010PropOp52
 70
     0
102
RTVSPost2010Prop53
 90
        2
102
RTVSPost2010PropOp53
 70
     0
102
RTVSPost2010Prop54
  1
strokes_ogs.tif
102
RTVSPost2010PropOp54
 70
     0
102
RTVSPost2010Prop55
280
     0
102
RTVSPost2010PropOp55
 70
     0
102
RTVSPost2010Prop56
140
1.0
102
RTVSPost2010PropOp56
 70
     0
102
RTVSPost2010Prop57
140
1.0
102
RTVSPost2010PropOp57
 70
     0
  0
XRECORD
  5
207
102
{ACAD_REACTORS
330
206
102
}
330
206
100
AcDbXrecord
280
     1
102
RTVSPropertyOp0
 70
     1
102
RTVSPropertyOp1
 70
     1
102
RTVSPropertyOp2
 70
     1
102
RTVSPropertyOp3
 70
     1
102
RTVSPropertyOp4
 70
     1
102
RTVSPropertyOp5
 70
     1
102
RTVSPropertyOp6
 70
     1
102
RTVSPropertyOp7
 70
     1
102
RTVSPropertyOp8
 70
     1
102
RTVSPropertyOp9
 70
     1
102
RTVSPropertyOp10
 70
     1
102
RTVSPropertyOp11
 70
     1
102
RTVSPropertyOp12
 70
     1
102
RTVSPropertyOp13
 70
     1
102
RTVSPropertyOp14
 70
     1
102
RTVSPropertyOp15
 70
     1
102
RTVSPropertyOp16
 70
     1
102
RTVSPropertyOp17
 70
     1
102
RTVSPropertyOp18
 70
     1
102
RTVSPropertyOp19
 70
     1
102
RTVSPropertyOp20
 70
     1
102
RTVSPropertyOp21
 70
     1
102
RTVSPropertyOp22
 70
     1
102
RTVSPropertyOp23
 70
     1
102
RTVSPropertyOp24
 70
     1
102
RTVSPropertyOp25
 70
     1
102
RTVSPropertyOp26
 70
     1
102
RTVSPropertyOp27
 70
     1
102
RTVSPropertyOp28
 70
     1
102
RTVSPropertyOp29
 70
     1
102
RTVSPropertyOp30
 70
     1
102
RTVSPropertyOp31
 70
     1
102
RTVSPropertyOp32
 70
     1
102
RTVSPropertyOp33
 70
     1
102
RTVSPropertyOp34
 70
     1
102
RTVSPropertyOp35
 70
     1
102
RTVSPropertyOp36
 70
     1
102
RTVSPropertyOp37
 70
     1
102
RTVSPropertyOp38
 70
     1
102
RTVSPropertyOp39
 70
     1
102
RTVSPropertyOp40
 70
     1
102
RTVSPropertyOp41
 70
     1
102
RTVSPropertyOp42
 70
     1
102
RTVSPropertyOp43
 70
     1
102
RTVSPropertyOp44
 70
     1
102
RTVSPropertyOp45
 70
     1
102
RTVSPropertyOp46
 70
     1
102
RTVSPropertyOp47
 70
     1
102
RTVSPropertyOp48
 70
     1
102
RTVSPropertyOp49
 70
     1
102
RTVSPropertyOp50
 70
     1
102
RTVSPropertyOp51
 70
     0
102
RTVSPropertyOp52
 70
     0
102
RTVSPropertyOp53
 70
     1
102
RTVSPropertyOp54
 70
     1
102
RTVSPropertyOp55
 70
     1
102
RTVSPropertyOp56
 70
     1
102
RTVSPropertyOp57
 70
     1
102
RTVSPost2010Prop28
280
     0
102
RTVSPost2010PropOp28
 70
     1
102
RTVSPost2010Prop29
280
     1
102
RTVSPost2010PropOp29
 70
     1
102
RTVSPost2010Prop30
280
     1
102
RTVSPost2010PropOp30
 70
     1
102
RTVSPost2010Prop31
280
     0
102
RTVSPost2010PropOp31
 70
     1
102
RTVSPost2010Prop32
280
     0
102
RTVSPost2010PropOp32
 70
     1
102
RTVSPost2010Prop33
280
     0
102
RTVSPost2010PropOp33
 70
     1
102
RTVSPost2010Prop34
280
     0
102
RTVSPost2010PropOp34
 70
     1
102
RTVSPost2010Prop35
280
     0
102
RTVSPost2010PropOp35
 70
     1
102
RTVSPost2010Prop36
280
     0
102
RTVSPost2010PropOp36
 70
     1
102
RTVSPost2010Prop37
 90
       50
102
RTVSPost2010PropOp37
 70
     1
102
RTVSPost2010Prop38
140
0.0
102
RTVSPost2010PropOp38
 70
     1
102
RTVSPost2010Prop39
140
1.0
102
RTVSPost2010PropOp39
 70
     1
102
RTVSPost2010Prop40
 90
        0
102
RTVSPost2010PropOp40
 70
     1
102
RTVSPost2010Prop41ColorIndex
 90
       18
102
RTVSPost2010Prop41ColorRGB
 90
        0
102
RTVSPost2010PropOp41
 70
     1
102
RTVSPost2010Prop42
 90
       50
102
RTVSPost2010PropOp42
 70
     1
102
RTVSPost2010Prop43
 90
        3
102
RTVSPost2010PropOp43
 70
     1
102
RTVSPost2010Prop44ColorIndex
 90
        5
102
RTVSPost2010Prop44ColorRGB
 90
      255
102
RTVSPost2010PropOp44
 70
     1
102
RTVSPost2010Prop45
280
     0
102
RTVSPost2010PropOp45
 70
     1
102
RTVSPost2010Prop46
 90
       50
102
RTVSPost2010PropOp46
 70
     1
102
RTVSPost2010Prop47
 90
       50
102
RTVSPost2010PropOp47
 70
     1
102
RTVSPost2010Prop48
 90
       50
102
RTVSPost2010PropOp48
 70
     1
102
RTVSPost2010Prop49
280
     0
102
RTVSPost2010PropOp49
 70
     1
102
RTVSPost2010Prop50
 90
       50
102
RTVSPost2010PropOp50
 70
     1
102
RTVSPost2010Prop51ColorIndex
 90
      256
102
RTVSPost2010Prop51ColorRGB
 90
-16777216
102
RTVSPost2010PropOp51
 70
     0
102
RTVSPost2010Prop52
140
1.0
102
RTVSPost2010PropOp52
 70
     0
102
RTVSPost2010Prop53
 90
        2
102
RTVSPost2010PropOp53
 70
     1
102
RTVSPost2010Prop54
  1
strokes_ogs.tif
102
RTVSPost2010PropOp54
 70
     1
102
RTVSPost2010Prop55
280
     0
102
RTVSPost2010PropOp55
 70
     1
102
RTVSPost2010Prop56
140
1.0
102
RTVSPost2010PropOp56
 70
     1
102
RTVSPost2010Prop57
140
1.0
102
RTVSPost2010PropOp57
 70
     1
  0
XRECORD
  5
1EB
102
{ACAD_REACTORS
330
1EA
102
}
330
1EA
100
AcDbXrecord
280
     1
102
RTVSPropertyOp0
 70
     1
102
RTVSPropertyOp1
 70
     1
102
RTVSPropertyOp2
 70
     1
102
RTVSPropertyOp3
 70
     1
102
RTVSPropertyOp4
 70
     1
102
RTVSPropertyOp5
 70
     1
102
RTVSPropertyOp6
 70
     1
102
RTVSPropertyOp7
 70
     1
102
RTVSPropertyOp8
 70
     1
102
RTVSPropertyOp9
 70
     1
102
RTVSPropertyOp10
 70
     1
102
RTVSPropertyOp11
 70
     1
102
RTVSPropertyOp12
 70
     1
102
RTVSPropertyOp13
 70
     1
102
RTVSPropertyOp14
 70
     1
102
RTVSPropertyOp15
 70
     1
102
RTVSPropertyOp16
 70
     1
102
RTVSPropertyOp17
 70
     1
102
RTVSPropertyOp18
 70
     1
102
RTVSPropertyOp19
 70
     1
102
RTVSPropertyOp20
 70
     1
102
RTVSPropertyOp21
 70
     1
102
RTVSPropertyOp22
 70
     1
102
RTVSPropertyOp23
 70
     1
102
RTVSPropertyOp24
 70
     1
102
RTVSPropertyOp25
 70
     1
102
RTVSPropertyOp26
 70
     1
102
RTVSPropertyOp27
 70
     1
102
RTVSPropertyOp28
 70
     1
102
RTVSPropertyOp29
 70
     1
102
RTVSPropertyOp30
 70
     1
102
RTVSPropertyOp31
 70
     1
102
RTVSPropertyOp32
 70
     1
102
RTVSPropertyOp33
 70
     1
102
RTVSPropertyOp34
 70
     1
102
RTVSPropertyOp35
 70
     1
102
RTVSPropertyOp36
 70
     1
102
RTVSPropertyOp37
 70
     1
102
RTVSPropertyOp38
 70
     1
102
RTVSPropertyOp39
 70
     1
102
RTVSPropertyOp40
 70
     1
102
RTVSPropertyOp41
 70
     1
102
RTVSPropertyOp42
 70
     1
102
RTVSPropertyOp43
 70
     1
102
RTVSPropertyOp44
 70
     1
102
RTVSPropertyOp45
 70
     1
102
RTVSPropertyOp46
 70
     1
102
RTVSPropertyOp47
 70
     1
102
RTVSPropertyOp48
 70
     1
102
RTVSPropertyOp49
 70
     1
102
RTVSPropertyOp50
 70
     1
102
RTVSPropertyOp51
 70
     0
102
RTVSPropertyOp52
 70
     0
102
RTVSPropertyOp53
 70
     1
102
RTVSPropertyOp54
 70
     1
102
RTVSPropertyOp55
 70
     1
102
RTVSPropertyOp56
 70
     1
102
RTVSPropertyOp57
 70
     1
102
RTVSPost2010Prop28
280
     0
102
RTVSPost2010PropOp28
 70
     1
102
RTVSPost2010Prop29
280
     1
102
RTVSPost2010PropOp29
 70
     1
102
RTVSPost2010Prop30
280
     1
102
RTVSPost2010PropOp30
 70
     1
102
RTVSPost2010Prop31
280
     0
102
RTVSPost2010PropOp31
 70
     1
102
RTVSPost2010Prop32
280
     0
102
RTVSPost2010PropOp32
 70
     1
102
RTVSPost2010Prop33
280
     0
102
RTVSPost2010PropOp33
 70
     1
102
RTVSPost2010Prop34
280
     0
102
RTVSPost2010PropOp34
 70
     1
102
RTVSPost2010Prop35
280
     0
102
RTVSPost2010PropOp35
 70
     1
102
RTVSPost2010Prop36
280
     0
102
RTVSPost2010PropOp36
 70
     1
102
RTVSPost2010Prop37
 90
       50
102
RTVSPost2010PropOp37
 70
     1
102
RTVSPost2010Prop38
140
0.0
102
RTVSPost2010PropOp38
 70
     1
102
RTVSPost2010Prop39
140
1.0
102
RTVSPost2010PropOp39
 70
     1
102
RTVSPost2010Prop40
 90
        0
102
RTVSPost2010PropOp40
 70
     1
102
RTVSPost2010Prop41ColorIndex
 90
       18
102
RTVSPost2010Prop41ColorRGB
 90
        0
102
RTVSPost2010PropOp41
 70
     1
102
RTVSPost2010Prop42
 90
       50
102
RTVSPost2010PropOp42
 70
     1
102
RTVSPost2010Prop43
 90
        3
102
RTVSPost2010PropOp43
 70
     1
102
RTVSPost2010Prop44ColorIndex
 90
        5
102
RTVSPost2010Prop44ColorRGB
 90
      255
102
RTVSPost2010PropOp44
 70
     1
102
RTVSPost2010Prop45
280
     0
102
RTVSPost2010PropOp45
 70
     1
102
RTVSPost2010Prop46
 90
       50
102
RTVSPost2010PropOp46
 70
     1
102
RTVSPost2010Prop47
 90
       50
102
RTVSPost2010PropOp47
 70
     1
102
RTVSPost2010Prop48
 90
       50
102
RTVSPost2010PropOp48
 70
     1
102
RTVSPost2010Prop49
280
     0
102
RTVSPost2010PropOp49
 70
     1
102
RTVSPost2010Prop50
 90
       50
102
RTVSPost2010PropOp50
 70
     1
102
RTVSPost2010Prop51ColorIndex
 90
      256
102
RTVSPost2010Prop51ColorRGB
 90
-16777216
102
RTVSPost2010PropOp51
 70
     0
102
RTVSPost2010Prop52
140
1.0
102
RTVSPost2010PropOp52
 70
     0
102
RTVSPost2010Prop53
 90
        2
102
RTVSPost2010PropOp53
 70
     1
102
RTVSPost2010Prop54
  1
strokes_ogs.tif
102
RTVSPost2010PropOp54
 70
     1
102
RTVSPost2010Prop55
280
     0
102
RTVSPost2010PropOp55
 70
     1
102
RTVSPost2010Prop56
140
1.0
102
RTVSPost2010PropOp56
 70
     1
102
RTVSPost2010Prop57
140
1.0
102
RTVSPost2010PropOp57
 70
     1
  0
XRECORD
  5
1ED
102
{ACAD_REACTORS
330
1EC
102
}
330
1EC
100
AcDbXrecord
280
     1
102
RTVSPropertyOp0
 70
     1
102
RTVSPropertyOp1
 70
     1
102
RTVSPropertyOp2
 70
     1
102
RTVSPropertyOp3
 70
     1
102
RTVSPropertyOp4
 70
     1
102
RTVSPropertyOp5
 70
     1
102
RTVSPropertyOp6
 70
     1
102
RTVSPropertyOp7
 70
     1
102
RTVSPropertyOp8
 70
     1
102
RTVSPropertyOp9
 70
     1
102
RTVSPropertyOp10
 70
     1
102
RTVSPropertyOp11
 70
     1
102
RTVSPropertyOp12
 70
     1
102
RTVSPropertyOp13
 70
     1
102
RTVSPropertyOp14
 70
     1
102
RTVSPropertyOp15
 70
     1
102
RTVSPropertyOp16
 70
     1
102
RTVSPropertyOp17
 70
     1
102
RTVSPropertyOp18
 70
     1
102
RTVSPropertyOp19
 70
     1
102
RTVSPropertyOp20
 70
     1
102
RTVSPropertyOp21
 70
     1
102
RTVSPropertyOp22
 70
     1
102
RTVSPropertyOp23
 70
     1
102
RTVSPropertyOp24
 70
     1
102
RTVSPropertyOp25
 70
     1
102
RTVSPropertyOp26
 70
     1
102
RTVSPropertyOp27
 70
     1
102
RTVSPropertyOp28
 70
     1
102
RTVSPropertyOp29
 70
     1
102
RTVSPropertyOp30
 70
     1
102
RTVSPropertyOp31
 70
     1
102
RTVSPropertyOp32
 70
     1
102
RTVSPropertyOp33
 70
     1
102
RTVSPropertyOp34
 70
     1
102
RTVSPropertyOp35
 70
     1
102
RTVSPropertyOp36
 70
     1
102
RTVSPropertyOp37
 70
     1
102
RTVSPropertyOp38
 70
     1
102
RTVSPropertyOp39
 70
     1
102
RTVSPropertyOp40
 70
     1
102
RTVSPropertyOp41
 70
     1
102
RTVSPropertyOp42
 70
     1
102
RTVSPropertyOp43
 70
     1
102
RTVSPropertyOp44
 70
     1
102
RTVSPropertyOp45
 70
     1
102
RTVSPropertyOp46
 70
     1
102
RTVSPropertyOp47
 70
     1
102
RTVSPropertyOp48
 70
     1
102
RTVSPropertyOp49
 70
     1
102
RTVSPropertyOp50
 70
     1
102
RTVSPropertyOp51
 70
     0
102
RTVSPropertyOp52
 70
     0
102
RTVSPropertyOp53
 70
     1
102
RTVSPropertyOp54
 70
     1
102
RTVSPropertyOp55
 70
     1
102
RTVSPropertyOp56
 70
     1
102
RTVSPropertyOp57
 70
     1
102
RTVSPost2010Prop28
280
     0
102
RTVSPost2010PropOp28
 70
     1
102
RTVSPost2010Prop29
280
     1
102
RTVSPost2010PropOp29
 70
     1
102
RTVSPost2010Prop30
280
     1
102
RTVSPost2010PropOp30
 70
     1
102
RTVSPost2010Prop31
280
     0
102
RTVSPost2010PropOp31
 70
     1
102
RTVSPost2010Prop32
280
     0
102
RTVSPost2010PropOp32
 70
     1
102
RTVSPost2010Prop33
280
     0
102
RTVSPost2010PropOp33
 70
     1
102
RTVSPost2010Prop34
280
     0
102
RTVSPost2010PropOp34
 70
     1
102
RTVSPost2010Prop35
280
     0
102
RTVSPost2010PropOp35
 70
     1
102
RTVSPost2010Prop36
280
     0
102
RTVSPost2010PropOp36
 70
     1
102
RTVSPost2010Prop37
 90
       50
102
RTVSPost2010PropOp37
 70
     1
102
RTVSPost2010Prop38
140
0.0
102
RTVSPost2010PropOp38
 70
     1
102
RTVSPost2010Prop39
140
1.0
102
RTVSPost2010PropOp39
 70
     1
102
RTVSPost2010Prop40
 90
        0
102
RTVSPost2010PropOp40
 70
     1
102
RTVSPost2010Prop41ColorIndex
 90
       18
102
RTVSPost2010Prop41ColorRGB
 90
        0
102
RTVSPost2010PropOp41
 70
     1
102
RTVSPost2010Prop42
 90
       50
102
RTVSPost2010PropOp42
 70
     1
102
RTVSPost2010Prop43
 90
        3
102
RTVSPost2010PropOp43
 70
     1
102
RTVSPost2010Prop44ColorIndex
 90
        5
102
RTVSPost2010Prop44ColorRGB
 90
      255
102
RTVSPost2010PropOp44
 70
     1
102
RTVSPost2010Prop45
280
     0
102
RTVSPost2010PropOp45
 70
     1
102
RTVSPost2010Prop46
 90
       50
102
RTVSPost2010PropOp46
 70
     1
102
RTVSPost2010Prop47
 90
       50
102
RTVSPost2010PropOp47
 70
     1
102
RTVSPost2010Prop48
 90
       50
102
RTVSPost2010PropOp48
 70
     1
102
RTVSPost2010Prop49
280
     0
102
RTVSPost2010PropOp49
 70
     1
102
RTVSPost2010Prop50
 90
       50
102
RTVSPost2010PropOp50
 70
     1
102
RTVSPost2010Prop51ColorIndex
 90
      256
102
RTVSPost2010Prop51ColorRGB
 90
-16777216
102
RTVSPost2010PropOp51
 70
     0
102
RTVSPost2010Prop52
140
1.0
102
RTVSPost2010PropOp52
 70
     0
102
RTVSPost2010Prop53
 90
        2
102
RTVSPost2010PropOp53
 70
     1
102
RTVSPost2010Prop54
  1
strokes_ogs.tif
102
RTVSPost2010PropOp54
 70
     1
102
RTVSPost2010Prop55
280
     0
102
RTVSPost2010PropOp55
 70
     1
102
RTVSPost2010Prop56
140
1.0
102
RTVSPost2010PropOp56
 70
     1
102
RTVSPost2010Prop57
140
1.0
102
RTVSPost2010PropOp57
 70
     1
  0
XRECORD
  5
1EF
102
{ACAD_REACTORS
330
1EE
102
}
330
1EE
100
AcDbXrecord
280
     1
102
RTVSPropertyOp0
 70
     1
102
RTVSPropertyOp1
 70
     1
102
RTVSPropertyOp2
 70
     1
102
RTVSPropertyOp3
 70
     1
102
RTVSPropertyOp4
 70
     1
102
RTVSPropertyOp5
 70
     1
102
RTVSPropertyOp6
 70
     1
102
RTVSPropertyOp7
 70
     1
102
RTVSPropertyOp8
 70
     1
102
RTVSPropertyOp9
 70
     1
102
RTVSPropertyOp10
 70
     1
102
RTVSPropertyOp11
 70
     1
102
RTVSPropertyOp12
 70
     1
102
RTVSPropertyOp13
 70
     1
102
RTVSPropertyOp14
 70
     1
102
RTVSPropertyOp15
 70
     1
102
RTVSPropertyOp16
 70
     1
102
RTVSPropertyOp17
 70
     1
102
RTVSPropertyOp18
 70
     1
102
RTVSPropertyOp19
 70
     1
102
RTVSPropertyOp20
 70
     1
102
RTVSPropertyOp21
 70
     1
102
RTVSPropertyOp22
 70
     1
102
RTVSPropertyOp23
 70
     1
102
RTVSPropertyOp24
 70
     1
102
RTVSPropertyOp25
 70
     1
102
RTVSPropertyOp26
 70
     1
102
RTVSPropertyOp27
 70
     1
102
RTVSPropertyOp28
 70
     1
102
RTVSPropertyOp29
 70
     1
102
RTVSPropertyOp30
 70
     1
102
RTVSPropertyOp31
 70
     1
102
RTVSPropertyOp32
 70
     1
102
RTVSPropertyOp33
 70
     1
102
RTVSPropertyOp34
 70
     1
102
RTVSPropertyOp35
 70
     1
102
RTVSPropertyOp36
 70
     1
102
RTVSPropertyOp37
 70
     1
102
RTVSPropertyOp38
 70
     1
102
RTVSPropertyOp39
 70
     1
102
RTVSPropertyOp40
 70
     1
102
RTVSPropertyOp41
 70
     1
102
RTVSPropertyOp42
 70
     1
102
RTVSPropertyOp43
 70
     1
102
RTVSPropertyOp44
 70
     1
102
RTVSPropertyOp45
 70
     1
102
RTVSPropertyOp46
 70
     1
102
RTVSPropertyOp47
 70
     1
102
RTVSPropertyOp48
 70
     1
102
RTVSPropertyOp49
 70
     1
102
RTVSPropertyOp50
 70
     1
102
RTVSPropertyOp51
 70
     0
102
RTVSPropertyOp52
 70
     0
102
RTVSPropertyOp53
 70
     1
102
RTVSPropertyOp54
 70
     1
102
RTVSPropertyOp55
 70
     1
102
RTVSPropertyOp56
 70
     1
102
RTVSPropertyOp57
 70
     1
102
RTVSPost2010Prop28
280
     0
102
RTVSPost2010PropOp28
 70
     1
102
RTVSPost2010Prop29
280
     1
102
RTVSPost2010PropOp29
 70
     1
102
RTVSPost2010Prop30
280
     1
102
RTVSPost2010PropOp30
 70
     1
102
RTVSPost2010Prop31
280
     0
102
RTVSPost2010PropOp31
 70
     1
102
RTVSPost2010Prop32
280
     0
102
RTVSPost2010PropOp32
 70
     1
102
RTVSPost2010Prop33
280
     0
102
RTVSPost2010PropOp33
 70
     1
102
RTVSPost2010Prop34
280
     0
102
RTVSPost2010PropOp34
 70
     1
102
RTVSPost2010Prop35
280
     0
102
RTVSPost2010PropOp35
 70
     1
102
RTVSPost2010Prop36
280
     0
102
RTVSPost2010PropOp36
 70
     1
102
RTVSPost2010Prop37
 90
       50
102
RTVSPost2010PropOp37
 70
     1
102
RTVSPost2010Prop38
140
0.0
102
RTVSPost2010PropOp38
 70
     1
102
RTVSPost2010Prop39
140
1.0
102
RTVSPost2010PropOp39
 70
     1
102
RTVSPost2010Prop40
 90
        0
102
RTVSPost2010PropOp40
 70
     1
102
RTVSPost2010Prop41ColorIndex
 90
       18
102
RTVSPost2010Prop41ColorRGB
 90
        0
102
RTVSPost2010PropOp41
 70
     1
102
RTVSPost2010Prop42
 90
       50
102
RTVSPost2010PropOp42
 70
     1
102
RTVSPost2010Prop43
 90
        3
102
RTVSPost2010PropOp43
 70
     1
102
RTVSPost2010Prop44ColorIndex
 90
        5
102
RTVSPost2010Prop44ColorRGB
 90
      255
102
RTVSPost2010PropOp44
 70
     1
102
RTVSPost2010Prop45
280
     0
102
RTVSPost2010PropOp45
 70
     1
102
RTVSPost2010Prop46
 90
       50
102
RTVSPost2010PropOp46
 70
     1
102
RTVSPost2010Prop47
 90
       50
102
RTVSPost2010PropOp47
 70
     1
102
RTVSPost2010Prop48
 90
       50
102
RTVSPost2010PropOp48
 70
     1
102
RTVSPost2010Prop49
280
     0
102
RTVSPost2010PropOp49
 70
     1
102
RTVSPost2010Prop50
 90
       50
102
RTVSPost2010PropOp50
 70
     1
102
RTVSPost2010Prop51ColorIndex
 90
      256
102
RTVSPost2010Prop51ColorRGB
 90
-16777216
102
RTVSPost2010PropOp51
 70
     0
102
RTVSPost2010Prop52
140
1.0
102
RTVSPost2010PropOp52
 70
     0
102
RTVSPost2010Prop53
 90
        2
102
RTVSPost2010PropOp53
 70
     1
102
RTVSPost2010Prop54
  1
strokes_ogs.tif
102
RTVSPost2010PropOp54
 70
     1
102
RTVSPost2010Prop55
280
     0
102
RTVSPost2010PropOp55
 70
     1
102
RTVSPost2010Prop56
140
1.0
102
RTVSPost2010PropOp56
 70
     1
102
RTVSPost2010Prop57
140
1.0
102
RTVSPost2010PropOp57
 70
     1
  0
XRECORD
  5
1F1
102
{ACAD_REACTORS
330
1F0
102
}
330
1F0
100
AcDbXrecord
280
     1
102
RTVSPropertyOp0
 70
     1
102
RTVSPropertyOp1
 70
     1
102
RTVSPropertyOp2
 70
     1
102
RTVSPropertyOp3
 70
     1
102
RTVSPropertyOp4
 70
     1
102
RTVSPropertyOp5
 70
     1
102
RTVSPropertyOp6
 70
     1
102
RTVSPropertyOp7
 70
     1
102
RTVSPropertyOp8
 70
     1
102
RTVSPropertyOp9
 70
     1
102
RTVSPropertyOp10
 70
     1
102
RTVSPropertyOp11
 70
     1
102
RTVSPropertyOp12
 70
     1
102
RTVSPropertyOp13
 70
     1
102
RTVSPropertyOp14
 70
     1
102
RTVSPropertyOp15
 70
     1
102
RTVSPropertyOp16
 70
     1
102
RTVSPropertyOp17
 70
     1
102
RTVSPropertyOp18
 70
     1
102
RTVSPropertyOp19
 70
     1
102
RTVSPropertyOp20
 70
     1
102
RTVSPropertyOp21
 70
     1
102
RTVSPropertyOp22
 70
     1
102
RTVSPropertyOp23
 70
     1
102
RTVSPropertyOp24
 70
     1
102
RTVSPropertyOp25
 70
     1
102
RTVSPropertyOp26
 70
     1
102
RTVSPropertyOp27
 70
     1
102
RTVSPropertyOp28
 70
     1
102
RTVSPropertyOp29
 70
     1
102
RTVSPropertyOp30
 70
     1
102
RTVSPropertyOp31
 70
     1
102
RTVSPropertyOp32
 70
     1
102
RTVSPropertyOp33
 70
     1
102
RTVSPropertyOp34
 70
     1
102
RTVSPropertyOp35
 70
     1
102
RTVSPropertyOp36
 70
     1
102
RTVSPropertyOp37
 70
     1
102
RTVSPropertyOp38
 70
     1
102
RTVSPropertyOp39
 70
     1
102
RTVSPropertyOp40
 70
     1
102
RTVSPropertyOp41
 70
     1
102
RTVSPropertyOp42
 70
     1
102
RTVSPropertyOp43
 70
     1
102
RTVSPropertyOp44
 70
     1
102
RTVSPropertyOp45
 70
     1
102
RTVSPropertyOp46
 70
     1
102
RTVSPropertyOp47
 70
     1
102
RTVSPropertyOp48
 70
     1
102
RTVSPropertyOp49
 70
     1
102
RTVSPropertyOp50
 70
     1
102
RTVSPropertyOp51
 70
     0
102
RTVSPropertyOp52
 70
     0
102
RTVSPropertyOp53
 70
     1
102
RTVSPropertyOp54
 70
     1
102
RTVSPropertyOp55
 70
     1
102
RTVSPropertyOp56
 70
     1
102
RTVSPropertyOp57
 70
     1
102
RTVSPost2010Prop28
280
     0
102
RTVSPost2010PropOp28
 70
     1
102
RTVSPost2010Prop29
280
     1
102
RTVSPost2010PropOp29
 70
     1
102
RTVSPost2010Prop30
280
     1
102
RTVSPost2010PropOp30
 70
     1
102
RTVSPost2010Prop31
280
     0
102
RTVSPost2010PropOp31
 70
     1
102
RTVSPost2010Prop32
280
     0
102
RTVSPost2010PropOp32
 70
     1
102
RTVSPost2010Prop33
280
     0
102
RTVSPost2010PropOp33
 70
     1
102
RTVSPost2010Prop34
280
     0
102
RTVSPost2010PropOp34
 70
     1
102
RTVSPost2010Prop35
280
     0
102
RTVSPost2010PropOp35
 70
     1
102
RTVSPost2010Prop36
280
     0
102
RTVSPost2010PropOp36
 70
     1
102
RTVSPost2010Prop37
 90
       50
102
RTVSPost2010PropOp37
 70
     1
102
RTVSPost2010Prop38
140
0.0
102
RTVSPost2010PropOp38
 70
     1
102
RTVSPost2010Prop39
140
1.0
102
RTVSPost2010PropOp39
 70
     1
102
RTVSPost2010Prop40
 90
        0
102
RTVSPost2010PropOp40
 70
     1
102
RTVSPost2010Prop41ColorIndex
 90
       18
102
RTVSPost2010Prop41ColorRGB
 90
        0
102
RTVSPost2010PropOp41
 70
     1
102
RTVSPost2010Prop42
 90
       50
102
RTVSPost2010PropOp42
 70
     1
102
RTVSPost2010Prop43
 90
        3
102
RTVSPost2010PropOp43
 70
     1
102
RTVSPost2010Prop44ColorIndex
 90
        5
102
RTVSPost2010Prop44ColorRGB
 90
      255
102
RTVSPost2010PropOp44
 70
     1
102
RTVSPost2010Prop45
280
     0
102
RTVSPost2010PropOp45
 70
     1
102
RTVSPost2010Prop46
 90
       50
102
RTVSPost2010PropOp46
 70
     1
102
RTVSPost2010Prop47
 90
       50
102
RTVSPost2010PropOp47
 70
     1
102
RTVSPost2010Prop48
 90
       50
102
RTVSPost2010PropOp48
 70
     1
102
RTVSPost2010Prop49
280
     0
102
RTVSPost2010PropOp49
 70
     1
102
RTVSPost2010Prop50
 90
       50
102
RTVSPost2010PropOp50
 70
     1
102
RTVSPost2010Prop51ColorIndex
 90
      256
102
RTVSPost2010Prop51ColorRGB
 90
-16777216
102
RTVSPost2010PropOp51
 70
     0
102
RTVSPost2010Prop52
140
1.0
102
RTVSPost2010PropOp52
 70
     0
102
RTVSPost2010Prop53
 90
        2
102
RTVSPost2010PropOp53
 70
     1
102
RTVSPost2010Prop54
  1
strokes_ogs.tif
102
RTVSPost2010PropOp54
 70
     1
102
RTVSPost2010Prop55
280
     0
102
RTVSPost2010PropOp55
 70
     1
102
RTVSPost2010Prop56
140
1.0
102
RTVSPost2010PropOp56
 70
     1
102
RTVSPost2010Prop57
140
1.0
102
RTVSPost2010PropOp57
 70
     1
  0
XRECORD
  5
1F7
102
{ACAD_REACTORS
330
1F6
102
}
330
1F6
100
AcDbXrecord
280
     1
102
RTVSPropertyOp0
 70
     1
102
RTVSPropertyOp1
 70
     1
102
RTVSPropertyOp2
 70
     1
102
RTVSPropertyOp3
 70
     1
102
RTVSPropertyOp4
 70
     1
102
RTVSPropertyOp5
 70
     1
102
RTVSPropertyOp6
 70
     1
102
RTVSPropertyOp7
 70
     1
102
RTVSPropertyOp8
 70
     1
102
RTVSPropertyOp9
 70
     1
102
RTVSPropertyOp10
 70
     1
102
RTVSPropertyOp11
 70
     1
102
RTVSPropertyOp12
 70
     1
102
RTVSPropertyOp13
 70
     1
102
RTVSPropertyOp14
 70
     1
102
RTVSPropertyOp15
 70
     1
102
RTVSPropertyOp16
 70
     1
102
RTVSPropertyOp17
 70
     1
102
RTVSPropertyOp18
 70
     1
102
RTVSPropertyOp19
 70
     1
102
RTVSPropertyOp20
 70
     1
102
RTVSPropertyOp21
 70
     1
102
RTVSPropertyOp22
 70
     1
102
RTVSPropertyOp23
 70
     1
102
RTVSPropertyOp24
 70
     1
102
RTVSPropertyOp25
 70
     1
102
RTVSPropertyOp26
 70
     1
102
RTVSPropertyOp27
 70
     1
102
RTVSPropertyOp28
 70
     1
102
RTVSPropertyOp29
 70
     1
102
RTVSPropertyOp30
 70
     1
102
RTVSPropertyOp31
 70
     1
102
RTVSPropertyOp32
 70
     1
102
RTVSPropertyOp33
 70
     1
102
RTVSPropertyOp34
 70
     1
102
RTVSPropertyOp35
 70
     1
102
RTVSPropertyOp36
 70
     1
102
RTVSPropertyOp37
 70
     1
102
RTVSPropertyOp38
 70
     1
102
RTVSPropertyOp39
 70
     1
102
RTVSPropertyOp40
 70
     1
102
RTVSPropertyOp41
 70
     1
102
RTVSPropertyOp42
 70
     1
102
RTVSPropertyOp43
 70
     1
102
RTVSPropertyOp44
 70
     1
102
RTVSPropertyOp45
 70
     1
102
RTVSPropertyOp46
 70
     1
102
RTVSPropertyOp47
 70
     1
102
RTVSPropertyOp48
 70
     1
102
RTVSPropertyOp49
 70
     1
102
RTVSPropertyOp50
 70
     1
102
RTVSPropertyOp51
 70
     0
102
RTVSPropertyOp52
 70
     0
102
RTVSPropertyOp53
 70
     1
102
RTVSPropertyOp54
 70
     1
102
RTVSPropertyOp55
 70
     1
102
RTVSPropertyOp56
 70
     1
102
RTVSPropertyOp57
 70
     1
102
RTVSPost2010Prop28
280
     0
102
RTVSPost2010PropOp28
 70
     1
102
RTVSPost2010Prop29
280
     1
102
RTVSPost2010PropOp29
 70
     1
102
RTVSPost2010Prop30
280
     1
102
RTVSPost2010PropOp30
 70
     1
102
RTVSPost2010Prop31
280
     0
102
RTVSPost2010PropOp31
 70
     1
102
RTVSPost2010Prop32
280
     0
102
RTVSPost2010PropOp32
 70
     1
102
RTVSPost2010Prop33
280
     0
102
RTVSPost2010PropOp33
 70
     1
102
RTVSPost2010Prop34
280
     0
102
RTVSPost2010PropOp34
 70
     1
102
RTVSPost2010Prop35
280
     0
102
RTVSPost2010PropOp35
 70
     1
102
RTVSPost2010Prop36
280
     0
102
RTVSPost2010PropOp36
 70
     1
102
RTVSPost2010Prop37
 90
       50
102
RTVSPost2010PropOp37
 70
     1
102
RTVSPost2010Prop38
140
0.0
102
RTVSPost2010PropOp38
 70
     1
102
RTVSPost2010Prop39
140
1.0
102
RTVSPost2010PropOp39
 70
     1
102
RTVSPost2010Prop40
 90
        0
102
RTVSPost2010PropOp40
 70
     1
102
RTVSPost2010Prop41ColorIndex
 90
       18
102
RTVSPost2010Prop41ColorRGB
 90
        0
102
RTVSPost2010PropOp41
 70
     1
102
RTVSPost2010Prop42
 90
       50
102
RTVSPost2010PropOp42
 70
     1
102
RTVSPost2010Prop43
 90
        3
102
RTVSPost2010PropOp43
 70
     1
102
RTVSPost2010Prop44ColorIndex
 90
        5
102
RTVSPost2010Prop44ColorRGB
 90
      255
102
RTVSPost2010PropOp44
 70
     1
102
RTVSPost2010Prop45
280
     0
102
RTVSPost2010PropOp45
 70
     1
102
RTVSPost2010Prop46
 90
       50
102
RTVSPost2010PropOp46
 70
     1
102
RTVSPost2010Prop47
 90
       50
102
RTVSPost2010PropOp47
 70
     1
102
RTVSPost2010Prop48
 90
       50
102
RTVSPost2010PropOp48
 70
     1
102
RTVSPost2010Prop49
280
     0
102
RTVSPost2010PropOp49
 70
     1
102
RTVSPost2010Prop50
 90
       50
102
RTVSPost2010PropOp50
 70
     1
102
RTVSPost2010Prop51ColorIndex
 90
      256
102
RTVSPost2010Prop51ColorRGB
 90
-16777216
102
RTVSPost2010PropOp51
 70
     0
102
RTVSPost2010Prop52
140
1.0
102
RTVSPost2010PropOp52
 70
     0
102
RTVSPost2010Prop53
 90
        2
102
RTVSPost2010PropOp53
 70
     1
102
RTVSPost2010Prop54
  1
strokes_ogs.tif
102
RTVSPost2010PropOp54
 70
     1
102
RTVSPost2010Prop55
280
     0
102
RTVSPost2010PropOp55
 70
     1
102
RTVSPost2010Prop56
140
1.0
102
RTVSPost2010PropOp56
 70
     1
102
RTVSPost2010Prop57
140
1.0
102
RTVSPost2010PropOp57
 70
     1
  0
XRECORD
  5
20B
102
{ACAD_REACTORS
330
20A
102
}
330
20A
100
AcDbXrecord
280
     1
102
RTVSPropertyOp0
 70
     0
102
RTVSPropertyOp1
 70
     0
102
RTVSPropertyOp2
 70
     0
102
RTVSPropertyOp3
 70
     0
102
RTVSPropertyOp4
 70
     0
102
RTVSPropertyOp5
 70
     0
102
RTVSPropertyOp6
 70
     0
102
RTVSPropertyOp7
 70
     0
102
RTVSPropertyOp8
 70
     0
102
RTVSPropertyOp9
 70
     0
102
RTVSPropertyOp10
 70
     0
102
RTVSPropertyOp11
 70
     0
102
RTVSPropertyOp12
 70
     0
102
RTVSPropertyOp13
 70
     0
102
RTVSPropertyOp14
 70
     2
102
RTVSPropertyOp15
 70
     0
102
RTVSPropertyOp16
 70
     0
102
RTVSPropertyOp17
 70
     0
102
RTVSPropertyOp18
 70
     0
102
RTVSPropertyOp19
 70
     0
102
RTVSPropertyOp20
 70
     0
102
RTVSPropertyOp21
 70
     0
102
RTVSPropertyOp22
 70
     0
102
RTVSPropertyOp23
 70
     0
102
RTVSPropertyOp24
 70
     0
102
RTVSPropertyOp25
 70
     0
102
RTVSPropertyOp26
 70
     0
102
RTVSPropertyOp27
 70
     0
102
RTVSPropertyOp28
 70
     0
102
RTVSPropertyOp29
 70
     0
102
RTVSPropertyOp30
 70
     0
102
RTVSPropertyOp31
 70
     0
102
RTVSPropertyOp32
 70
     0
102
RTVSPropertyOp33
 70
     0
102
RTVSPropertyOp34
 70
     0
102
RTVSPropertyOp35
 70
     0
102
RTVSPropertyOp36
 70
     0
102
RTVSPropertyOp37
 70
     0
102
RTVSPropertyOp38
 70
     0
102
RTVSPropertyOp39
 70
     0
102
RTVSPropertyOp40
 70
     0
102
RTVSPropertyOp41
 70
     0
102
RTVSPropertyOp42
 70
     0
102
RTVSPropertyOp43
 70
     0
102
RTVSPropertyOp44
 70
     0
102
RTVSPropertyOp45
 70
     0
102
RTVSPropertyOp46
 70
     0
102
RTVSPropertyOp47
 70
     0
102
RTVSPropertyOp48
 70
     0
102
RTVSPropertyOp49
 70
     0
102
RTVSPropertyOp50
 70
     0
102
RTVSPropertyOp51
 70
     0
102
RTVSPropertyOp52
 70
     0
102
RTVSPropertyOp53
 70
     0
102
RTVSPropertyOp54
 70
     0
102
RTVSPropertyOp55
 70
     0
102
RTVSPropertyOp56
 70
     0
102
RTVSPropertyOp57
 70
     0
102
RTVSPost2010Prop28
280
     0
102
RTVSPost2010PropOp28
 70
     0
102
RTVSPost2010Prop29
280
     1
102
RTVSPost2010PropOp29
 70
     0
102
RTVSPost2010Prop30
280
     1
102
RTVSPost2010PropOp30
 70
     0
102
RTVSPost2010Prop31
280
     0
102
RTVSPost2010PropOp31
 70
     0
102
RTVSPost2010Prop32
280
     0
102
RTVSPost2010PropOp32
 70
     0
102
RTVSPost2010Prop33
280
     0
102
RTVSPost2010PropOp33
 70
     0
102
RTVSPost2010Prop34
280
     0
102
RTVSPost2010PropOp34
 70
     0
102
RTVSPost2010Prop35
280
     0
102
RTVSPost2010PropOp35
 70
     0
102
RTVSPost2010Prop36
280
     0
102
RTVSPost2010PropOp36
 70
     0
102
RTVSPost2010Prop37
 90
       50
102
RTVSPost2010PropOp37
 70
     0
102
RTVSPost2010Prop38
140
0.0
102
RTVSPost2010PropOp38
 70
     0
102
RTVSPost2010Prop39
140
1.0
102
RTVSPost2010PropOp39
 70
     0
102
RTVSPost2010Prop40
 90
        0
102
RTVSPost2010PropOp40
 70
     0
102
RTVSPost2010Prop41ColorIndex
 90
       18
102
RTVSPost2010Prop41ColorRGB
 90
        0
102
RTVSPost2010PropOp41
 70
     0
102
RTVSPost2010Prop42
 90
       50
102
RTVSPost2010PropOp42
 70
     0
102
RTVSPost2010Prop43
 90
        3
102
RTVSPost2010PropOp43
 70
     0
102
RTVSPost2010Prop44ColorIndex
 90
        5
102
RTVSPost2010Prop44ColorRGB
 90
      255
102
RTVSPost2010PropOp44
 70
     0
102
RTVSPost2010Prop45
280
     0
102
RTVSPost2010PropOp45
 70
     0
102
RTVSPost2010Prop46
 90
       50
102
RTVSPost2010PropOp46
 70
     0
102
RTVSPost2010Prop47
 90
       50
102
RTVSPost2010PropOp47
 70
     0
102
RTVSPost2010Prop48
 90
       50
102
RTVSPost2010PropOp48
 70
     0
102
RTVSPost2010Prop49
280
     0
102
RTVSPost2010PropOp49
 70
     0
102
RTVSPost2010Prop50
 90
       50
102
RTVSPost2010PropOp50
 70
     0
102
RTVSPost2010Prop51ColorIndex
 90
      256
102
RTVSPost2010Prop51ColorRGB
 90
-16777216
102
RTVSPost2010PropOp51
 70
     0
102
RTVSPost2010Prop52
140
1.0
102
RTVSPost2010PropOp52
 70
     0
102
RTVSPost2010Prop53
 90
        2
102
RTVSPost2010PropOp53
 70
     0
102
RTVSPost2010Prop54
  1
strokes_ogs.tif
102
RTVSPost2010PropOp54
 70
     0
102
RTVSPost2010Prop55
280
     0
102
RTVSPost2010PropOp55
 70
     0
102
RTVSPost2010Prop56
140
1.0
102
RTVSPost2010PropOp56
 70
     0
102
RTVSPost2010Prop57
140
1.0
102
RTVSPost2010PropOp57
 70
     0
  0
XRECORD
  5
205
102
{ACAD_REACTORS
330
204
102
}
330
204
100
AcDbXrecord
280
     1
102
RTVSPropertyOp0
 70
     1
102
RTVSPropertyOp1
 70
     1
102
RTVSPropertyOp2
 70
     1
102
RTVSPropertyOp3
 70
     1
102
RTVSPropertyOp4
 70
     1
102
RTVSPropertyOp5
 70
     1
102
RTVSPropertyOp6
 70
     1
102
RTVSPropertyOp7
 70
     1
102
RTVSPropertyOp8
 70
     1
102
RTVSPropertyOp9
 70
     1
102
RTVSPropertyOp10
 70
     1
102
RTVSPropertyOp11
 70
     1
102
RTVSPropertyOp12
 70
     1
102
RTVSPropertyOp13
 70
     1
102
RTVSPropertyOp14
 70
     1
102
RTVSPropertyOp15
 70
     1
102
RTVSPropertyOp16
 70
     1
102
RTVSPropertyOp17
 70
     1
102
RTVSPropertyOp18
 70
     1
102
RTVSPropertyOp19
 70
     1
102
RTVSPropertyOp20
 70
     1
102
RTVSPropertyOp21
 70
     1
102
RTVSPropertyOp22
 70
     1
102
RTVSPropertyOp23
 70
     1
102
RTVSPropertyOp24
 70
     1
102
RTVSPropertyOp25
 70
     1
102
RTVSPropertyOp26
 70
     1
102
RTVSPropertyOp27
 70
     1
102
RTVSPropertyOp28
 70
     1
102
RTVSPropertyOp29
 70
     1
102
RTVSPropertyOp30
 70
     1
102
RTVSPropertyOp31
 70
     1
102
RTVSPropertyOp32
 70
     1
102
RTVSPropertyOp33
 70
     1
102
RTVSPropertyOp34
 70
     1
102
RTVSPropertyOp35
 70
     1
102
RTVSPropertyOp36
 70
     1
102
RTVSPropertyOp37
 70
     1
102
RTVSPropertyOp38
 70
     1
102
RTVSPropertyOp39
 70
     1
102
RTVSPropertyOp40
 70
     1
102
RTVSPropertyOp41
 70
     1
102
RTVSPropertyOp42
 70
     1
102
RTVSPropertyOp43
 70
     1
102
RTVSPropertyOp44
 70
     1
102
RTVSPropertyOp45
 70
     1
102
RTVSPropertyOp46
 70
     1
102
RTVSPropertyOp47
 70
     1
102
RTVSPropertyOp48
 70
     1
102
RTVSPropertyOp49
 70
     1
102
RTVSPropertyOp50
 70
     1
102
RTVSPropertyOp51
 70
     0
102
RTVSPropertyOp52
 70
     0
102
RTVSPropertyOp53
 70
     1
102
RTVSPropertyOp54
 70
     1
102
RTVSPropertyOp55
 70
     1
102
RTVSPropertyOp56
 70
     1
102
RTVSPropertyOp57
 70
     1
102
RTVSPost2010Prop28
280
     0
102
RTVSPost2010PropOp28
 70
     1
102
RTVSPost2010Prop29
280
     1
102
RTVSPost2010PropOp29
 70
     1
102
RTVSPost2010Prop30
280
     1
102
RTVSPost2010PropOp30
 70
     1
102
RTVSPost2010Prop31
280
     0
102
RTVSPost2010PropOp31
 70
     1
102
RTVSPost2010Prop32
280
     0
102
RTVSPost2010PropOp32
 70
     1
102
RTVSPost2010Prop33
280
     0
102
RTVSPost2010PropOp33
 70
     1
102
RTVSPost2010Prop34
280
     0
102
RTVSPost2010PropOp34
 70
     1
102
RTVSPost2010Prop35
280
     0
102
RTVSPost2010PropOp35
 70
     1
102
RTVSPost2010Prop36
280
     0
102
RTVSPost2010PropOp36
 70
     1
102
RTVSPost2010Prop37
 90
       50
102
RTVSPost2010PropOp37
 70
     1
102
RTVSPost2010Prop38
140
0.0
102
RTVSPost2010PropOp38
 70
     1
102
RTVSPost2010Prop39
140
1.0
102
RTVSPost2010PropOp39
 70
     1
102
RTVSPost2010Prop40
 90
        0
102
RTVSPost2010PropOp40
 70
     1
102
RTVSPost2010Prop41ColorIndex
 90
       18
102
RTVSPost2010Prop41ColorRGB
 90
        0
102
RTVSPost2010PropOp41
 70
     1
102
RTVSPost2010Prop42
 90
       50
102
RTVSPost2010PropOp42
 70
     1
102
RTVSPost2010Prop43
 90
        3
102
RTVSPost2010PropOp43
 70
     1
102
RTVSPost2010Prop44ColorIndex
 90
        5
102
RTVSPost2010Prop44ColorRGB
 90
      255
102
RTVSPost2010PropOp44
 70
     1
102
RTVSPost2010Prop45
280
     0
102
RTVSPost2010PropOp45
 70
     1
102
RTVSPost2010Prop46
 90
       50
102
RTVSPost2010PropOp46
 70
     1
102
RTVSPost2010Prop47
 90
       50
102
RTVSPost2010PropOp47
 70
     1
102
RTVSPost2010Prop48
 90
       50
102
RTVSPost2010PropOp48
 70
     1
102
RTVSPost2010Prop49
280
     0
102
RTVSPost2010PropOp49
 70
     1
102
RTVSPost2010Prop50
 90
       50
102
RTVSPost2010PropOp50
 70
     1
102
RTVSPost2010Prop51ColorIndex
 90
      256
102
RTVSPost2010Prop51ColorRGB
 90
-16777216
102
RTVSPost2010PropOp51
 70
     0
102
RTVSPost2010Prop52
140
1.0
102
RTVSPost2010PropOp52
 70
     0
102
RTVSPost2010Prop53
 90
        2
102
RTVSPost2010PropOp53
 70
     1
102
RTVSPost2010Prop54
  1
strokes_ogs.tif
102
RTVSPost2010PropOp54
 70
     1
102
RTVSPost2010Prop55
280
     0
102
RTVSPost2010PropOp55
 70
     1
102
RTVSPost2010Prop56
140
1.0
102
RTVSPost2010PropOp56
 70
     1
102
RTVSPost2010Prop57
140
1.0
102
RTVSPost2010PropOp57
 70
     1
  0
XRECORD
  5
20D
102
{ACAD_REACTORS
330
20C
102
}
330
20C
100
AcDbXrecord
280
     1
102
RTVSPropertyOp0
 70
     0
102
RTVSPropertyOp1
 70
     0
102
RTVSPropertyOp2
 70
     0
102
RTVSPropertyOp3
 70
     0
102
RTVSPropertyOp4
 70
     0
102
RTVSPropertyOp5
 70
     0
102
RTVSPropertyOp6
 70
     0
102
RTVSPropertyOp7
 70
     0
102
RTVSPropertyOp8
 70
     0
102
RTVSPropertyOp9
 70
     0
102
RTVSPropertyOp10
 70
     0
102
RTVSPropertyOp11
 70
     0
102
RTVSPropertyOp12
 70
     0
102
RTVSPropertyOp13
 70
     0
102
RTVSPropertyOp14
 70
     2
102
RTVSPropertyOp15
 70
     0
102
RTVSPropertyOp16
 70
     0
102
RTVSPropertyOp17
 70
     0
102
RTVSPropertyOp18
 70
     0
102
RTVSPropertyOp19
 70
     0
102
RTVSPropertyOp20
 70
     0
102
RTVSPropertyOp21
 70
     0
102
RTVSPropertyOp22
 70
     0
102
RTVSPropertyOp23
 70
     0
102
RTVSPropertyOp24
 70
     0
102
RTVSPropertyOp25
 70
     0
102
RTVSPropertyOp26
 70
     0
102
RTVSPropertyOp27
 70
     0
102
RTVSPropertyOp28
 70
     0
102
RTVSPropertyOp29
 70
     0
102
RTVSPropertyOp30
 70
     0
102
RTVSPropertyOp31
 70
     0
102
RTVSPropertyOp32
 70
     0
102
RTVSPropertyOp33
 70
     0
102
RTVSPropertyOp34
 70
     0
102
RTVSPropertyOp35
 70
     0
102
RTVSPropertyOp36
 70
     0
102
RTVSPropertyOp37
 70
     0
102
RTVSPropertyOp38
 70
     0
102
RTVSPropertyOp39
 70
     0
102
RTVSPropertyOp40
 70
     0
102
RTVSPropertyOp41
 70
     0
102
RTVSPropertyOp42
 70
     0
102
RTVSPropertyOp43
 70
     0
102
RTVSPropertyOp44
 70
     0
102
RTVSPropertyOp45
 70
     0
102
RTVSPropertyOp46
 70
     0
102
RTVSPropertyOp47
 70
     0
102
RTVSPropertyOp48
 70
     0
102
RTVSPropertyOp49
 70
     0
102
RTVSPropertyOp50
 70
     0
102
RTVSPropertyOp51
 70
     0
102
RTVSPropertyOp52
 70
     0
102
RTVSPropertyOp53
 70
     0
102
RTVSPropertyOp54
 70
     0
102
RTVSPropertyOp55
 70
     0
102
RTVSPropertyOp56
 70
     0
102
RTVSPropertyOp57
 70
     0
102
RTVSPost2010Prop28
280
     0
102
RTVSPost2010PropOp28
 70
     0
102
RTVSPost2010Prop29
280
     1
102
RTVSPost2010PropOp29
 70
     0
102
RTVSPost2010Prop30
280
     1
102
RTVSPost2010PropOp30
 70
     0
102
RTVSPost2010Prop31
280
     0
102
RTVSPost2010PropOp31
 70
     0
102
RTVSPost2010Prop32
280
     0
102
RTVSPost2010PropOp32
 70
     0
102
RTVSPost2010Prop33
280
     0
102
RTVSPost2010PropOp33
 70
     0
102
RTVSPost2010Prop34
280
     0
102
RTVSPost2010PropOp34
 70
     0
102
RTVSPost2010Prop35
280
     0
102
RTVSPost2010PropOp35
 70
     0
102
RTVSPost2010Prop36
280
     0
102
RTVSPost2010PropOp36
 70
     0
102
RTVSPost2010Prop37
 90
       50
102
RTVSPost2010PropOp37
 70
     0
102
RTVSPost2010Prop38
140
0.0
102
RTVSPost2010PropOp38
 70
     0
102
RTVSPost2010Prop39
140
1.0
102
RTVSPost2010PropOp39
 70
     0
102
RTVSPost2010Prop40
 90
        0
102
RTVSPost2010PropOp40
 70
     0
102
RTVSPost2010Prop41ColorIndex
 90
       18
102
RTVSPost2010Prop41ColorRGB
 90
        0
102
RTVSPost2010PropOp41
 70
     0
102
RTVSPost2010Prop42
 90
       50
102
RTVSPost2010PropOp42
 70
     0
102
RTVSPost2010Prop43
 90
        3
102
RTVSPost2010PropOp43
 70
     0
102
RTVSPost2010Prop44ColorIndex
 90
        5
102
RTVSPost2010Prop44ColorRGB
 90
      255
102
RTVSPost2010PropOp44
 70
     0
102
RTVSPost2010Prop45
280
     0
102
RTVSPost2010PropOp45
 70
     0
102
RTVSPost2010Prop46
 90
       50
102
RTVSPost2010PropOp46
 70
     0
102
RTVSPost2010Prop47
 90
       50
102
RTVSPost2010PropOp47
 70
     0
102
RTVSPost2010Prop48
 90
       50
102
RTVSPost2010PropOp48
 70
     0
102
RTVSPost2010Prop49
280
     0
102
RTVSPost2010PropOp49
 70
     0
102
RTVSPost2010Prop50
 90
       50
102
RTVSPost2010PropOp50
 70
     0
102
RTVSPost2010Prop51ColorIndex
 90
      256
102
RTVSPost2010Prop51ColorRGB
 90
-16777216
102
RTVSPost2010PropOp51
 70
     0
102
RTVSPost2010Prop52
140
1.0
102
RTVSPost2010PropOp52
 70
     0
102
RTVSPost2010Prop53
 90
        2
102
RTVSPost2010PropOp53
 70
     0
102
RTVSPost2010Prop54
  1
strokes_ogs.tif
102
RTVSPost2010PropOp54
 70
     0
102
RTVSPost2010Prop55
280
     0
102
RTVSPost2010PropOp55
 70
     0
102
RTVSPost2010Prop56
140
1.0
102
RTVSPost2010PropOp56
 70
     0
102
RTVSPost2010Prop57
140
1.0
102
RTVSPost2010PropOp57
 70
     0
  0
XRECORD
  5
1FB
102
{ACAD_REACTORS
330
1FA
102
}
330
1FA
100
AcDbXrecord
280
     1
102
RTVSPropertyOp0
 70
     1
102
RTVSPropertyOp1
 70
     1
102
RTVSPropertyOp2
 70
     1
102
RTVSPropertyOp3
 70
     1
102
RTVSPropertyOp4
 70
     1
102
RTVSPropertyOp5
 70
     1
102
RTVSPropertyOp6
 70
     1
102
RTVSPropertyOp7
 70
     1
102
RTVSPropertyOp8
 70
     1
102
RTVSPropertyOp9
 70
     1
102
RTVSPropertyOp10
 70
     1
102
RTVSPropertyOp11
 70
     1
102
RTVSPropertyOp12
 70
     1
102
RTVSPropertyOp13
 70
     1
102
RTVSPropertyOp14
 70
     1
102
RTVSPropertyOp15
 70
     1
102
RTVSPropertyOp16
 70
     1
102
RTVSPropertyOp17
 70
     1
102
RTVSPropertyOp18
 70
     1
102
RTVSPropertyOp19
 70
     1
102
RTVSPropertyOp20
 70
     1
102
RTVSPropertyOp21
 70
     1
102
RTVSPropertyOp22
 70
     1
102
RTVSPropertyOp23
 70
     1
102
RTVSPropertyOp24
 70
     1
102
RTVSPropertyOp25
 70
     1
102
RTVSPropertyOp26
 70
     1
102
RTVSPropertyOp27
 70
     1
102
RTVSPropertyOp28
 70
     1
102
RTVSPropertyOp29
 70
     1
102
RTVSPropertyOp30
 70
     1
102
RTVSPropertyOp31
 70
     1
102
RTVSPropertyOp32
 70
     1
102
RTVSPropertyOp33
 70
     1
102
RTVSPropertyOp34
 70
     1
102
RTVSPropertyOp35
 70
     1
102
RTVSPropertyOp36
 70
     1
102
RTVSPropertyOp37
 70
     1
102
RTVSPropertyOp38
 70
     1
102
RTVSPropertyOp39
 70
     1
102
RTVSPropertyOp40
 70
     1
102
RTVSPropertyOp41
 70
     1
102
RTVSPropertyOp42
 70
     1
102
RTVSPropertyOp43
 70
     1
102
RTVSPropertyOp44
 70
     1
102
RTVSPropertyOp45
 70
     1
102
RTVSPropertyOp46
 70
     1
102
RTVSPropertyOp47
 70
     1
102
RTVSPropertyOp48
 70
     1
102
RTVSPropertyOp49
 70
     1
102
RTVSPropertyOp50
 70
     1
102
RTVSPropertyOp51
 70
     0
102
RTVSPropertyOp52
 70
     0
102
RTVSPropertyOp53
 70
     1
102
RTVSPropertyOp54
 70
     1
102
RTVSPropertyOp55
 70
     1
102
RTVSPropertyOp56
 70
     1
102
RTVSPropertyOp57
 70
     1
102
RTVSPost2010Prop28
280
     0
102
RTVSPost2010PropOp28
 70
     1
102
RTVSPost2010Prop29
280
     1
102
RTVSPost2010PropOp29
 70
     1
102
RTVSPost2010Prop30
280
     1
102
RTVSPost2010PropOp30
 70
     1
102
RTVSPost2010Prop31
280
     0
102
RTVSPost2010PropOp31
 70
     1
102
RTVSPost2010Prop32
280
     0
102
RTVSPost2010PropOp32
 70
     1
102
RTVSPost2010Prop33
280
     0
102
RTVSPost2010PropOp33
 70
     1
102
RTVSPost2010Prop34
280
     0
102
RTVSPost2010PropOp34
 70
     1
102
RTVSPost2010Prop35
280
     0
102
RTVSPost2010PropOp35
 70
     1
102
RTVSPost2010Prop36
280
     0
102
RTVSPost2010PropOp36
 70
     1
102
RTVSPost2010Prop37
 90
       50
102
RTVSPost2010PropOp37
 70
     1
102
RTVSPost2010Prop38
140
0.0
102
RTVSPost2010PropOp38
 70
     1
102
RTVSPost2010Prop39
140
1.0
102
RTVSPost2010PropOp39
 70
     1
102
RTVSPost2010Prop40
 90
        0
102
RTVSPost2010PropOp40
 70
     1
102
RTVSPost2010Prop41ColorIndex
 90
       18
102
RTVSPost2010Prop41ColorRGB
 90
        0
102
RTVSPost2010PropOp41
 70
     1
102
RTVSPost2010Prop42
 90
       50
102
RTVSPost2010PropOp42
 70
     1
102
RTVSPost2010Prop43
 90
        3
102
RTVSPost2010PropOp43
 70
     1
102
RTVSPost2010Prop44ColorIndex
 90
        5
102
RTVSPost2010Prop44ColorRGB
 90
      255
102
RTVSPost2010PropOp44
 70
     1
102
RTVSPost2010Prop45
280
     0
102
RTVSPost2010PropOp45
 70
     1
102
RTVSPost2010Prop46
 90
       50
102
RTVSPost2010PropOp46
 70
     1
102
RTVSPost2010Prop47
 90
       50
102
RTVSPost2010PropOp47
 70
     1
102
RTVSPost2010Prop48
 90
       50
102
RTVSPost2010PropOp48
 70
     1
102
RTVSPost2010Prop49
280
     0
102
RTVSPost2010PropOp49
 70
     1
102
RTVSPost2010Prop50
 90
       50
102
RTVSPost2010PropOp50
 70
     1
102
RTVSPost2010Prop51ColorIndex
 90
      256
102
RTVSPost2010Prop51ColorRGB
 90
-16777216
102
RTVSPost2010PropOp51
 70
     0
102
RTVSPost2010Prop52
140
1.0
102
RTVSPost2010PropOp52
 70
     0
102
RTVSPost2010Prop53
 90
        2
102
RTVSPost2010PropOp53
 70
     1
102
RTVSPost2010Prop54
  1
strokes_ogs.tif
102
RTVSPost2010PropOp54
 70
     1
102
RTVSPost2010Prop55
280
     0
102
RTVSPost2010PropOp55
 70
     1
102
RTVSPost2010Prop56
140
1.0
102
RTVSPost2010PropOp56
 70
     1
102
RTVSPost2010Prop57
140
1.0
102
RTVSPost2010PropOp57
 70
     1
  0
XRECORD
  5
219
102
{ACAD_REACTORS
330
218
102
}
330
218
100
AcDbXrecord
280
     1
102
RTVSPropertyOp0
 70
     1
102
RTVSPropertyOp1
 70
     1
102
RTVSPropertyOp2
 70
     1
102
RTVSPropertyOp3
 70
     1
102
RTVSPropertyOp4
 70
     1
102
RTVSPropertyOp5
 70
     1
102
RTVSPropertyOp6
 70
     1
102
RTVSPropertyOp7
 70
     1
102
RTVSPropertyOp8
 70
     1
102
RTVSPropertyOp9
 70
     1
102
RTVSPropertyOp10
 70
     1
102
RTVSPropertyOp11
 70
     1
102
RTVSPropertyOp12
 70
     1
102
RTVSPropertyOp13
 70
     1
102
RTVSPropertyOp14
 70
     1
102
RTVSPropertyOp15
 70
     1
102
RTVSPropertyOp16
 70
     1
102
RTVSPropertyOp17
 70
     1
102
RTVSPropertyOp18
 70
     1
102
RTVSPropertyOp19
 70
     1
102
RTVSPropertyOp20
 70
     1
102
RTVSPropertyOp21
 70
     1
102
RTVSPropertyOp22
 70
     1
102
RTVSPropertyOp23
 70
     1
102
RTVSPropertyOp24
 70
     1
102
RTVSPropertyOp25
 70
     1
102
RTVSPropertyOp26
 70
     1
102
RTVSPropertyOp27
 70
     1
102
RTVSPropertyOp28
 70
     1
102
RTVSPropertyOp29
 70
     1
102
RTVSPropertyOp30
 70
     1
102
RTVSPropertyOp31
 70
     1
102
RTVSPropertyOp32
 70
     1
102
RTVSPropertyOp33
 70
     1
102
RTVSPropertyOp34
 70
     1
102
RTVSPropertyOp35
 70
     1
102
RTVSPropertyOp36
 70
     1
102
RTVSPropertyOp37
 70
     1
102
RTVSPropertyOp38
 70
     1
102
RTVSPropertyOp39
 70
     1
102
RTVSPropertyOp40
 70
     1
102
RTVSPropertyOp41
 70
     1
102
RTVSPropertyOp42
 70
     1
102
RTVSPropertyOp43
 70
     1
102
RTVSPropertyOp44
 70
     1
102
RTVSPropertyOp45
 70
     1
102
RTVSPropertyOp46
 70
     1
102
RTVSPropertyOp47
 70
     1
102
RTVSPropertyOp48
 70
     1
102
RTVSPropertyOp49
 70
     1
102
RTVSPropertyOp50
 70
     1
102
RTVSPropertyOp51
 70
     0
102
RTVSPropertyOp52
 70
     0
102
RTVSPropertyOp53
 70
     1
102
RTVSPropertyOp54
 70
     1
102
RTVSPropertyOp55
 70
     1
102
RTVSPropertyOp56
 70
     1
102
RTVSPropertyOp57
 70
     1
102
RTVSPost2010Prop28
280
     0
102
RTVSPost2010PropOp28
 70
     1
102
RTVSPost2010Prop29
280
     1
102
RTVSPost2010PropOp29
 70
     1
102
RTVSPost2010Prop30
280
     1
102
RTVSPost2010PropOp30
 70
     1
102
RTVSPost2010Prop31
280
     0
102
RTVSPost2010PropOp31
 70
     1
102
RTVSPost2010Prop32
280
     0
102
RTVSPost2010PropOp32
 70
     1
102
RTVSPost2010Prop33
280
     0
102
RTVSPost2010PropOp33
 70
     1
102
RTVSPost2010Prop34
280
     0
102
RTVSPost2010PropOp34
 70
     1
102
RTVSPost2010Prop35
280
     0
102
RTVSPost2010PropOp35
 70
     1
102
RTVSPost2010Prop36
280
     0
102
RTVSPost2010PropOp36
 70
     1
102
RTVSPost2010Prop37
 90
       50
102
RTVSPost2010PropOp37
 70
     1
102
RTVSPost2010Prop38
140
0.0
102
RTVSPost2010PropOp38
 70
     1
102
RTVSPost2010Prop39
140
1.0
102
RTVSPost2010PropOp39
 70
     1
102
RTVSPost2010Prop40
 90
        0
102
RTVSPost2010PropOp40
 70
     1
102
RTVSPost2010Prop41ColorIndex
 90
       18
102
RTVSPost2010Prop41ColorRGB
 90
        0
102
RTVSPost2010PropOp41
 70
     1
102
RTVSPost2010Prop42
 90
       50
102
RTVSPost2010PropOp42
 70
     1
102
RTVSPost2010Prop43
 90
        3
102
RTVSPost2010PropOp43
 70
     1
102
RTVSPost2010Prop44ColorIndex
 90
        5
102
RTVSPost2010Prop44ColorRGB
 90
      255
102
RTVSPost2010PropOp44
 70
     1
102
RTVSPost2010Prop45
280
     0
102
RTVSPost2010PropOp45
 70
     1
102
RTVSPost2010Prop46
 90
       50
102
RTVSPost2010PropOp46
 70
     1
102
RTVSPost2010Prop47
 90
       50
102
RTVSPost2010PropOp47
 70
     1
102
RTVSPost2010Prop48
 90
       50
102
RTVSPost2010PropOp48
 70
     1
102
RTVSPost2010Prop49
280
     0
102
RTVSPost2010PropOp49
 70
     1
102
RTVSPost2010Prop50
 90
       50
102
RTVSPost2010PropOp50
 70
     1
102
RTVSPost2010Prop51ColorIndex
 90
      256
102
RTVSPost2010Prop51ColorRGB
 90
-16777216
102
RTVSPost2010PropOp51
 70
     0
102
RTVSPost2010Prop52
140
1.0
102
RTVSPost2010PropOp52
 70
     0
102
RTVSPost2010Prop53
 90
        2
102
RTVSPost2010PropOp53
 70
     1
102
RTVSPost2010Prop54
  1
strokes_ogs.tif
102
RTVSPost2010PropOp54
 70
     1
102
RTVSPost2010Prop55
280
     0
102
RTVSPost2010PropOp55
 70
     1
102
RTVSPost2010Prop56
140
1.0
102
RTVSPost2010PropOp56
 70
     1
102
RTVSPost2010Prop57
140
1.0
102
RTVSPost2010PropOp57
 70
     1
  0
XRECORD
  5
217
102
{ACAD_REACTORS
330
216
102
}
330
216
100
AcDbXrecord
280
     1
102
RTVSPropertyOp0
 70
     1
102
RTVSPropertyOp1
 70
     1
102
RTVSPropertyOp2
 70
     1
102
RTVSPropertyOp3
 70
     1
102
RTVSPropertyOp4
 70
     1
102
RTVSPropertyOp5
 70
     1
102
RTVSPropertyOp6
 70
     1
102
RTVSPropertyOp7
 70
     1
102
RTVSPropertyOp8
 70
     1
102
RTVSPropertyOp9
 70
     1
102
RTVSPropertyOp10
 70
     1
102
RTVSPropertyOp11
 70
     1
102
RTVSPropertyOp12
 70
     1
102
RTVSPropertyOp13
 70
     1
102
RTVSPropertyOp14
 70
     1
102
RTVSPropertyOp15
 70
     1
102
RTVSPropertyOp16
 70
     1
102
RTVSPropertyOp17
 70
     1
102
RTVSPropertyOp18
 70
     1
102
RTVSPropertyOp19
 70
     1
102
RTVSPropertyOp20
 70
     1
102
RTVSPropertyOp21
 70
     1
102
RTVSPropertyOp22
 70
     1
102
RTVSPropertyOp23
 70
     1
102
RTVSPropertyOp24
 70
     1
102
RTVSPropertyOp25
 70
     1
102
RTVSPropertyOp26
 70
     1
102
RTVSPropertyOp27
 70
     1
102
RTVSPropertyOp28
 70
     1
102
RTVSPropertyOp29
 70
     1
102
RTVSPropertyOp30
 70
     1
102
RTVSPropertyOp31
 70
     1
102
RTVSPropertyOp32
 70
     1
102
RTVSPropertyOp33
 70
     1
102
RTVSPropertyOp34
 70
     1
102
RTVSPropertyOp35
 70
     1
102
RTVSPropertyOp36
 70
     1
102
RTVSPropertyOp37
 70
     1
102
RTVSPropertyOp38
 70
     1
102
RTVSPropertyOp39
 70
     1
102
RTVSPropertyOp40
 70
     1
102
RTVSPropertyOp41
 70
     1
102
RTVSPropertyOp42
 70
     1
102
RTVSPropertyOp43
 70
     1
102
RTVSPropertyOp44
 70
     1
102
RTVSPropertyOp45
 70
     1
102
RTVSPropertyOp46
 70
     1
102
RTVSPropertyOp47
 70
     1
102
RTVSPropertyOp48
 70
     1
102
RTVSPropertyOp49
 70
     1
102
RTVSPropertyOp50
 70
     1
102
RTVSPropertyOp51
 70
     0
102
RTVSPropertyOp52
 70
     0
102
RTVSPropertyOp53
 70
     1
102
RTVSPropertyOp54
 70
     1
102
RTVSPropertyOp55
 70
     1
102
RTVSPropertyOp56
 70
     1
102
RTVSPropertyOp57
 70
     1
102
RTVSPost2010Prop28
280
     0
102
RTVSPost2010PropOp28
 70
     1
102
RTVSPost2010Prop29
280
     1
102
RTVSPost2010PropOp29
 70
     1
102
RTVSPost2010Prop30
280
     1
102
RTVSPost2010PropOp30
 70
     1
102
RTVSPost2010Prop31
280
     0
102
RTVSPost2010PropOp31
 70
     1
102
RTVSPost2010Prop32
280
     0
102
RTVSPost2010PropOp32
 70
     1
102
RTVSPost2010Prop33
280
     0
102
RTVSPost2010PropOp33
 70
     1
102
RTVSPost2010Prop34
280
     0
102
RTVSPost2010PropOp34
 70
     1
102
RTVSPost2010Prop35
280
     0
102
RTVSPost2010PropOp35
 70
     1
102
RTVSPost2010Prop36
280
     0
102
RTVSPost2010PropOp36
 70
     1
102
RTVSPost2010Prop37
 90
       50
102
RTVSPost2010PropOp37
 70
     1
102
RTVSPost2010Prop38
140
0.0
102
RTVSPost2010PropOp38
 70
     1
102
RTVSPost2010Prop39
140
1.0
102
RTVSPost2010PropOp39
 70
     1
102
RTVSPost2010Prop40
 90
        0
102
RTVSPost2010PropOp40
 70
     1
102
RTVSPost2010Prop41ColorIndex
 90
       18
102
RTVSPost2010Prop41ColorRGB
 90
        0
102
RTVSPost2010PropOp41
 70
     1
102
RTVSPost2010Prop42
 90
       50
102
RTVSPost2010PropOp42
 70
     1
102
RTVSPost2010Prop43
 90
        3
102
RTVSPost2010PropOp43
 70
     1
102
RTVSPost2010Prop44ColorIndex
 90
        5
102
RTVSPost2010Prop44ColorRGB
 90
      255
102
RTVSPost2010PropOp44
 70
     1
102
RTVSPost2010Prop45
280
     0
102
RTVSPost2010PropOp45
 70
     1
102
RTVSPost2010Prop46
 90
       50
102
RTVSPost2010PropOp46
 70
     1
102
RTVSPost2010Prop47
 90
       50
102
RTVSPost2010PropOp47
 70
     1
102
RTVSPost2010Prop48
 90
       50
102
RTVSPost2010PropOp48
 70
     1
102
RTVSPost2010Prop49
280
     0
102
RTVSPost2010PropOp49
 70
     1
102
RTVSPost2010Prop50
 90
       50
102
RTVSPost2010PropOp50
 70
     1
102
RTVSPost2010Prop51ColorIndex
 90
      256
102
RTVSPost2010Prop51ColorRGB
 90
-16777216
102
RTVSPost2010PropOp51
 70
     0
102
RTVSPost2010Prop52
140
1.0
102
RTVSPost2010PropOp52
 70
     0
102
RTVSPost2010Prop53
 90
        2
102
RTVSPost2010PropOp53
 70
     1
102
RTVSPost2010Prop54
  1
strokes_ogs.tif
102
RTVSPost2010PropOp54
 70
     1
102
RTVSPost2010Prop55
280
     0
102
RTVSPost2010PropOp55
 70
     1
102
RTVSPost2010Prop56
140
1.0
102
RTVSPost2010PropOp56
 70
     1
102
RTVSPost2010Prop57
140
1.0
102
RTVSPost2010PropOp57
 70
     1
  0
XRECORD
  5
211
102
{ACAD_REACTORS
330
210
102
}
330
210
100
AcDbXrecord
280
     1
102
RTVSPropertyOp0
 70
     1
102
RTVSPropertyOp1
 70
     1
102
RTVSPropertyOp2
 70
     1
102
RTVSPropertyOp3
 70
     1
102
RTVSPropertyOp4
 70
     1
102
RTVSPropertyOp5
 70
     1
102
RTVSPropertyOp6
 70
     1
102
RTVSPropertyOp7
 70
     1
102
RTVSPropertyOp8
 70
     1
102
RTVSPropertyOp9
 70
     1
102
RTVSPropertyOp10
 70
     1
102
RTVSPropertyOp11
 70
     1
102
RTVSPropertyOp12
 70
     1
102
RTVSPropertyOp13
 70
     1
102
RTVSPropertyOp14
 70
     1
102
RTVSPropertyOp15
 70
     1
102
RTVSPropertyOp16
 70
     1
102
RTVSPropertyOp17
 70
     1
102
RTVSPropertyOp18
 70
     1
102
RTVSPropertyOp19
 70
     1
102
RTVSPropertyOp20
 70
     1
102
RTVSPropertyOp21
 70
     1
102
RTVSPropertyOp22
 70
     1
102
RTVSPropertyOp23
 70
     1
102
RTVSPropertyOp24
 70
     1
102
RTVSPropertyOp25
 70
     1
102
RTVSPropertyOp26
 70
     1
102
RTVSPropertyOp27
 70
     1
102
RTVSPropertyOp28
 70
     1
102
RTVSPropertyOp29
 70
     1
102
RTVSPropertyOp30
 70
     1
102
RTVSPropertyOp31
 70
     1
102
RTVSPropertyOp32
 70
     1
102
RTVSPropertyOp33
 70
     1
102
RTVSPropertyOp34
 70
     1
102
RTVSPropertyOp35
 70
     1
102
RTVSPropertyOp36
 70
     1
102
RTVSPropertyOp37
 70
     1
102
RTVSPropertyOp38
 70
     1
102
RTVSPropertyOp39
 70
     1
102
RTVSPropertyOp40
 70
     1
102
RTVSPropertyOp41
 70
     1
102
RTVSPropertyOp42
 70
     1
102
RTVSPropertyOp43
 70
     1
102
RTVSPropertyOp44
 70
     1
102
RTVSPropertyOp45
 70
     1
102
RTVSPropertyOp46
 70
     1
102
RTVSPropertyOp47
 70
     1
102
RTVSPropertyOp48
 70
     1
102
RTVSPropertyOp49
 70
     1
102
RTVSPropertyOp50
 70
     1
102
RTVSPropertyOp51
 70
     0
102
RTVSPropertyOp52
 70
     0
102
RTVSPropertyOp53
 70
     1
102
RTVSPropertyOp54
 70
     1
102
RTVSPropertyOp55
 70
     1
102
RTVSPropertyOp56
 70
     1
102
RTVSPropertyOp57
 70
     1
102
RTVSPost2010Prop28
280
     0
102
RTVSPost2010PropOp28
 70
     1
102
RTVSPost2010Prop29
280
     1
102
RTVSPost2010PropOp29
 70
     1
102
RTVSPost2010Prop30
280
     1
102
RTVSPost2010PropOp30
 70
     1
102
RTVSPost2010Prop31
280
     0
102
RTVSPost2010PropOp31
 70
     1
102
RTVSPost2010Prop32
280
     0
102
RTVSPost2010PropOp32
 70
     1
102
RTVSPost2010Prop33
280
     0
102
RTVSPost2010PropOp33
 70
     1
102
RTVSPost2010Prop34
280
     0
102
RTVSPost2010PropOp34
 70
     1
102
RTVSPost2010Prop35
280
     0
102
RTVSPost2010PropOp35
 70
     1
102
RTVSPost2010Prop36
280
     0
102
RTVSPost2010PropOp36
 70
     1
102
RTVSPost2010Prop37
 90
       50
102
RTVSPost2010PropOp37
 70
     1
102
RTVSPost2010Prop38
140
0.0
102
RTVSPost2010PropOp38
 70
     1
102
RTVSPost2010Prop39
140
1.0
102
RTVSPost2010PropOp39
 70
     1
102
RTVSPost2010Prop40
 90
        0
102
RTVSPost2010PropOp40
 70
     1
102
RTVSPost2010Prop41ColorIndex
 90
       18
102
RTVSPost2010Prop41ColorRGB
 90
        0
102
RTVSPost2010PropOp41
 70
     1
102
RTVSPost2010Prop42
 90
       50
102
RTVSPost2010PropOp42
 70
     1
102
RTVSPost2010Prop43
 90
        3
102
RTVSPost2010PropOp43
 70
     1
102
RTVSPost2010Prop44ColorIndex
 90
        5
102
RTVSPost2010Prop44ColorRGB
 90
      255
102
RTVSPost2010PropOp44
 70
     1
102
RTVSPost2010Prop45
280
     0
102
RTVSPost2010PropOp45
 70
     1
102
RTVSPost2010Prop46
 90
       50
102
RTVSPost2010PropOp46
 70
     1
102
RTVSPost2010Prop47
 90
       50
102
RTVSPost2010PropOp47
 70
     1
102
RTVSPost2010Prop48
 90
       50
102
RTVSPost2010PropOp48
 70
     1
102
RTVSPost2010Prop49
280
     0
102
RTVSPost2010PropOp49
 70
     1
102
RTVSPost2010Prop50
 90
       50
102
RTVSPost2010PropOp50
 70
     1
102
RTVSPost2010Prop51ColorIndex
 90
      256
102
RTVSPost2010Prop51ColorRGB
 90
-16777216
102
RTVSPost2010PropOp51
 70
     0
102
RTVSPost2010Prop52
140
1.0
102
RTVSPost2010PropOp52
 70
     0
102
RTVSPost2010Prop53
 90
        2
102
RTVSPost2010PropOp53
 70
     1
102
RTVSPost2010Prop54
  1
strokes_ogs.tif
102
RTVSPost2010PropOp54
 70
     1
102
RTVSPost2010Prop55
280
     0
102
RTVSPost2010PropOp55
 70
     1
102
RTVSPost2010Prop56
140
1.0
102
RTVSPost2010PropOp56
 70
     1
102
RTVSPost2010Prop57
140
1.0
102
RTVSPost2010PropOp57
 70
     1
  0
XRECORD
  5
213
102
{ACAD_REACTORS
330
212
102
}
330
212
100
AcDbXrecord
280
     1
102
RTVSPropertyOp0
 70
     1
102
RTVSPropertyOp1
 70
     1
102
RTVSPropertyOp2
 70
     1
102
RTVSPropertyOp3
 70
     1
102
RTVSPropertyOp4
 70
     1
102
RTVSPropertyOp5
 70
     1
102
RTVSPropertyOp6
 70
     1
102
RTVSPropertyOp7
 70
     1
102
RTVSPropertyOp8
 70
     1
102
RTVSPropertyOp9
 70
     1
102
RTVSPropertyOp10
 70
     1
102
RTVSPropertyOp11
 70
     1
102
RTVSPropertyOp12
 70
     1
102
RTVSPropertyOp13
 70
     1
102
RTVSPropertyOp14
 70
     1
102
RTVSPropertyOp15
 70
     1
102
RTVSPropertyOp16
 70
     1
102
RTVSPropertyOp17
 70
     1
102
RTVSPropertyOp18
 70
     1
102
RTVSPropertyOp19
 70
     1
102
RTVSPropertyOp20
 70
     1
102
RTVSPropertyOp21
 70
     1
102
RTVSPropertyOp22
 70
     1
102
RTVSPropertyOp23
 70
     1
102
RTVSPropertyOp24
 70
     1
102
RTVSPropertyOp25
 70
     1
102
RTVSPropertyOp26
 70
     1
102
RTVSPropertyOp27
 70
     1
102
RTVSPropertyOp28
 70
     1
102
RTVSPropertyOp29
 70
     1
102
RTVSPropertyOp30
 70
     1
102
RTVSPropertyOp31
 70
     1
102
RTVSPropertyOp32
 70
     1
102
RTVSPropertyOp33
 70
     1
102
RTVSPropertyOp34
 70
     1
102
RTVSPropertyOp35
 70
     1
102
RTVSPropertyOp36
 70
     1
102
RTVSPropertyOp37
 70
     1
102
RTVSPropertyOp38
 70
     1
102
RTVSPropertyOp39
 70
     1
102
RTVSPropertyOp40
 70
     1
102
RTVSPropertyOp41
 70
     1
102
RTVSPropertyOp42
 70
     1
102
RTVSPropertyOp43
 70
     1
102
RTVSPropertyOp44
 70
     1
102
RTVSPropertyOp45
 70
     1
102
RTVSPropertyOp46
 70
     1
102
RTVSPropertyOp47
 70
     1
102
RTVSPropertyOp48
 70
     1
102
RTVSPropertyOp49
 70
     1
102
RTVSPropertyOp50
 70
     1
102
RTVSPropertyOp51
 70
     0
102
RTVSPropertyOp52
 70
     0
102
RTVSPropertyOp53
 70
     1
102
RTVSPropertyOp54
 70
     1
102
RTVSPropertyOp55
 70
     1
102
RTVSPropertyOp56
 70
     1
102
RTVSPropertyOp57
 70
     1
102
RTVSPost2010Prop28
280
     0
102
RTVSPost2010PropOp28
 70
     1
102
RTVSPost2010Prop29
280
     1
102
RTVSPost2010PropOp29
 70
     1
102
RTVSPost2010Prop30
280
     1
102
RTVSPost2010PropOp30
 70
     1
102
RTVSPost2010Prop31
280
     0
102
RTVSPost2010PropOp31
 70
     1
102
RTVSPost2010Prop32
280
     0
102
RTVSPost2010PropOp32
 70
     1
102
RTVSPost2010Prop33
280
     0
102
RTVSPost2010PropOp33
 70
     1
102
RTVSPost2010Prop34
280
     0
102
RTVSPost2010PropOp34
 70
     1
102
RTVSPost2010Prop35
280
     0
102
RTVSPost2010PropOp35
 70
     1
102
RTVSPost2010Prop36
280
     0
102
RTVSPost2010PropOp36
 70
     1
102
RTVSPost2010Prop37
 90
       50
102
RTVSPost2010PropOp37
 70
     1
102
RTVSPost2010Prop38
140
0.0
102
RTVSPost2010PropOp38
 70
     1
102
RTVSPost2010Prop39
140
1.0
102
RTVSPost2010PropOp39
 70
     1
102
RTVSPost2010Prop40
 90
        0
102
RTVSPost2010PropOp40
 70
     1
102
RTVSPost2010Prop41ColorIndex
 90
       18
102
RTVSPost2010Prop41ColorRGB
 90
        0
102
RTVSPost2010PropOp41
 70
     1
102
RTVSPost2010Prop42
 90
       50
102
RTVSPost2010PropOp42
 70
     1
102
RTVSPost2010Prop43
 90
        3
102
RTVSPost2010PropOp43
 70
     1
102
RTVSPost2010Prop44ColorIndex
 90
        5
102
RTVSPost2010Prop44ColorRGB
 90
      255
102
RTVSPost2010PropOp44
 70
     1
102
RTVSPost2010Prop45
280
     0
102
RTVSPost2010PropOp45
 70
     1
102
RTVSPost2010Prop46
 90
       50
102
RTVSPost2010PropOp46
 70
     1
102
RTVSPost2010Prop47
 90
       50
102
RTVSPost2010PropOp47
 70
     1
102
RTVSPost2010Prop48
 90
       50
102
RTVSPost2010PropOp48
 70
     1
102
RTVSPost2010Prop49
280
     0
102
RTVSPost2010PropOp49
 70
     1
102
RTVSPost2010Prop50
 90
       50
102
RTVSPost2010PropOp50
 70
     1
102
RTVSPost2010Prop51ColorIndex
 90
      256
102
RTVSPost2010Prop51ColorRGB
 90
-16777216
102
RTVSPost2010PropOp51
 70
     0
102
RTVSPost2010Prop52
140
1.0
102
RTVSPost2010PropOp52
 70
     0
102
RTVSPost2010Prop53
 90
        2
102
RTVSPost2010PropOp53
 70
     1
102
RTVSPost2010Prop54
  1
strokes_ogs.tif
102
RTVSPost2010PropOp54
 70
     1
102
RTVSPost2010Prop55
280
     0
102
RTVSPost2010PropOp55
 70
     1
102
RTVSPost2010Prop56
140
1.0
102
RTVSPost2010PropOp56
 70
     1
102
RTVSPost2010Prop57
140
1.0
102
RTVSPost2010PropOp57
 70
     1
  0
XRECORD
  5
203
102
{ACAD_REACTORS
330
202
102
}
330
202
100
AcDbXrecord
280
     1
102
RTVSPropertyOp0
 70
     1
102
RTVSPropertyOp1
 70
     1
102
RTVSPropertyOp2
 70
     1
102
RTVSPropertyOp3
 70
     1
102
RTVSPropertyOp4
 70
     1
102
RTVSPropertyOp5
 70
     1
102
RTVSPropertyOp6
 70
     1
102
RTVSPropertyOp7
 70
     1
102
RTVSPropertyOp8
 70
     1
102
RTVSPropertyOp9
 70
     1
102
RTVSPropertyOp10
 70
     1
102
RTVSPropertyOp11
 70
     1
102
RTVSPropertyOp12
 70
     1
102
RTVSPropertyOp13
 70
     1
102
RTVSPropertyOp14
 70
     1
102
RTVSPropertyOp15
 70
     1
102
RTVSPropertyOp16
 70
     1
102
RTVSPropertyOp17
 70
     1
102
RTVSPropertyOp18
 70
     1
102
RTVSPropertyOp19
 70
     1
102
RTVSPropertyOp20
 70
     1
102
RTVSPropertyOp21
 70
     1
102
RTVSPropertyOp22
 70
     1
102
RTVSPropertyOp23
 70
     1
102
RTVSPropertyOp24
 70
     1
102
RTVSPropertyOp25
 70
     1
102
RTVSPropertyOp26
 70
     1
102
RTVSPropertyOp27
 70
     1
102
RTVSPropertyOp28
 70
     1
102
RTVSPropertyOp29
 70
     1
102
RTVSPropertyOp30
 70
     1
102
RTVSPropertyOp31
 70
     1
102
RTVSPropertyOp32
 70
     1
102
RTVSPropertyOp33
 70
     1
102
RTVSPropertyOp34
 70
     1
102
RTVSPropertyOp35
 70
     1
102
RTVSPropertyOp36
 70
     1
102
RTVSPropertyOp37
 70
     1
102
RTVSPropertyOp38
 70
     1
102
RTVSPropertyOp39
 70
     1
102
RTVSPropertyOp40
 70
     1
102
RTVSPropertyOp41
 70
     1
102
RTVSPropertyOp42
 70
     1
102
RTVSPropertyOp43
 70
     1
102
RTVSPropertyOp44
 70
     1
102
RTVSPropertyOp45
 70
     1
102
RTVSPropertyOp46
 70
     1
102
RTVSPropertyOp47
 70
     1
102
RTVSPropertyOp48
 70
     1
102
RTVSPropertyOp49
 70
     1
102
RTVSPropertyOp50
 70
     1
102
RTVSPropertyOp51
 70
     0
102
RTVSPropertyOp52
 70
     0
102
RTVSPropertyOp53
 70
     1
102
RTVSPropertyOp54
 70
     1
102
RTVSPropertyOp55
 70
     1
102
RTVSPropertyOp56
 70
     1
102
RTVSPropertyOp57
 70
     1
102
RTVSPost2010Prop28
280
     0
102
RTVSPost2010PropOp28
 70
     1
102
RTVSPost2010Prop29
280
     1
102
RTVSPost2010PropOp29
 70
     1
102
RTVSPost2010Prop30
280
     1
102
RTVSPost2010PropOp30
 70
     1
102
RTVSPost2010Prop31
280
     0
102
RTVSPost2010PropOp31
 70
     1
102
RTVSPost2010Prop32
280
     0
102
RTVSPost2010PropOp32
 70
     1
102
RTVSPost2010Prop33
280
     0
102
RTVSPost2010PropOp33
 70
     1
102
RTVSPost2010Prop34
280
     0
102
RTVSPost2010PropOp34
 70
     1
102
RTVSPost2010Prop35
280
     0
102
RTVSPost2010PropOp35
 70
     1
102
RTVSPost2010Prop36
280
     0
102
RTVSPost2010PropOp36
 70
     1
102
RTVSPost2010Prop37
 90
       50
102
RTVSPost2010PropOp37
 70
     1
102
RTVSPost2010Prop38
140
0.0
102
RTVSPost2010PropOp38
 70
     1
102
RTVSPost2010Prop39
140
1.0
102
RTVSPost2010PropOp39
 70
     1
102
RTVSPost2010Prop40
 90
        0
102
RTVSPost2010PropOp40
 70
     1
102
RTVSPost2010Prop41ColorIndex
 90
       18
102
RTVSPost2010Prop41ColorRGB
 90
        0
102
RTVSPost2010PropOp41
 70
     1
102
RTVSPost2010Prop42
 90
       50
102
RTVSPost2010PropOp42
 70
     1
102
RTVSPost2010Prop43
 90
        3
102
RTVSPost2010PropOp43
 70
     1
102
RTVSPost2010Prop44ColorIndex
 90
        5
102
RTVSPost2010Prop44ColorRGB
 90
      255
102
RTVSPost2010PropOp44
 70
     1
102
RTVSPost2010Prop45
280
     0
102
RTVSPost2010PropOp45
 70
     1
102
RTVSPost2010Prop46
 90
       50
102
RTVSPost2010PropOp46
 70
     1
102
RTVSPost2010Prop47
 90
       50
102
RTVSPost2010PropOp47
 70
     1
102
RTVSPost2010Prop48
 90
       50
102
RTVSPost2010PropOp48
 70
     1
102
RTVSPost2010Prop49
280
     0
102
RTVSPost2010PropOp49
 70
     1
102
RTVSPost2010Prop50
 90
       50
102
RTVSPost2010PropOp50
 70
     1
102
RTVSPost2010Prop51ColorIndex
 90
      256
102
RTVSPost2010Prop51ColorRGB
 90
-16777216
102
RTVSPost2010PropOp51
 70
     0
102
RTVSPost2010Prop52
140
1.0
102
RTVSPost2010PropOp52
 70
     0
102
RTVSPost2010Prop53
 90
        2
102
RTVSPost2010PropOp53
 70
     1
102
RTVSPost2010Prop54
  1
strokes_ogs.tif
102
RTVSPost2010PropOp54
 70
     1
102
RTVSPost2010Prop55
280
     0
102
RTVSPost2010PropOp55
 70
     1
102
RTVSPost2010Prop56
140
1.0
102
RTVSPost2010PropOp56
 70
     1
102
RTVSPost2010Prop57
140
1.0
102
RTVSPost2010PropOp57
 70
     1
  0
XRECORD
  5
1F5
102
{ACAD_REACTORS
330
1F4
102
}
330
1F4
100
AcDbXrecord
280
     1
102
RTVSPropertyOp0
 70
     1
102
RTVSPropertyOp1
 70
     1
102
RTVSPropertyOp2
 70
     1
102
RTVSPropertyOp3
 70
     1
102
RTVSPropertyOp4
 70
     1
102
RTVSPropertyOp5
 70
     1
102
RTVSPropertyOp6
 70
     1
102
RTVSPropertyOp7
 70
     1
102
RTVSPropertyOp8
 70
     1
102
RTVSPropertyOp9
 70
     1
102
RTVSPropertyOp10
 70
     1
102
RTVSPropertyOp11
 70
     1
102
RTVSPropertyOp12
 70
     1
102
RTVSPropertyOp13
 70
     1
102
RTVSPropertyOp14
 70
     1
102
RTVSPropertyOp15
 70
     1
102
RTVSPropertyOp16
 70
     1
102
RTVSPropertyOp17
 70
     1
102
RTVSPropertyOp18
 70
     1
102
RTVSPropertyOp19
 70
     1
102
RTVSPropertyOp20
 70
     1
102
RTVSPropertyOp21
 70
     1
102
RTVSPropertyOp22
 70
     1
102
RTVSPropertyOp23
 70
     1
102
RTVSPropertyOp24
 70
     1
102
RTVSPropertyOp25
 70
     1
102
RTVSPropertyOp26
 70
     1
102
RTVSPropertyOp27
 70
     1
102
RTVSPropertyOp28
 70
     1
102
RTVSPropertyOp29
 70
     1
102
RTVSPropertyOp30
 70
     1
102
RTVSPropertyOp31
 70
     1
102
RTVSPropertyOp32
 70
     1
102
RTVSPropertyOp33
 70
     1
102
RTVSPropertyOp34
 70
     1
102
RTVSPropertyOp35
 70
     1
102
RTVSPropertyOp36
 70
     1
102
RTVSPropertyOp37
 70
     1
102
RTVSPropertyOp38
 70
     1
102
RTVSPropertyOp39
 70
     1
102
RTVSPropertyOp40
 70
     1
102
RTVSPropertyOp41
 70
     1
102
RTVSPropertyOp42
 70
     1
102
RTVSPropertyOp43
 70
     1
102
RTVSPropertyOp44
 70
     1
102
RTVSPropertyOp45
 70
     1
102
RTVSPropertyOp46
 70
     1
102
RTVSPropertyOp47
 70
     1
102
RTVSPropertyOp48
 70
     1
102
RTVSPropertyOp49
 70
     1
102
RTVSPropertyOp50
 70
     1
102
RTVSPropertyOp51
 70
     0
102
RTVSPropertyOp52
 70
     0
102
RTVSPropertyOp53
 70
     1
102
RTVSPropertyOp54
 70
     1
102
RTVSPropertyOp55
 70
     1
102
RTVSPropertyOp56
 70
     1
102
RTVSPropertyOp57
 70
     1
102
RTVSPost2010Prop28
280
     0
102
RTVSPost2010PropOp28
 70
     1
102
RTVSPost2010Prop29
280
     1
102
RTVSPost2010PropOp29
 70
     1
102
RTVSPost2010Prop30
280
     1
102
RTVSPost2010PropOp30
 70
     1
102
RTVSPost2010Prop31
280
     0
102
RTVSPost2010PropOp31
 70
     1
102
RTVSPost2010Prop32
280
     0
102
RTVSPost2010PropOp32
 70
     1
102
RTVSPost2010Prop33
280
     0
102
RTVSPost2010PropOp33
 70
     1
102
RTVSPost2010Prop34
280
     0
102
RTVSPost2010PropOp34
 70
     1
102
RTVSPost2010Prop35
280
     0
102
RTVSPost2010PropOp35
 70
     1
102
RTVSPost2010Prop36
280
     0
102
RTVSPost2010PropOp36
 70
     1
102
RTVSPost2010Prop37
 90
       50
102
RTVSPost2010PropOp37
 70
     1
102
RTVSPost2010Prop38
140
0.0
102
RTVSPost2010PropOp38
 70
     1
102
RTVSPost2010Prop39
140
1.0
102
RTVSPost2010PropOp39
 70
     1
102
RTVSPost2010Prop40
 90
        0
102
RTVSPost2010PropOp40
 70
     1
102
RTVSPost2010Prop41ColorIndex
 90
       18
102
RTVSPost2010Prop41ColorRGB
 90
        0
102
RTVSPost2010PropOp41
 70
     1
102
RTVSPost2010Prop42
 90
       50
102
RTVSPost2010PropOp42
 70
     1
102
RTVSPost2010Prop43
 90
        3
102
RTVSPost2010PropOp43
 70
     1
102
RTVSPost2010Prop44ColorIndex
 90
        5
102
RTVSPost2010Prop44ColorRGB
 90
      255
102
RTVSPost2010PropOp44
 70
     1
102
RTVSPost2010Prop45
280
     0
102
RTVSPost2010PropOp45
 70
     1
102
RTVSPost2010Prop46
 90
       50
102
RTVSPost2010PropOp46
 70
     1
102
RTVSPost2010Prop47
 90
       50
102
RTVSPost2010PropOp47
 70
     1
102
RTVSPost2010Prop48
 90
       50
102
RTVSPost2010PropOp48
 70
     1
102
RTVSPost2010Prop49
280
     0
102
RTVSPost2010PropOp49
 70
     1
102
RTVSPost2010Prop50
 90
       50
102
RTVSPost2010PropOp50
 70
     1
102
RTVSPost2010Prop51ColorIndex
 90
      256
102
RTVSPost2010Prop51ColorRGB
 90
-16777216
102
RTVSPost2010PropOp51
 70
     0
102
RTVSPost2010Prop52
140
1.0
102
RTVSPost2010PropOp52
 70
     0
102
RTVSPost2010Prop53
 90
        2
102
RTVSPost2010PropOp53
 70
     1
102
RTVSPost2010Prop54
  1
strokes_ogs.tif
102
RTVSPost2010PropOp54
 70
     1
102
RTVSPost2010Prop55
280
     0
102
RTVSPost2010PropOp55
 70
     1
102
RTVSPost2010Prop56
140
1.0
102
RTVSPost2010PropOp56
 70
     1
102
RTVSPost2010Prop57
140
1.0
102
RTVSPost2010PropOp57
 70
     1
  0
XRECORD
  5
215
102
{ACAD_REACTORS
330
214
102
}
330
214
100
AcDbXrecord
280
     1
102
RTVSPropertyOp0
 70
     1
102
RTVSPropertyOp1
 70
     1
102
RTVSPropertyOp2
 70
     1
102
RTVSPropertyOp3
 70
     1
102
RTVSPropertyOp4
 70
     1
102
RTVSPropertyOp5
 70
     1
102
RTVSPropertyOp6
 70
     1
102
RTVSPropertyOp7
 70
     1
102
RTVSPropertyOp8
 70
     1
102
RTVSPropertyOp9
 70
     1
102
RTVSPropertyOp10
 70
     1
102
RTVSPropertyOp11
 70
     1
102
RTVSPropertyOp12
 70
     1
102
RTVSPropertyOp13
 70
     1
102
RTVSPropertyOp14
 70
     1
102
RTVSPropertyOp15
 70
     1
102
RTVSPropertyOp16
 70
     1
102
RTVSPropertyOp17
 70
     1
102
RTVSPropertyOp18
 70
     1
102
RTVSPropertyOp19
 70
     1
102
RTVSPropertyOp20
 70
     1
102
RTVSPropertyOp21
 70
     1
102
RTVSPropertyOp22
 70
     1
102
RTVSPropertyOp23
 70
     1
102
RTVSPropertyOp24
 70
     1
102
RTVSPropertyOp25
 70
     1
102
RTVSPropertyOp26
 70
     1
102
RTVSPropertyOp27
 70
     1
102
RTVSPropertyOp28
 70
     1
102
RTVSPropertyOp29
 70
     1
102
RTVSPropertyOp30
 70
     1
102
RTVSPropertyOp31
 70
     1
102
RTVSPropertyOp32
 70
     1
102
RTVSPropertyOp33
 70
     1
102
RTVSPropertyOp34
 70
     1
102
RTVSPropertyOp35
 70
     1
102
RTVSPropertyOp36
 70
     1
102
RTVSPropertyOp37
 70
     1
102
RTVSPropertyOp38
 70
     1
102
RTVSPropertyOp39
 70
     1
102
RTVSPropertyOp40
 70
     1
102
RTVSPropertyOp41
 70
     1
102
RTVSPropertyOp42
 70
     1
102
RTVSPropertyOp43
 70
     1
102
RTVSPropertyOp44
 70
     1
102
RTVSPropertyOp45
 70
     1
102
RTVSPropertyOp46
 70
     1
102
RTVSPropertyOp47
 70
     1
102
RTVSPropertyOp48
 70
     1
102
RTVSPropertyOp49
 70
     1
102
RTVSPropertyOp50
 70
     1
102
RTVSPropertyOp51
 70
     0
102
RTVSPropertyOp52
 70
     0
102
RTVSPropertyOp53
 70
     1
102
RTVSPropertyOp54
 70
     1
102
RTVSPropertyOp55
 70
     1
102
RTVSPropertyOp56
 70
     1
102
RTVSPropertyOp57
 70
     1
102
RTVSPost2010Prop28
280
     0
102
RTVSPost2010PropOp28
 70
     1
102
RTVSPost2010Prop29
280
     1
102
RTVSPost2010PropOp29
 70
     1
102
RTVSPost2010Prop30
280
     1
102
RTVSPost2010PropOp30
 70
     1
102
RTVSPost2010Prop31
280
     0
102
RTVSPost2010PropOp31
 70
     1
102
RTVSPost2010Prop32
280
     0
102
RTVSPost2010PropOp32
 70
     1
102
RTVSPost2010Prop33
280
     0
102
RTVSPost2010PropOp33
 70
     1
102
RTVSPost2010Prop34
280
     0
102
RTVSPost2010PropOp34
 70
     1
102
RTVSPost2010Prop35
280
     0
102
RTVSPost2010PropOp35
 70
     1
102
RTVSPost2010Prop36
280
     0
102
RTVSPost2010PropOp36
 70
     1
102
RTVSPost2010Prop37
 90
       50
102
RTVSPost2010PropOp37
 70
     1
102
RTVSPost2010Prop38
140
0.0
102
RTVSPost2010PropOp38
 70
     1
102
RTVSPost2010Prop39
140
1.0
102
RTVSPost2010PropOp39
 70
     1
102
RTVSPost2010Prop40
 90
        0
102
RTVSPost2010PropOp40
 70
     1
102
RTVSPost2010Prop41ColorIndex
 90
       18
102
RTVSPost2010Prop41ColorRGB
 90
        0
102
RTVSPost2010PropOp41
 70
     1
102
RTVSPost2010Prop42
 90
       50
102
RTVSPost2010PropOp42
 70
     1
102
RTVSPost2010Prop43
 90
        3
102
RTVSPost2010PropOp43
 70
     1
102
RTVSPost2010Prop44ColorIndex
 90
        5
102
RTVSPost2010Prop44ColorRGB
 90
      255
102
RTVSPost2010PropOp44
 70
     1
102
RTVSPost2010Prop45
280
     0
102
RTVSPost2010PropOp45
 70
     1
102
RTVSPost2010Prop46
 90
       50
102
RTVSPost2010PropOp46
 70
     1
102
RTVSPost2010Prop47
 90
       50
102
RTVSPost2010PropOp47
 70
     1
102
RTVSPost2010Prop48
 90
       50
102
RTVSPost2010PropOp48
 70
     1
102
RTVSPost2010Prop49
280
     0
102
RTVSPost2010PropOp49
 70
     1
102
RTVSPost2010Prop50
 90
       50
102
RTVSPost2010PropOp50
 70
     1
102
RTVSPost2010Prop51ColorIndex
 90
      256
102
RTVSPost2010Prop51ColorRGB
 90
-16777216
102
RTVSPost2010PropOp51
 70
     0
102
RTVSPost2010Prop52
140
1.0
102
RTVSPost2010PropOp52
 70
     0
102
RTVSPost2010Prop53
 90
        2
102
RTVSPost2010PropOp53
 70
     1
102
RTVSPost2010Prop54
  1
strokes_ogs.tif
102
RTVSPost2010PropOp54
 70
     1
102
RTVSPost2010Prop55
280
     0
102
RTVSPost2010PropOp55
 70
     1
102
RTVSPost2010Prop56
140
1.0
102
RTVSPost2010PropOp56
 70
     1
102
RTVSPost2010Prop57
140
1.0
102
RTVSPost2010PropOp57
 70
     1
  0
ENDSEC
  0
EOF
