  0
SECTION
  2
HEADER
  9
$ACADVER
  1
AC1018
  9
$ACADMAINTVER
 70
     0
  9
$DWGCODEPAGE
  3
ANSI_1252
  9
$COMMENTS
  1
File was created by ARCHline.XP2015
  9
$INSBASE
 10
0.0
 20
0.0
 30
0.0
  9
$EXTMIN
 10
1.742957746479078
 20
2.701584507041844
 30
0.0
  9
$EXTMAX
 10
2971.742957746479
 20
2102.701584507042
 30
0.0
  9
$LIMMIN
 10
0.0
 20
0.0
  9
$LIMMAX
 10
12.0
 20
9.0
  9
$ORTHOMODE
 70
     0
  9
$REGENMODE
 70
     1
  9
$FILLMODE
 70
     1
  9
$QTEXTMODE
 70
     0
  9
$MIRRTEXT
 70
     1
  9
$LTSCALE
 40
1.0
  9
$ATTMODE
 70
     1
  9
$TEXTSIZE
 40
0.2
  9
$TRACEWID
 40
0.05
  9
$TEXTSTYLE
  7
Standard
  9
$CLAYER
  8
0
  9
$CELTYPE
  6
ByLayer
  9
$CECOLOR
 62
   256
  9
$CELTSCALE
 40
1.0
  9
$DISPSILH
 70
     0
  9
$DIMSCALE
 40
1.0
  9
$DIMASZ
 40
0.18
  9
$DIMEXO
 40
0.0625
  9
$DIMDLI
 40
0.38
  9
$DIMRND
 40
0.0
  9
$DIMDLE
 40
0.0
  9
$DIMEXE
 40
0.18
  9
$DIMTP
 40
0.0
  9
$DIMTM
 40
0.0
  9
$DIMTXT
 40
0.18
  9
$DIMCEN
 40
0.09
  9
$DIMTSZ
 40
0.0
  9
$DIMTOL
 70
     0
  9
$DIMLIM
 70
     0
  9
$DIMTIH
 70
     1
  9
$DIMTOH
 70
     1
  9
$DIMSE1
 70
     0
  9
$DIMSE2
 70
     0
  9
$DIMTAD
 70
     0
  9
$DIMZIN
 70
     0
  9
$DIMBLK
  1

  9
$DIMASO
 70
     1
  9
$DIMSHO
 70
     1
  9
$DIMPOST
  1

  9
$DIMAPOST
  1

  9
$DIMALT
 70
     0
  9
$DIMALTD
 70
     2
  9
$DIMALTF
 40
25.4
  9
$DIMLFAC
 40
1.0
  9
$DIMTOFL
 70
     0
  9
$DIMTVP
 40
0.0
  9
$DIMTIX
 70
     0
  9
$DIMSOXD
 70
     0
  9
$DIMSAH
 70
     0
  9
$DIMBLK1
  1

  9
$DIMBLK2
  1

  9
$DIMSTYLE
  2
Standard
  9
$DIMCLRD
 70
     0
  9
$DIMCLRE
 70
     0
  9
$DIMCLRT
 70
     0
  9
$DIMTFAC
 40
1.0
  9
$DIMGAP
 40
0.09
  9
$DIMJUST
 70
     0
  9
$DIMSD1
 70
     0
  9
$DIMSD2
 70
     0
  9
$DIMTOLJ
 70
     1
  9
$DIMTZIN
 70
     0
  9
$DIMALTZ
 70
     0
  9
$DIMALTTZ
 70
     0
  9
$DIMUPT
 70
     0
  9
$DIMDEC
 70
     4
  9
$DIMTDEC
 70
     4
  9
$DIMALTU
 70
     2
  9
$DIMALTTD
 70
     2
  9
$DIMTXSTY
  7
Standard
  9
$DIMAUNIT
 70
     0
  9
$DIMADEC
 70
     0
  9
$DIMALTRND
 40
0.0
  9
$DIMAZIN
 70
     0
  9
$DIMDSEP
 70
    46
  9
$DIMATFIT
 70
     3
  9
$DIMFRAC
 70
     0
  9
$DIMLDRBLK
  1

  9
$DIMLUNIT
 70
     2
  9
$DIMLWD
 70
    -2
  9
$DIMLWE
 70
    -2
  9
$DIMTMOVE
 70
     0
  9
$LUNITS
 70
     2
  9
$LUPREC
 70
     4
  9
$SKETCHINC
 40
0.1
  9
$FILLETRAD
 40
0.5
  9
$AUNITS
 70
     0
  9
$AUPREC
 70
     0
  9
$MENU
  1
.
  9
$ELEVATION
 40
0.0
  9
$PELEVATION
 40
0.0
  9
$THICKNESS
 40
0.0
  9
$LIMCHECK
 70
     0
  9
$CHAMFERA
 40
0.0
  9
$CHAMFERB
 40
0.0
  9
$CHAMFERC
 40
0.0
  9
$CHAMFERD
 40
0.0
  9
$SKPOLY
 70
     0
  9
$TDCREATE
 40
2457527.566457315
  9
$TDUCREATE
 40
2457527.483123981
  9
$TDUPDATE
 40
2457527.566458044
  9
$TDUUPDATE
 40
2457527.483124711
  9
$TDINDWG
 40
0.0000000116
  9
$TDUSRTIMER
 40
0.0000000116
  9
$USRTIMER
 70
     1
  9
$ANGBASE
 50
0.0
  9
$ANGDIR
 70
     0
  9
$PDMODE
 70
     0
  9
$PDSIZE
 40
0.0
  9
$PLINEWID
 40
0.0
  9
$SPLFRAME
 70
     0
  9
$SPLINETYPE
 70
     6
  9
$SPLINESEGS
 70
     8
  9
$HANDSEED
  5
3C5
  9
$SURFTAB1
 70
     6
  9
$SURFTAB2
 70
     6
  9
$SURFTYPE
 70
     6
  9
$SURFU
 70
     6
  9
$SURFV
 70
     6
  9
$UCSBASE
  2

  9
$UCSNAME
  2

  9
$UCSORG
 10
0.0
 20
0.0
 30
0.0
  9
$UCSXDIR
 10
1.0
 20
0.0
 30
0.0
  9
$UCSYDIR
 10
0.0
 20
1.0
 30
0.0
  9
$UCSORTHOREF
  2

  9
$UCSORTHOVIEW
 70
     0
  9
$UCSORGTOP
 10
0.0
 20
0.0
 30
0.0
  9
$UCSORGBOTTOM
 10
0.0
 20
0.0
 30
0.0
  9
$UCSORGLEFT
 10
0.0
 20
0.0
 30
0.0
  9
$UCSORGRIGHT
 10
0.0
 20
0.0
 30
0.0
  9
$UCSORGFRONT
 10
0.0
 20
0.0
 30
0.0
  9
$UCSORGBACK
 10
0.0
 20
0.0
 30
0.0
  9
$PUCSBASE
  2

  9
$PUCSNAME
  2

  9
$PUCSORG
 10
0.0
 20
0.0
 30
0.0
  9
$PUCSXDIR
 10
1.0
 20
0.0
 30
0.0
  9
$PUCSYDIR
 10
0.0
 20
1.0
 30
0.0
  9
$PUCSORTHOREF
  2

  9
$PUCSORTHOVIEW
 70
     0
  9
$PUCSORGTOP
 10
0.0
 20
0.0
 30
0.0
  9
$PUCSORGBOTTOM
 10
0.0
 20
0.0
 30
0.0
  9
$PUCSORGLEFT
 10
0.0
 20
0.0
 30
0.0
  9
$PUCSORGRIGHT
 10
0.0
 20
0.0
 30
0.0
  9
$PUCSORGFRONT
 10
0.0
 20
0.0
 30
0.0
  9
$PUCSORGBACK
 10
0.0
 20
0.0
 30
0.0
  9
$USERI1
 70
     0
  9
$USERI2
 70
     0
  9
$USERI3
 70
     0
  9
$USERI4
 70
     0
  9
$USERI5
 70
     0
  9
$USERR1
 40
0.0
  9
$USERR2
 40
0.0
  9
$USERR3
 40
0.0
  9
$USERR4
 40
0.0
  9
$USERR5
 40
0.0
  9
$WORLDVIEW
 70
     1
  9
$SHADEDGE
 70
     3
  9
$SHADEDIF
 70
    70
  9
$TILEMODE
 70
     1
  9
$MAXACTVP
 70
    64
  9
$PINSBASE
 10
0.0
 20
0.0
 30
0.0
  9
$PLIMCHECK
 70
     0
  9
$PEXTMIN
 10
1.000000000000000E+20
 20
1.000000000000000E+20
 30
1.000000000000000E+20
  9
$PEXTMAX
 10
-1.000000000000000E+20
 20
-1.000000000000000E+20
 30
-1.000000000000000E+20
  9
$PLIMMIN
 10
0.0
 20
0.0
  9
$PLIMMAX
 10
12.0
 20
9.0
  9
$UNITMODE
 70
     0
  9
$VISRETAIN
 70
     1
  9
$PLINEGEN
 70
     0
  9
$PSLTSCALE
 70
     1
  9
$TREEDEPTH
 70
  3020
  9
$CMLSTYLE
  2
Standard
  9
$CMLJUST
 70
     0
  9
$CMLSCALE
 40
1.0
  9
$PROXYGRAPHICS
 70
     1
  9
$MEASUREMENT
 70
     0
  9
$CELWEIGHT
370
    -1
  9
$ENDCAPS
280
     0
  9
$JOINSTYLE
280
     0
  9
$LWDISPLAY
290
     0
  9
$INSUNITS
 70
     1
  9
$HYPERLINKBASE
  1

  9
$STYLESHEET
  1

  9
$XEDIT
290
     1
  9
$CEPSNTYPE
380
     0
  9
$PSTYLEMODE
290
     1
  9
$FINGERPRINTGUID
  2
{C7AF5E96-0F36-473D-8676-3FB2885E4C6A}
  9
$VERSIONGUID
  2
{FAEB1C32-E019-11D5-929B-00C0DF256EC4}
  9
$EXTNAMES
290
     1
  9
$PSVPSCALE
 40
0.0
  9
$OLESTARTUP
290
     0
  9
$SORTENTS
280
   127
  9
$INDEXCTL
280
     0
  9
$HIDETEXT
280
     1
  9
$XCLIPFRAME
290
     0
  9
$HALOGAP
280
     0
  9
$OBSCOLOR
 70
   257
  9
$OBSLTYPE
280
     0
  9
$INTERSECTIONDISPLAY
280
     0
  9
$INTERSECTIONCOLOR
 70
   257
  9
$DIMASSOC
280
     2
  9
$PROJECTNAME
  1

  0
ENDSEC
  0
SECTION
  2
CLASSES
  0
CLASS
  1
ACDBDICTIONARYWDFLT
  2
AcDbDictionaryWithDefault
  3
ObjectDBX Classes
 90
        0
 91
        4
280
     0
281
     0
  0
CLASS
  1
VISUALSTYLE
  2
AcDbVisualStyle
  3
ObjectDBX Classes
 90
     4095
 91
        4
280
     0
281
     0
  0
CLASS
  1
MATERIAL
  2
AcDbMaterial
  3
ObjectDBX Classes
 90
     1153
 91
        4
280
     0
281
     0
  0
CLASS
  1
SCALE
  2
AcDbScale
  3
ObjectDBX Classes
 90
     1153
 91
        4
280
     0
281
     0
  0
CLASS
  1
TABLESTYLE
  2
AcDbTableStyle
  3
ObjectDBX Classes
 90
     4095
 91
        4
280
     0
281
     0
  0
CLASS
  1
MLEADERSTYLE
  2
AcDbMLeaderStyle
  3
ACDB_MLEADERSTYLE_CLASS
 90
     4095
 91
        4
280
     0
281
     0
  0
CLASS
  1
SUN
  2
AcDbSun
  3
SCENEOE
 90
     1153
 91
        4
280
     0
281
     0
  0
CLASS
  1
IMAGEDEF
  2
AcDbRasterImageDef
  3
ISM
 90
        0
 91
        4
280
     0
281
     0
  0
CLASS
  1
IMAGE
  2
AcDbRasterImage
  3
ISM
 90
      127
 91
        5
280
     0
281
     1
  0
CLASS
  1
IMAGEDEF_REACTOR
  2
AcDbRasterImageDefReactor
  3
ISM
 90
        1
 91
        4
280
     0
281
     0
  0
CLASS
  1
DICTIONARYVAR
  2
AcDbDictionaryVar
  3
ObjectDBX Classes
 90
        0
 91
        4
280
     0
281
     0
  0
CLASS
  1
CELLSTYLEMAP
  2
AcDbCellStyleMap
  3
ObjectDBX Classes
 90
     1152
 91
        4
280
     0
281
     0
  0
ENDSEC
  0
SECTION
  2
TABLES
  0
TABLE
  2
VPORT
  5
8
102
{ACAD_XDICTIONARY
360
37E
102
}
330
0
100
AcDbSymbolTable
 70
     1
  0
VPORT
  5
29
330
8
100
AcDbSymbolTableRecord
100
AcDbViewportTableRecord
  2
*Active
 70
     0
 10
0.0
 20
0.0
 11
1.0
 21
1.0
 12
10.42990654205607
 22
4.5
 13
0.0
 23
0.0
 14
0.5
 24
0.5
 15
0.5
 25
0.5
 16
0.0
 26
0.0
 36
1.0
 17
0.0
 27
0.0
 37
0.0
 40
9.0
 41
1.972972972850329
 42
50.0
 43
0.0
 44
0.0
 50
0.0
 51
0.0
 71
     0
 72
   100
 73
     1
 74
     3
 75
     0
 76
     0
 77
     0
 78
     0
281
     0
 65
     1
110
0.0
120
0.0
130
0.0
111
1.0
121
0.0
131
0.0
112
0.0
122
1.0
132
0.0
 79
     0
146
0.0
  0
ENDTAB
  0
TABLE
  2
LTYPE
  5
5
330
0
100
AcDbSymbolTable
 70
    45
  0
LTYPE
  5
14
330
5
100
AcDbSymbolTableRecord
100
AcDbLinetypeTableRecord
  2
ByBlock
 70
     0
  3

 72
    65
 73
     0
 40
0.0
  0
LTYPE
  5
15
330
5
100
AcDbSymbolTableRecord
100
AcDbLinetypeTableRecord
  2
ByLayer
 70
     0
  3

 72
    65
 73
     0
 40
0.0
  0
LTYPE
  5
16
330
5
100
AcDbSymbolTableRecord
100
AcDbLinetypeTableRecord
  2
Continuous
 70
     0
  3
Solid line
 72
    65
 73
     0
 40
0.0
  0
LTYPE
  5
6F
330
5
100
AcDbSymbolTableRecord
100
AcDbLinetypeTableRecord
  2
HIDDEN
 70
     0
  3
_ _ _ _ _ _ _ _ _ _ _ _ _ _ _ _ _ _ _ _ _ _ _
 72
    65
 73
     2
 40
0.375
 49
0.25
 74
     0
 49
-0.125
 74
     0
  0
LTYPE
  5
70
330
5
100
AcDbSymbolTableRecord
100
AcDbLinetypeTableRecord
  2
CENTER
 70
     0
  3
____ _ ____ _ ____ _ ____ _ ____ _ ____ _ ____
 72
    65
 73
     4
 40
2.0
 49
1.25
 74
     0
 49
-0.25
 74
     0
 49
0.25
 74
     0
 49
-0.25
 74
     0
  0
LTYPE
  5
71
330
5
100
AcDbSymbolTableRecord
100
AcDbLinetypeTableRecord
  2
DASHED
 70
     0
  3
__ __ __ __ __ __ __ __ __ __ __ __ __ __ __
 72
    65
 73
     2
 40
1.5
 49
1.25
 74
     0
 49
-0.25
 74
     0
  0
LTYPE
  5
72
330
5
100
AcDbSymbolTableRecord
100
AcDbLinetypeTableRecord
  2
Gepunktete
 70
     0
  3

 72
    65
 73
     2
 40
1.560000061988831
 49
0.3600000143051147
 74
     0
 49
-1.200000047683716
 74
     0
  0
LTYPE
  5
73
330
5
100
AcDbSymbolTableRecord
100
AcDbLinetypeTableRecord
  2
Strichpunktierte
 70
     0
  3

 72
    65
 73
     4
 40
4.920000046491623
 49
3.0
 74
     0
 49
-0.7200000286102295
 74
     0
 49
0.4799999892711639
 74
     0
 49
-0.7200000286102295
 74
     0
  0
LTYPE
  5
74
330
5
100
AcDbSymbolTableRecord
100
AcDbLinetypeTableRecord
  2
Strichellinie
 70
     0
  3

 72
    65
 73
     2
 40
2.399999976158142
 49
1.799999952316284
 74
     0
 49
-0.6000000238418579
 74
     0
  0
LTYPE
  5
75
330
5
100
AcDbSymbolTableRecord
100
AcDbLinetypeTableRecord
  2
2Punkt
 70
     0
  3

 72
    65
 73
     6
 40
6.120000123977661
 49
3.0
 74
     0
 49
-0.7200000286102295
 74
     0
 49
0.4800000190734863
 74
     0
 49
-0.7200000286102295
 74
     0
 49
0.4800000190734863
 74
     0
 49
-0.7200000286102295
 74
     0
  0
LTYPE
  5
76
330
5
100
AcDbSymbolTableRecord
100
AcDbLinetypeTableRecord
  2
2Punkt-2Abstand
 70
     0
  3

 72
    65
 73
     6
 40
8.28000020980835
 49
3.0
 74
     0
 49
-1.440000057220459
 74
     0
 49
0.4800000190734863
 74
     0
 49
-1.440000057220459
 74
     0
 49
0.4800000190734863
 74
     0
 49
-1.440000057220459
 74
     0
  0
LTYPE
  5
77
330
5
100
AcDbSymbolTableRecord
100
AcDbLinetypeTableRecord
  2
2Punkt-3Abstand
 70
     0
  3

 72
    65
 73
     6
 40
11.26800036430359
 49
3.0
 74
     0
 49
-2.436000108718872
 74
     0
 49
0.4800000190734863
 74
     0
 49
-2.436000108718872
 74
     0
 49
0.4800000190734863
 74
     0
 49
-2.436000108718872
 74
     0
  0
LTYPE
  5
78
330
5
100
AcDbSymbolTableRecord
100
AcDbLinetypeTableRecord
  2
Gepunktete Var.2
 70
     0
  3

 72
    65
 73
     2
 40
3.120000004768372
 49
0.3600000143051147
 74
     0
 49
-2.759999990463257
 74
     0
  0
LTYPE
  5
79
330
5
100
AcDbSymbolTableRecord
100
AcDbLinetypeTableRecord
  2
Gepunktete Var.3
 70
     0
  3

 72
    65
 73
     2
 40
4.679999709129333
 49
0.3600000143051147
 74
     0
 49
-4.319999694824219
 74
     0
  0
LTYPE
  5
7A
330
5
100
AcDbSymbolTableRecord
100
AcDbLinetypeTableRecord
  2
Gepunktete Var.4
 70
     0
  3

 72
    65
 73
     4
 40
4.319999814033508
 49
0.3600000143051147
 74
     0
 49
-1.199999928474426
 74
     0
 49
0.3600000143051147
 74
     0
 49
-2.399999856948853
 74
     0
  0
LTYPE
  5
7B
330
5
100
AcDbSymbolTableRecord
100
AcDbLinetypeTableRecord
  2
Gepunktete Var.5
 70
     0
  3

 72
    65
 73
     4
 40
4.319999814033508
 49
0.3600000143051147
 74
     0
 49
-1.199999928474426
 74
     0
 49
0.3600000143051147
 74
     0
 49
-2.399999856948853
 74
     0
  0
LTYPE
  5
7C
330
5
100
AcDbSymbolTableRecord
100
AcDbLinetypeTableRecord
  2
Gepunktete Var.6
 70
     0
  3

 72
    65
 73
     6
 40
7.079999685287476
 49
0.3600000143051147
 74
     0
 49
-1.199999928474426
 74
     0
 49
0.3600000143051147
 74
     0
 49
-2.399999856948853
 74
     0
 49
0.3600000143051147
 74
     0
 49
-2.399999856948853
 74
     0
  0
LTYPE
  5
7D
330
5
100
AcDbSymbolTableRecord
100
AcDbLinetypeTableRecord
  2
Strichlierte Var.2
 70
     0
  3

 72
    65
 73
     2
 40
3.599999904632568
 49
1.799999952316284
 74
     0
 49
-1.799999952316284
 74
     0
  0
LTYPE
  5
7E
330
5
100
AcDbSymbolTableRecord
100
AcDbLinetypeTableRecord
  2
Strichlierte Var.3
 70
     0
  3

 72
    65
 73
     2
 40
5.399999856948853
 49
1.799999952316284
 74
     0
 49
-3.599999904632568
 74
     0
  0
LTYPE
  5
7F
330
5
100
AcDbSymbolTableRecord
100
AcDbLinetypeTableRecord
  2
Strichlierte Var.4
 70
     0
  3

 72
    65
 73
     2
 40
4.199999868869781
 49
3.599999904632568
 74
     0
 49
-0.5999999642372131
 74
     0
  0
LTYPE
  5
80
330
5
100
AcDbSymbolTableRecord
100
AcDbLinetypeTableRecord
  2
Strichlierte Var.5
 70
     0
  3

 72
    65
 73
     2
 40
5.399999856948853
 49
3.599999904632568
 74
     0
 49
-1.799999952316284
 74
     0
  0
LTYPE
  5
81
330
5
100
AcDbSymbolTableRecord
100
AcDbLinetypeTableRecord
  2
Strichlierte Var.6
 70
     0
  3

 72
    65
 73
     2
 40
7.199999809265137
 49
3.599999904632568
 74
     0
 49
-3.599999904632568
 74
     0
  0
LTYPE
  5
82
330
5
100
AcDbSymbolTableRecord
100
AcDbLinetypeTableRecord
  2
Strich-2Abstand
 70
     0
  3

 72
    65
 73
     4
 40
8.999999761581421
 49
1.799999952316284
 74
     0
 49
-1.799999952316284
 74
     0
 49
3.599999904632568
 74
     0
 49
-1.799999952316284
 74
     0
  0
LTYPE
  5
83
330
5
100
AcDbSymbolTableRecord
100
AcDbLinetypeTableRecord
  2
Strich-3Abstand
 70
     0
  3

 72
    65
 73
     6
 40
7.919999837875366
 49
0.3600000143051147
 74
     0
 49
-1.799999952316284
 74
     0
 49
0.3600000143051147
 74
     0
 49
-1.799999952316284
 74
     0
 49
1.799999952316284
 74
     0
 49
-1.799999952316284
 74
     0
  0
LTYPE
  5
84
330
5
100
AcDbSymbolTableRecord
100
AcDbLinetypeTableRecord
  2
Strich-4Abstand
 70
     0
  3

 72
    65
 73
     6
 40
9.359999775886536
 49
1.799999952316284
 74
     0
 49
-1.799999952316284
 74
     0
 49
1.799999952316284
 74
     0
 49
-1.799999952316284
 74
     0
 49
0.3600000143051147
 74
     0
 49
-1.799999952316284
 74
     0
  0
LTYPE
  5
85
330
5
100
AcDbSymbolTableRecord
100
AcDbLinetypeTableRecord
  2
Punktlinie
 70
     0
  3

 72
    65
 73
     6
 40
20.10000000149012
 49
0.0500000007450581
 74
     0
 49
-0.0500000007450581
 74
     0
 49
5.0
 74
     0
 49
-5.0
 74
     0
 49
5.0
 74
     0
 49
-5.0
 74
     0
  0
LTYPE
  5
86
330
5
100
AcDbSymbolTableRecord
100
AcDbLinetypeTableRecord
  2
Punkt-Strichlinie
 70
     0
  3

 72
    65
 73
     6
 40
3.550000000745058
 49
1.0
 74
     0
 49
-0.5
 74
     0
 49
1.0
 74
     0
 49
-0.5
 74
     0
 49
0.0500000007450581
 74
     0
 49
-0.5
 74
     0
  0
LTYPE
  5
87
330
5
100
AcDbSymbolTableRecord
100
AcDbLinetypeTableRecord
  2
Doppelpunkt-Strichlinie
 70
     0
  3

 72
    65
 73
     6
 40
1.350000001490116
 49
0.5
 74
     0
 49
-0.25
 74
     0
 49
0.0500000007450581
 74
     0
 49
-0.25
 74
     0
 49
0.0500000007450581
 74
     0
 49
-0.25
 74
     0
  0
LTYPE
  5
88
330
5
100
AcDbSymbolTableRecord
100
AcDbLinetypeTableRecord
  2
Eigene Linie 27
 70
     0
  3

 72
    65
 73
     6
 40
2.600000001490116
 49
1.0
 74
     0
 49
-0.5
 74
     0
 49
0.0500000007450581
 74
     0
 49
-0.5
 74
     0
 49
0.0500000007450581
 74
     0
 49
-0.5
 74
     0
  0
LTYPE
  5
89
330
5
100
AcDbSymbolTableRecord
100
AcDbLinetypeTableRecord
  2
Eigene Linie 28
 70
     0
  3

 72
    65
 73
     6
 40
1.800000000745058
 49
0.5
 74
     0
 49
-0.25
 74
     0
 49
0.5
 74
     0
 49
-0.25
 74
     0
 49
0.0500000007450581
 74
     0
 49
-0.25
 74
     0
  0
LTYPE
  5
8A
330
5
100
AcDbSymbolTableRecord
100
AcDbLinetypeTableRecord
  2
Eigene Linie 29
 70
     0
  3

 72
    65
 73
     6
 40
0.9250000007450581
 49
0.25
 74
     0
 49
-0.125
 74
     0
 49
0.25
 74
     0
 49
-0.125
 74
     0
 49
0.0500000007450581
 74
     0
 49
-0.125
 74
     0
  0
LTYPE
  5
8B
330
5
100
AcDbSymbolTableRecord
100
AcDbLinetypeTableRecord
  2
Eigene Linie 30
 70
     0
  3

 72
    65
 73
     2
 40
0.3000000007450581
 49
0.0500000007450581
 74
     0
 49
-0.25
 74
     0
  0
LTYPE
  5
8C
330
5
100
AcDbSymbolTableRecord
100
AcDbLinetypeTableRecord
  2
Eigene Linie 31
 70
     0
  3

 72
    65
 73
     2
 40
0.1750000007450581
 49
0.0500000007450581
 74
     0
 49
-0.125
 74
     0
  0
LTYPE
  5
8D
330
5
100
AcDbSymbolTableRecord
100
AcDbLinetypeTableRecord
  2
Eigene Linie 32
 70
     0
  3

 72
    65
 73
     2
 40
0.5500000007450581
 49
0.0500000007450581
 74
     0
 49
-0.5
 74
     0
  0
LTYPE
  5
8E
330
5
100
AcDbSymbolTableRecord
100
AcDbLinetypeTableRecord
  2
Eigene Linie 33
 70
     0
  3

 72
    65
 73
     4
 40
1.050000000745058
 49
0.5
 74
     0
 49
-0.25
 74
     0
 49
0.0500000007450581
 74
     0
 49
-0.25
 74
     0
  0
LTYPE
  5
8F
330
5
100
AcDbSymbolTableRecord
100
AcDbLinetypeTableRecord
  2
Eigene Linie 34
 70
     0
  3

 72
    65
 73
     4
 40
0.5500000007450581
 49
0.25
 74
     0
 49
-0.125
 74
     0
 49
0.0500000007450581
 74
     0
 49
-0.125
 74
     0
  0
LTYPE
  5
90
330
5
100
AcDbSymbolTableRecord
100
AcDbLinetypeTableRecord
  2
Eigene Linie 35
 70
     0
  3

 72
    65
 73
     4
 40
2.050000000745058
 49
1.0
 74
     0
 49
-0.5
 74
     0
 49
0.0500000007450581
 74
     0
 49
-0.5
 74
     0
  0
LTYPE
  5
91
330
5
100
AcDbSymbolTableRecord
100
AcDbLinetypeTableRecord
  2
Eigene Linie 36
 70
     0
  3

 72
    65
 73
     2
 40
0.75
 49
0.5
 74
     0
 49
-0.25
 74
     0
  0
LTYPE
  5
92
330
5
100
AcDbSymbolTableRecord
100
AcDbLinetypeTableRecord
  2
Eigene Linie 37
 70
     0
  3

 72
    65
 73
     2
 40
0.375
 49
0.25
 74
     0
 49
-0.125
 74
     0
  0
LTYPE
  5
93
330
5
100
AcDbSymbolTableRecord
100
AcDbLinetypeTableRecord
  2
Eigene Linie 38
 70
     0
  3

 72
    65
 73
     2
 40
1.5
 49
1.0
 74
     0
 49
-0.5
 74
     0
  0
LTYPE
  5
94
330
5
100
AcDbSymbolTableRecord
100
AcDbLinetypeTableRecord
  2
Eigene Linie 39
 70
     0
  3

 72
    65
 73
     6
 40
2.5
 49
1.25
 74
     0
 49
-0.25
 74
     0
 49
0.25
 74
     0
 49
-0.25
 74
     0
 49
0.25
 74
     0
 49
-0.25
 74
     0
  0
LTYPE
  5
95
330
5
100
AcDbSymbolTableRecord
100
AcDbLinetypeTableRecord
  2
Eigene Linie 40
 70
     0
  3

 72
    65
 73
     6
 40
1.25
 49
0.625
 74
     0
 49
-0.125
 74
     0
 49
0.125
 74
     0
 49
-0.125
 74
     0
 49
0.125
 74
     0
 49
-0.125
 74
     0
  0
LTYPE
  5
96
330
5
100
AcDbSymbolTableRecord
100
AcDbLinetypeTableRecord
  2
Eigene Linie 41
 70
     0
  3

 72
    65
 73
     6
 40
5.0
 49
2.5
 74
     0
 49
-0.5
 74
     0
 49
0.5
 74
     0
 49
-0.5
 74
     0
 49
0.5
 74
     0
 49
-0.5
 74
     0
  0
LTYPE
  5
97
330
5
100
AcDbSymbolTableRecord
100
AcDbLinetypeTableRecord
  2
Eigene Linie 42
 70
     0
  3

 72
    65
 73
     2
 40
0.300000011920929
 49
0.1500000059604645
 74
     0
 49
-0.1500000059604645
 74
     0
  0
LTYPE
  5
98
330
5
100
AcDbSymbolTableRecord
100
AcDbLinetypeTableRecord
  2
Eigene Linie 43
 70
     0
  3

 72
    65
 73
     2
 40
0.1399999968707561
 49
0.0799999982118607
 74
     0
 49
-0.0599999986588955
 74
     0
  0
LTYPE
  5
99
330
5
100
AcDbSymbolTableRecord
100
AcDbLinetypeTableRecord
  2
Eigene Linie 44
 70
     0
  3

 72
    65
 73
     2
 40
0.3000000007450581
 49
0.0500000007450581
 74
     0
 49
-0.25
 74
     0
  0
LTYPE
  5
9A
330
5
100
AcDbSymbolTableRecord
100
AcDbLinetypeTableRecord
  2
Eigene Linie 45
 70
     0
  3

 72
    65
 73
     2
 40
0.5500000007450581
 49
0.0500000007450581
 74
     0
 49
-0.5
 74
     0
  0
ENDTAB
  0
TABLE
  2
LAYER
  5
2
330
0
100
AcDbSymbolTable
 70
     3
  0
LAYER
  5
10
330
2
100
AcDbSymbolTableRecord
100
AcDbLayerTableRecord
  2
0
 70
     0
 62
     7
  6
Continuous
370
    -3
390
F
  0
LAYER
  5
9B
330
2
100
AcDbSymbolTableRecord
100
AcDbLayerTableRecord
  2
0 - Systemaufbauten
 70
     0
 62
     7
  6
Continuous
370
     0
390
F
  0
LAYER
  5
9C
330
2
100
AcDbSymbolTableRecord
100
AcDbLayerTableRecord
  2
00_Allgemein - Systemaufbauten
 70
     0
 62
     7
  6
Continuous
370
     0
390
F
  0
ENDTAB
  0
TABLE
  2
STYLE
  5
3
330
0
100
AcDbSymbolTable
 70
     2
  0
STYLE
  5
11
330
3
100
AcDbSymbolTableRecord
100
AcDbTextStyleTableRecord
  2
Standard
 70
     0
 40
0.0
 41
1.0
 50
0.0
 71
     0
 42
0.2
  3
txt
  4

  0
STYLE
  5
A1
330
3
100
AcDbSymbolTableRecord
100
AcDbTextStyleTableRecord
  2
Style0
 70
     0
 40
0.0
 41
1.0
 50
0.0
 71
     0
 42
0.2
  3
cour.ttf
  4

1001
ACAD
1000
Courier New
1071
        0
  0
ENDTAB
  0
TABLE
  2
VIEW
  5
6
330
0
100
AcDbSymbolTable
 70
     0
  0
ENDTAB
  0
TABLE
  2
UCS
  5
7
330
0
100
AcDbSymbolTable
 70
     0
  0
ENDTAB
  0
TABLE
  2
APPID
  5
9
330
0
100
AcDbSymbolTable
 70
     3
  0
APPID
  5
12
330
9
100
AcDbSymbolTableRecord
100
AcDbRegAppTableRecord
  2
ACAD
 70
     0
  0
APPID
  5
6E
330
9
100
AcDbSymbolTableRecord
100
AcDbRegAppTableRecord
  2
ARCHLineXP
 70
     0
  0
APPID
  5
3BD
330
9
100
AcDbSymbolTableRecord
100
AcDbRegAppTableRecord
  2
ACAD_MLEADERVER
 70
     0
  0
ENDTAB
  0
TABLE
  2
DIMSTYLE
  5
A
330
0
100
AcDbSymbolTable
 70
     1
100
AcDbDimStyleTable
  0
DIMSTYLE
105
27
330
A
100
AcDbSymbolTableRecord
100
AcDbDimStyleTableRecord
  2
Standard
 70
     0
178
     0
340
11
  0
ENDTAB
  0
TABLE
  2
BLOCK_RECORD
  5
1
330
0
100
AcDbSymbolTable
 70
     2
  0
BLOCK_RECORD
  5
1F
330
1
100
AcDbSymbolTableRecord
100
AcDbBlockTableRecord
  2
*Model_Space
340
22
  0
BLOCK_RECORD
  5
1B
330
1
100
AcDbSymbolTableRecord
100
AcDbBlockTableRecord
  2
*Paper_Space
340
1E
  0
BLOCK_RECORD
  5
23
330
1
100
AcDbSymbolTableRecord
100
AcDbBlockTableRecord
  2
*Paper_Space0
340
26
  0
BLOCK_RECORD
  5
A3
330
1
100
AcDbSymbolTableRecord
100
AcDbBlockTableRecord
  2
dokument systemaufbauten.asc(id_4)
340
0
102
{BLKREFS
331
37B
102
}
  0
ENDTAB
  0
ENDSEC
  0
SECTION
  2
BLOCKS
  0
BLOCK
  5
20
330
1F
100
AcDbEntity
  8
0
100
AcDbBlockBegin
  2
*Model_Space
 70
     0
 10
0.0
 20
0.0
 30
0.0
  3
*Model_Space
  1

  0
ENDBLK
  5
21
330
1F
100
AcDbEntity
  8
0
100
AcDbBlockEnd
  0
BLOCK
  5
1C
330
1B
100
AcDbEntity
 67
     1
  8
0
100
AcDbBlockBegin
  2
*Paper_Space
 70
     0
 10
0.0
 20
0.0
 30
0.0
  3
*Paper_Space
  1

  0
ENDBLK
  5
1D
330
1B
100
AcDbEntity
 67
     1
  8
0
100
AcDbBlockEnd
  0
BLOCK
  5
24
330
23
100
AcDbEntity
  8
0
100
AcDbBlockBegin
  2
*Paper_Space0
 70
     0
 10
0.0
 20
0.0
 30
0.0
  3
*Paper_Space0
  1

  0
ENDBLK
  5
25
330
23
100
AcDbEntity
  8
0
100
AcDbBlockEnd
  0
BLOCK
  5
37C
330
A3
100
AcDbEntity
  8
0
100
AcDbBlockBegin
  2
dokument systemaufbauten.asc(id_4)
 70
     0
 10
0.0
 20
0.0
 30
0.0
  3
dokument systemaufbauten.asc(id_4)
  1

  0
HATCH
  5
A4
330
A3
100
AcDbEntity
  8
0 - Systemaufbauten
  6
Continuous
 62
     7
370
     0
100
AcDbHatch
 10
0.0
 20
0.0
 30
0.0
210
0.0
220
0.0
230
1.0
  2
SOLID
 70
     1
 71
     0
 91
        1
 92
        0
 93
        4
 72
     1
 10
534.2593777053075
 20
647.3686759686634
 11
634.2593777053075
 21
647.3686759686634
 72
     1
 10
634.2593777053075
 20
647.3686759686634
 11
634.2593777053075
 21
637.3686759686625
 72
     1
 10
634.2593777053075
 20
637.3686759686625
 11
534.2593777053075
 21
637.3686759686625
 72
     1
 10
534.2593777053075
 20
637.3686759686625
 11
534.2593777053075
 21
647.3686759686634
 97
        0
 75
     0
 76
     1
 98
        0
  0
HATCH
  5
A5
330
A3
100
AcDbEntity
  8
0 - Systemaufbauten
  6
Continuous
 62
     7
370
     0
100
AcDbHatch
 10
0.0
 20
0.0
 30
0.0
210
0.0
220
0.0
230
1.0
  2
SOLID
 70
     1
 71
     0
 91
        1
 92
        0
 93
        4
 72
     1
 10
734.2593777053075
 20
647.3686759686634
 11
834.2593777053075
 21
647.3686759686634
 72
     1
 10
834.2593777053075
 20
647.3686759686634
 11
834.2593777053075
 21
637.3686759686625
 72
     1
 10
834.2593777053075
 20
637.3686759686625
 11
734.2593777053075
 21
637.3686759686625
 72
     1
 10
734.2593777053075
 20
637.3686759686625
 11
734.2593777053075
 21
647.3686759686634
 97
        0
 75
     0
 76
     1
 98
        0
  0
HATCH
  5
A6
330
A3
100
AcDbEntity
  8
0 - Systemaufbauten
  6
Continuous
 62
     7
370
     0
100
AcDbHatch
 10
0.0
 20
0.0
 30
0.0
210
0.0
220
0.0
230
1.0
  2
SOLID
 70
     1
 71
     0
 91
        1
 92
        0
 93
        4
 72
     1
 10
934.2593777053075
 20
647.3686759686634
 11
1034.259377705308
 21
647.3686759686634
 72
     1
 10
1034.259377705308
 20
647.3686759686634
 11
1034.259377705308
 21
637.3686759686625
 72
     1
 10
1034.259377705308
 20
637.3686759686625
 11
934.2593777053075
 21
637.3686759686625
 72
     1
 10
934.2593777053075
 20
637.3686759686625
 11
934.2593777053075
 21
647.3686759686634
 97
        0
 75
     0
 76
     1
 98
        0
  0
HATCH
  5
A7
330
A3
100
AcDbEntity
  8
0 - Systemaufbauten
  6
Continuous
 62
     7
370
     0
100
AcDbHatch
 10
0.0
 20
0.0
 30
0.0
210
0.0
220
0.0
230
1.0
  2
SOLID
 70
     1
 71
     0
 91
        1
 92
        0
 93
        4
 72
     1
 10
1134.259377705308
 20
647.3686759686634
 11
1234.259377705308
 21
647.3686759686634
 72
     1
 10
1234.259377705308
 20
647.3686759686634
 11
1234.259377705308
 21
637.3686759686625
 72
     1
 10
1234.259377705308
 20
637.3686759686625
 11
1134.259377705308
 21
637.3686759686625
 72
     1
 10
1134.259377705308
 20
637.3686759686625
 11
1134.259377705308
 21
647.3686759686634
 97
        0
 75
     0
 76
     1
 98
        0
  0
HATCH
  5
A8
330
A3
100
AcDbEntity
  8
0 - Systemaufbauten
  6
Continuous
 62
     7
370
     0
100
AcDbHatch
 10
0.0
 20
0.0
 30
0.0
210
0.0
220
0.0
230
1.0
  2
SOLID
 70
     1
 71
     0
 91
        1
 92
        0
 93
        4
 72
     1
 10
1334.259377705308
 20
647.3686759686634
 11
1434.259377705308
 21
647.3686759686634
 72
     1
 10
1434.259377705308
 20
647.3686759686634
 11
1434.259377705308
 21
637.3686759686625
 72
     1
 10
1434.259377705308
 20
637.3686759686625
 11
1334.259377705308
 21
637.3686759686625
 72
     1
 10
1334.259377705308
 20
637.3686759686625
 11
1334.259377705308
 21
647.3686759686634
 97
        0
 75
     0
 76
     1
 98
        0
  0
HATCH
  5
A9
330
A3
100
AcDbEntity
  8
0 - Systemaufbauten
  6
Continuous
 62
     7
370
     0
100
AcDbHatch
 10
0.0
 20
0.0
 30
0.0
210
0.0
220
0.0
230
1.0
  2
SOLID
 70
     1
 71
     0
 91
        1
 92
        0
 93
        4
 72
     1
 10
1534.259377705308
 20
647.3686759686634
 11
1634.259377705308
 21
647.3686759686634
 72
     1
 10
1634.259377705308
 20
647.3686759686634
 11
1634.259377705308
 21
637.3686759686625
 72
     1
 10
1634.259377705308
 20
637.3686759686625
 11
1534.259377705308
 21
637.3686759686625
 72
     1
 10
1534.259377705308
 20
637.3686759686625
 11
1534.259377705308
 21
647.3686759686634
 97
        0
 75
     0
 76
     1
 98
        0
  0
HATCH
  5
AA
330
A3
100
AcDbEntity
  8
0 - Systemaufbauten
  6
Continuous
 62
     7
370
     0
100
AcDbHatch
 10
0.0
 20
0.0
 30
0.0
210
0.0
220
0.0
230
1.0
  2
SOLID
 70
     1
 71
     0
 91
        1
 92
        0
 93
        4
 72
     1
 10
1734.259377705308
 20
647.3686759686634
 11
1834.259377705308
 21
647.3686759686634
 72
     1
 10
1834.259377705308
 20
647.3686759686634
 11
1834.259377705308
 21
637.3686759686625
 72
     1
 10
1834.259377705308
 20
637.3686759686625
 11
1734.259377705308
 21
637.3686759686625
 72
     1
 10
1734.259377705308
 20
637.3686759686625
 11
1734.259377705308
 21
647.3686759686634
 97
        0
 75
     0
 76
     1
 98
        0
  0
HATCH
  5
AB
330
A3
100
AcDbEntity
  8
0 - Systemaufbauten
  6
Continuous
 62
     2
370
     0
100
AcDbHatch
 10
0.0
 20
0.0
 30
0.0
210
0.0
220
0.0
230
1.0
  2
SOLID
 70
     1
 71
     0
 91
        1
 92
        0
 93
        4
 72
     1
 10
334.2593777053075
 20
887.3686759686625
 11
624.2593777053075
 21
887.3686759686625
 72
     1
 10
624.2593777053075
 20
887.3686759686625
 11
624.2593777053075
 21
647.3686759686634
 72
     1
 10
624.2593777053075
 20
647.3686759686634
 11
334.2593777053075
 21
647.3686759686634
 72
     1
 10
334.2593777053075
 20
647.3686759686634
 11
334.2593777053075
 21
887.3686759686625
 97
        0
 75
     0
 76
     1
 98
        0
  0
HATCH
  5
AC
330
A3
100
AcDbEntity
  8
0 - Systemaufbauten
  6
Continuous
 62
     2
370
     0
100
AcDbHatch
 10
0.0
 20
0.0
 30
0.0
210
0.0
220
0.0
230
1.0
  2
SOLID
 70
     1
 71
     0
 91
        1
 92
        0
 93
        4
 72
     1
 10
744.2593777053075
 20
887.3686759686625
 11
1424.259377705308
 21
887.3686759686625
 72
     1
 10
1424.259377705308
 20
887.3686759686625
 11
1424.259377705308
 21
647.3686759686634
 72
     1
 10
1424.259377705308
 20
647.3686759686634
 11
744.2593777053075
 21
647.3686759686634
 72
     1
 10
744.2593777053075
 20
647.3686759686634
 11
744.2593777053075
 21
887.3686759686625
 97
        0
 75
     0
 76
     1
 98
        0
  0
HATCH
  5
AD
330
A3
100
AcDbEntity
  8
0 - Systemaufbauten
  6
Continuous
 62
     2
370
     0
100
AcDbHatch
 10
0.0
 20
0.0
 30
0.0
210
0.0
220
0.0
230
1.0
  2
SOLID
 70
     1
 71
     0
 91
        1
 92
        0
 93
        4
 72
     1
 10
1544.259377705308
 20
887.3686759686625
 11
1834.259377705308
 21
887.3686759686625
 72
     1
 10
1834.259377705308
 20
887.3686759686625
 11
1834.259377705308
 21
647.3686759686634
 72
     1
 10
1834.259377705308
 20
647.3686759686634
 11
1544.259377705308
 21
647.3686759686634
 72
     1
 10
1544.259377705308
 20
647.3686759686634
 11
1544.259377705308
 21
887.3686759686625
 97
        0
 75
     0
 76
     1
 98
        0
  0
ARC
  5
AE
330
A3
100
AcDbEntity
  8
0 - Systemaufbauten
  6
Continuous
 62
     7
370
     0
100
AcDbCircle
 10
334.2593777053075
 20
836.3206737256205
 30
0.0
 40
51.00891482670227
100
AcDbArc
 50
336.4261980457484
 51
90.0
  0
LINE
  5
AF
330
A3
100
AcDbEntity
  8
0 - Systemaufbauten
  6
Continuous
 62
     7
370
     0
100
AcDbLine
 10
339.4193778805452
 20
720.5206768727476
 30
0.0
 11
381.0113787524429
 21
815.9206788754618
 31
0.0
  0
ARC
  5
B0
330
A3
100
AcDbEntity
  8
0 - Systemaufbauten
  6
Continuous
 62
     7
370
     0
100
AcDbCircle
 10
436.1153781287398
 20
836.3206737256205
 30
0.0
 40
51.04800224304213
100
AcDbArc
 50
90.0
 51
205.7090486796694
  0
ARC
  5
B1
330
A3
100
AcDbEntity
  8
0 - Systemaufbauten
  6
Continuous
 62
     7
370
     0
100
AcDbCircle
 10
385.3793775908675
 20
698.3926742291605
 30
0.0
 40
51.0095096464112
100
AcDbArc
 50
154.2909429924959
 51
25.67401876764656
  0
LINE
  5
B2
330
A3
100
AcDbEntity
  8
0 - Systemaufbauten
  6
Continuous
 62
     7
370
     0
100
AcDbLine
 10
431.4113771788802
 20
720.5206768727476
 30
0.0
 11
390.1553761832433
 21
814.1926782345927
 31
0.0
  0
ARC
  5
B3
330
A3
100
AcDbEntity
  8
0 - Systemaufbauten
  6
Continuous
 62
     7
370
     0
100
AcDbCircle
 10
436.1153781287398
 20
836.3206737256205
 30
0.0
 40
51.00891482670227
100
AcDbArc
 50
336.4261980457484
 51
90.0
  0
LINE
  5
B4
330
A3
100
AcDbEntity
  8
0 - Systemaufbauten
  6
Continuous
 62
     7
370
     0
100
AcDbLine
 10
441.2753783039775
 20
720.5206768727476
 30
0.0
 11
482.8673791758742
 21
815.9206788754618
 31
0.0
  0
ARC
  5
B5
330
A3
100
AcDbEntity
  8
0 - Systemaufbauten
  6
Continuous
 62
     7
370
     0
100
AcDbCircle
 10
537.9713785521712
 20
836.3206737256205
 30
0.0
 40
51.04800224304213
100
AcDbArc
 50
90.0
 51
205.7090486796694
  0
ARC
  5
B6
330
A3
100
AcDbEntity
  8
0 - Systemaufbauten
  6
Continuous
 62
     7
370
     0
100
AcDbCircle
 10
487.235378014298
 20
698.3926742291605
 30
0.0
 40
51.00950964641056
100
AcDbArc
 50
154.2909429924956
 51
25.6740187676462
  0
LINE
  5
B7
330
A3
100
AcDbEntity
  8
0 - Systemaufbauten
  6
Continuous
 62
     7
370
     0
100
AcDbLine
 10
533.2673776023116
 20
720.5206768727476
 30
0.0
 11
492.0113766066756
 21
814.1926782345927
 31
0.0
  0
ARC
  5
B8
330
A3
100
AcDbEntity
  8
0 - Systemaufbauten
  6
Continuous
 62
     7
370
     0
100
AcDbCircle
 10
537.9713785521712
 20
836.3206737256205
 30
0.0
 40
51.00891482670227
100
AcDbArc
 50
336.4261980457484
 51
90.0
  0
LINE
  5
B9
330
A3
100
AcDbEntity
  8
0 - Systemaufbauten
  6
Continuous
 62
     7
370
     0
100
AcDbLine
 10
543.131378727408
 20
720.5206768727476
 30
0.0
 11
584.7233795993056
 21
815.9206788754618
 31
0.0
  0
ARC
  5
BA
330
A3
100
AcDbEntity
  8
0 - Systemaufbauten
  6
Continuous
 62
     7
370
     0
100
AcDbCircle
 10
639.8273789756026
 20
836.3206737256205
 30
0.0
 40
51.04800224304216
100
AcDbArc
 50
107.7562317937767
 51
205.7090486796694
  0
ARC
  5
BB
330
A3
100
AcDbEntity
  8
0 - Systemaufbauten
  6
Continuous
 62
     7
370
     0
100
AcDbCircle
 10
589.0913784377303
 20
698.3926742291605
 30
0.0
 40
51.00950964641056
100
AcDbArc
 50
154.2909429924956
 51
313.5858009034604
  0
LINE
  5
BC
330
A3
100
AcDbEntity
  8
0 - Systemaufbauten
  6
Continuous
 62
     7
370
     0
100
AcDbLine
 10
624.2593777053066
 20
745.1874557231404
 30
0.0
 11
593.8673770301061
 21
814.1926782345927
 31
0.0
  0
ARC
  5
BD
330
A3
100
AcDbEntity
  8
0 - Systemaufbauten
  6
Continuous
 62
     7
370
     0
100
AcDbCircle
 10
744.2593777053075
 20
836.3206737256205
 30
0.0
 40
51.00891482670227
100
AcDbArc
 50
336.4261980457484
 51
90.0
  0
LINE
  5
BE
330
A3
100
AcDbEntity
  8
0 - Systemaufbauten
  6
Continuous
 62
     7
370
     0
100
AcDbLine
 10
749.4193778805461
 20
720.5206768727476
 30
0.0
 11
791.0113787524429
 21
815.9206788754618
 31
0.0
  0
ARC
  5
BF
330
A3
100
AcDbEntity
  8
0 - Systemaufbauten
  6
Continuous
 62
     7
370
     0
100
AcDbCircle
 10
846.1153781287398
 20
836.3206737256205
 30
0.0
 40
51.04800224304213
100
AcDbArc
 50
90.0
 51
205.7090486796694
  0
ARC
  5
C0
330
A3
100
AcDbEntity
  8
0 - Systemaufbauten
  6
Continuous
 62
     7
370
     0
100
AcDbCircle
 10
795.3793775908657
 20
698.3926742291605
 30
0.0
 40
51.0095096464112
100
AcDbArc
 50
154.2909429924959
 51
25.67401876764656
  0
LINE
  5
C1
330
A3
100
AcDbEntity
  8
0 - Systemaufbauten
  6
Continuous
 62
     7
370
     0
100
AcDbLine
 10
841.4113771788793
 20
720.5206768727476
 30
0.0
 11
800.1553761832433
 21
814.1926782345927
 31
0.0
  0
ARC
  5
C2
330
A3
100
AcDbEntity
  8
0 - Systemaufbauten
  6
Continuous
 62
     7
370
     0
100
AcDbCircle
 10
846.1153781287398
 20
836.3206737256205
 30
0.0
 40
51.00891482670227
100
AcDbArc
 50
336.4261980457484
 51
90.0
  0
LINE
  5
C3
330
A3
100
AcDbEntity
  8
0 - Systemaufbauten
  6
Continuous
 62
     7
370
     0
100
AcDbLine
 10
851.2753783039766
 20
720.5206768727476
 30
0.0
 11
892.8673791758733
 21
815.9206788754618
 31
0.0
  0
ARC
  5
C4
330
A3
100
AcDbEntity
  8
0 - Systemaufbauten
  6
Continuous
 62
     7
370
     0
100
AcDbCircle
 10
947.9713785521703
 20
836.3206737256205
 30
0.0
 40
51.04800224304213
100
AcDbArc
 50
90.0
 51
205.7090486796694
  0
ARC
  5
C5
330
A3
100
AcDbEntity
  8
0 - Systemaufbauten
  6
Continuous
 62
     7
370
     0
100
AcDbCircle
 10
897.2353780142971
 20
698.3926742291605
 30
0.0
 40
51.00950964641056
100
AcDbArc
 50
154.2909429924956
 51
25.6740187676462
  0
LINE
  5
C6
330
A3
100
AcDbEntity
  8
0 - Systemaufbauten
  6
Continuous
 62
     7
370
     0
100
AcDbLine
 10
943.2673776023116
 20
720.5206768727476
 30
0.0
 11
902.0113766066747
 21
814.1926782345927
 31
0.0
  0
ARC
  5
C7
330
A3
100
AcDbEntity
  8
0 - Systemaufbauten
  6
Continuous
 62
     7
370
     0
100
AcDbCircle
 10
947.9713785521703
 20
836.3206737256205
 30
0.0
 40
51.00891482670227
100
AcDbArc
 50
336.4261980457484
 51
90.0
  0
LINE
  5
C8
330
A3
100
AcDbEntity
  8
0 - Systemaufbauten
  6
Continuous
 62
     7
370
     0
100
AcDbLine
 10
953.131378727408
 20
720.5206768727476
 30
0.0
 11
994.7233795993056
 21
815.9206788754618
 31
0.0
  0
ARC
  5
C9
330
A3
100
AcDbEntity
  8
0 - Systemaufbauten
  6
Continuous
 62
     7
370
     0
100
AcDbCircle
 10
1049.827378975603
 20
836.3206737256205
 30
0.0
 40
51.04800224304213
100
AcDbArc
 50
90.0
 51
205.7090486796694
  0
ARC
  5
CA
330
A3
100
AcDbEntity
  8
0 - Systemaufbauten
  6
Continuous
 62
     7
370
     0
100
AcDbCircle
 10
999.0913784377294
 20
698.3926742291605
 30
0.0
 40
51.00950964641056
100
AcDbArc
 50
154.2909429924956
 51
25.6740187676462
  0
LINE
  5
CB
330
A3
100
AcDbEntity
  8
0 - Systemaufbauten
  6
Continuous
 62
     7
370
     0
100
AcDbLine
 10
1045.123378025742
 20
720.5206768727476
 30
0.0
 11
1003.867377030106
 21
814.1926782345927
 31
0.0
  0
ARC
  5
CC
330
A3
100
AcDbEntity
  8
0 - Systemaufbauten
  6
Continuous
 62
     7
370
     0
100
AcDbCircle
 10
1049.827378975603
 20
836.3206737256205
 30
0.0
 40
51.00891482670227
100
AcDbArc
 50
336.4261980457484
 51
90.0
  0
LINE
  5
CD
330
A3
100
AcDbEntity
  8
0 - Systemaufbauten
  6
Continuous
 62
     7
370
     0
100
AcDbLine
 10
1054.98737915084
 20
720.5206768727476
 30
0.0
 11
1096.579380022738
 21
815.9206788754618
 31
0.0
  0
ARC
  5
CE
330
A3
100
AcDbEntity
  8
0 - Systemaufbauten
  6
Continuous
 62
     7
370
     0
100
AcDbCircle
 10
1151.683379399035
 20
836.3206737256205
 30
0.0
 40
51.04800224304213
100
AcDbArc
 50
90.0
 51
205.7090486796694
  0
ARC
  5
CF
330
A3
100
AcDbEntity
  8
0 - Systemaufbauten
  6
Continuous
 62
     7
370
     0
100
AcDbCircle
 10
1100.947378861161
 20
698.3926742291605
 30
0.0
 40
51.00950964641056
100
AcDbArc
 50
154.2909429924956
 51
25.67401876764656
  0
LINE
  5
D0
330
A3
100
AcDbEntity
  8
0 - Systemaufbauten
  6
Continuous
 62
     7
370
     0
100
AcDbLine
 10
1146.979378449174
 20
720.5206768727476
 30
0.0
 11
1105.723377453538
 21
814.1926782345927
 31
0.0
  0
ARC
  5
D1
330
A3
100
AcDbEntity
  8
0 - Systemaufbauten
  6
Continuous
 62
     7
370
     0
100
AcDbCircle
 10
1151.683379399035
 20
836.3206737256205
 30
0.0
 40
51.00891482670227
100
AcDbArc
 50
336.4261980457484
 51
90.0
  0
LINE
  5
D2
330
A3
100
AcDbEntity
  8
0 - Systemaufbauten
  6
Continuous
 62
     7
370
     0
100
AcDbLine
 10
1156.843379574272
 20
720.5206768727476
 30
0.0
 11
1198.435380446168
 21
815.9206788754618
 31
0.0
  0
ARC
  5
D3
330
A3
100
AcDbEntity
  8
0 - Systemaufbauten
  6
Continuous
 62
     7
370
     0
100
AcDbCircle
 10
1253.539379822465
 20
836.3206737256205
 30
0.0
 40
51.04800224304213
100
AcDbArc
 50
90.0
 51
205.7090486796694
  0
ARC
  5
D4
330
A3
100
AcDbEntity
  8
0 - Systemaufbauten
  6
Continuous
 62
     7
370
     0
100
AcDbCircle
 10
1202.803379284592
 20
698.3926742291605
 30
0.0
 40
51.00950964641056
100
AcDbArc
 50
154.2909429924956
 51
25.67401876764656
  0
LINE
  5
D5
330
A3
100
AcDbEntity
  8
0 - Systemaufbauten
  6
Continuous
 62
     7
370
     0
100
AcDbLine
 10
1248.835378872606
 20
720.5206768727476
 30
0.0
 11
1207.57937787697
 21
814.1926782345927
 31
0.0
  0
ARC
  5
D6
330
A3
100
AcDbEntity
  8
0 - Systemaufbauten
  6
Continuous
 62
     7
370
     0
100
AcDbCircle
 10
1253.539379822465
 20
836.3206737256205
 30
0.0
 40
51.00891482670227
100
AcDbArc
 50
336.4261980457484
 51
90.0
  0
LINE
  5
D7
330
A3
100
AcDbEntity
  8
0 - Systemaufbauten
  6
Continuous
 62
     7
370
     0
100
AcDbLine
 10
1258.699379997703
 20
720.5206768727476
 30
0.0
 11
1300.291380869601
 21
815.9206788754618
 31
0.0
  0
ARC
  5
D8
330
A3
100
AcDbEntity
  8
0 - Systemaufbauten
  6
Continuous
 62
     7
370
     0
100
AcDbCircle
 10
1355.395380245898
 20
836.3206737256205
 30
0.0
 40
51.04800224304213
100
AcDbArc
 50
90.0
 51
205.7090486796694
  0
ARC
  5
D9
330
A3
100
AcDbEntity
  8
0 - Systemaufbauten
  6
Continuous
 62
     7
370
     0
100
AcDbCircle
 10
1304.659379708025
 20
698.3926742291605
 30
0.0
 40
51.00950964641056
100
AcDbArc
 50
154.2909429924956
 51
25.67401876764656
  0
LINE
  5
DA
330
A3
100
AcDbEntity
  8
0 - Systemaufbauten
  6
Continuous
 62
     7
370
     0
100
AcDbLine
 10
1350.691379296037
 20
720.5206768727476
 30
0.0
 11
1309.435378300401
 21
814.1926782345927
 31
0.0
  0
ARC
  5
DB
330
A3
100
AcDbEntity
  8
0 - Systemaufbauten
  6
Continuous
 62
     7
370
     0
100
AcDbCircle
 10
1355.395380245898
 20
836.3206737256205
 30
0.0
 40
51.00891482670161
100
AcDbArc
 50
336.426198045748
 51
90.0
  0
LINE
  5
DC
330
A3
100
AcDbEntity
  8
0 - Systemaufbauten
  6
Continuous
 62
     7
370
     0
100
AcDbLine
 10
1360.555380421135
 20
720.5206768727476
 30
0.0
 11
1402.147381293031
 21
815.9206788754618
 31
0.0
  0
ARC
  5
DD
330
A3
100
AcDbEntity
  8
0 - Systemaufbauten
  6
Continuous
 62
     7
370
     0
100
AcDbCircle
 10
1457.25138066933
 20
836.3206737256205
 30
0.0
 40
51.04800224304202
100
AcDbArc
 50
130.2627431427847
 51
205.7090486796694
  0
ARC
  5
DE
330
A3
100
AcDbEntity
  8
0 - Systemaufbauten
  6
Continuous
 62
     7
370
     0
100
AcDbCircle
 10
1406.515380131456
 20
698.3926742291605
 30
0.0
 40
51.00950964641056
100
AcDbArc
 50
154.2909429924956
 51
290.3562746827657
  0
LINE
  5
DF
330
A3
100
AcDbEntity
  8
0 - Systemaufbauten
  6
Continuous
 62
     7
370
     0
100
AcDbLine
 10
1424.259377705308
 20
784.7487576184985
 30
0.0
 11
1411.291378723834
 21
814.1926782345927
 31
0.0
  0
ARC
  5
E0
330
A3
100
AcDbEntity
  8
0 - Systemaufbauten
  6
Continuous
 62
     7
370
     0
100
AcDbCircle
 10
1544.259377705308
 20
836.3206737256205
 30
0.0
 40
51.00891482670227
100
AcDbArc
 50
336.4261980457484
 51
90.0
  0
LINE
  5
E1
330
A3
100
AcDbEntity
  8
0 - Systemaufbauten
  6
Continuous
 62
     7
370
     0
100
AcDbLine
 10
1549.419377880546
 20
720.5206768727476
 30
0.0
 11
1591.011378752443
 21
815.9206788754618
 31
0.0
  0
ARC
  5
E2
330
A3
100
AcDbEntity
  8
0 - Systemaufbauten
  6
Continuous
 62
     7
370
     0
100
AcDbCircle
 10
1646.11537812874
 20
836.3206737256205
 30
0.0
 40
51.04800224304213
100
AcDbArc
 50
90.0
 51
205.7090486796694
  0
ARC
  5
E3
330
A3
100
AcDbEntity
  8
0 - Systemaufbauten
  6
Continuous
 62
     7
370
     0
100
AcDbCircle
 10
1595.379377590866
 20
698.3926742291605
 30
0.0
 40
51.00950964641056
100
AcDbArc
 50
154.2909429924956
 51
25.67401876764656
  0
LINE
  5
E4
330
A3
100
AcDbEntity
  8
0 - Systemaufbauten
  6
Continuous
 62
     7
370
     0
100
AcDbLine
 10
1641.411377178878
 20
720.5206768727476
 30
0.0
 11
1600.155376183243
 21
814.1926782345927
 31
0.0
  0
ARC
  5
E5
330
A3
100
AcDbEntity
  8
0 - Systemaufbauten
  6
Continuous
 62
     7
370
     0
100
AcDbCircle
 10
1646.11537812874
 20
836.3206737256205
 30
0.0
 40
51.00891482670161
100
AcDbArc
 50
336.426198045748
 51
90.0
  0
LINE
  5
E6
330
A3
100
AcDbEntity
  8
0 - Systemaufbauten
  6
Continuous
 62
     7
370
     0
100
AcDbLine
 10
1651.275378303977
 20
720.5206768727476
 30
0.0
 11
1692.867379175873
 21
815.9206788754618
 31
0.0
  0
ARC
  5
E7
330
A3
100
AcDbEntity
  8
0 - Systemaufbauten
  6
Continuous
 62
     7
370
     0
100
AcDbCircle
 10
1747.97137855217
 20
836.3206737256205
 30
0.0
 40
51.04800224304213
100
AcDbArc
 50
90.0
 51
205.7090486796698
  0
ARC
  5
E8
330
A3
100
AcDbEntity
  8
0 - Systemaufbauten
  6
Continuous
 62
     7
370
     0
100
AcDbCircle
 10
1697.235378014297
 20
698.3926742291605
 30
0.0
 40
51.00950964641056
100
AcDbArc
 50
154.2909429924956
 51
25.67401876764656
  0
LINE
  5
E9
330
A3
100
AcDbEntity
  8
0 - Systemaufbauten
  6
Continuous
 62
     7
370
     0
100
AcDbLine
 10
1743.267377602311
 20
720.5206768727476
 30
0.0
 11
1702.011376606675
 21
814.1926782345927
 31
0.0
  0
ARC
  5
EA
330
A3
100
AcDbEntity
  8
0 - Systemaufbauten
  6
Continuous
 62
     7
370
     0
100
AcDbCircle
 10
1747.97137855217
 20
836.3206737256205
 30
0.0
 40
51.00891482670227
100
AcDbArc
 50
336.4261980457484
 51
90.0
  0
LINE
  5
EB
330
A3
100
AcDbEntity
  8
0 - Systemaufbauten
  6
Continuous
 62
     7
370
     0
100
AcDbLine
 10
1753.131378727408
 20
720.5206768727476
 30
0.0
 11
1794.723379599305
 21
815.9206788754618
 31
0.0
  0
ARC
  5
EC
330
A3
100
AcDbEntity
  8
0 - Systemaufbauten
  6
Continuous
 62
     7
370
     0
100
AcDbCircle
 10
1849.827378975602
 20
836.3206737256205
 30
0.0
 40
51.04800224304219
100
AcDbArc
 50
107.7562317937742
 51
205.7090486796694
  0
ARC
  5
ED
330
A3
100
AcDbEntity
  8
0 - Systemaufbauten
  6
Continuous
 62
     7
370
     0
100
AcDbCircle
 10
1799.091378437729
 20
698.3926742291605
 30
0.0
 40
51.00950964641056
100
AcDbArc
 50
154.2909429924956
 51
313.5858009034636
  0
LINE
  5
EE
330
A3
100
AcDbEntity
  8
0 - Systemaufbauten
  6
Continuous
 62
     7
370
     0
100
AcDbLine
 10
1834.259377705308
 20
745.1874557231376
 30
0.0
 11
1803.867377030105
 21
814.1926782345927
 31
0.0
  0
LINE
  5
EF
330
A3
100
AcDbEntity
  8
0 - Systemaufbauten
  6
Continuous
 62
     7
370
     0
100
AcDbLine
 10
629.2033778004356
 20
864.1366546368763
 30
0.0
 11
632.0593774192043
 21
706.9606762147114
 31
0.0
  0
LINE
  5
F0
330
A3
100
AcDbEntity
  8
0 - Systemaufbauten
  6
Continuous
 62
     7
370
     0
100
AcDbLine
 10
669.2113768927752
 20
832.744681141392
 30
0.0
 11
672.0673787467181
 21
769.8646753049061
 31
0.0
  0
LINE
  5
F1
330
A3
100
AcDbEntity
  8
0 - Systemaufbauten
  6
Continuous
 62
     7
370
     0
100
AcDbLine
 10
646.339377748222
 20
887.368647358433
 30
0.0
 11
652.051377879829
 21
764.0806524968311
 31
0.0
  0
LINE
  5
F2
330
A3
100
AcDbEntity
  8
0 - Systemaufbauten
  6
Continuous
 62
     7
370
     0
100
AcDbLine
 10
686.347380863876
 20
875.6086557126209
 30
0.0
 11
689.2033541075893
 21
815.5846803403065
 31
0.0
  0
LINE
  5
F3
330
A3
100
AcDbEntity
  8
0 - Systemaufbauten
  6
Continuous
 62
     7
370
     0
100
AcDbLine
 10
729.211376892777
 20
872.7526824689076
 30
0.0
 11
740.6353771559902
 21
647.3686999686643
 31
0.0
  0
LINE
  5
F4
330
A3
100
AcDbEntity
  8
0 - Systemaufbauten
  6
Continuous
 62
     7
370
     0
100
AcDbLine
 10
657.787376629562
 20
781.2646787381327
 30
0.0
 11
666.3553786151119
 21
675.8806758141682
 31
0.0
  0
LINE
  5
F5
330
A3
100
AcDbEntity
  8
0 - Systemaufbauten
  6
Continuous
 62
     7
370
     0
100
AcDbLine
 10
632.0593774192043
 20
887.3686473584339
 30
0.0
 11
634.9153774850088
 21
855.5206554150736
 31
0.0
  0
LINE
  5
F6
330
A3
100
AcDbEntity
  8
0 - Systemaufbauten
  6
Continuous
 62
     7
370
     0
100
AcDbLine
 10
692.0593774192043
 20
764.1526787495777
 30
0.0
 11
700.6513798110204
 21
701.2966768956348
 31
0.0
  0
LINE
  5
F7
330
A3
100
AcDbEntity
  8
0 - Systemaufbauten
  6
Continuous
 62
     7
370
     0
100
AcDbLine
 10
657.787376629562
 20
664.0966766095335
 30
0.0
 11
660.6433784835049
 21
647.3686999686643
 31
0.0
  0
LINE
  5
F8
330
A3
100
AcDbEntity
  8
0 - Systemaufbauten
  6
Continuous
 62
     7
370
     0
100
AcDbLine
 10
697.7713811270892
 20
804.1606586194202
 30
0.0
 11
712.0753800742336
 21
738.4486763692066
 31
0.0
  0
LINE
  5
F9
330
A3
100
AcDbEntity
  8
0 - Systemaufbauten
  6
Continuous
 62
     7
370
     0
100
AcDbLine
 10
632.0593774192043
 20
706.9606762147114
 30
0.0
 11
639.3313771359631
 21
698.3926527714884
 31
0.0
  0
LINE
  5
FA
330
A3
100
AcDbEntity
  8
0 - Systemaufbauten
  6
Continuous
 62
     7
370
     0
100
AcDbLine
 10
657.787376629562
 20
664.0966766095335
 30
0.0
 11
666.3553786151119
 21
675.8806758141691
 31
0.0
  0
LINE
  5
FB
330
A3
100
AcDbEntity
  8
0 - Systemaufbauten
  6
Continuous
 62
     7
370
     0
100
AcDbLine
 10
643.4833776824184
 20
746.9446771359599
 30
0.0
 11
652.051377879829
 21
764.0806524968311
 31
0.0
  0
LINE
  5
FC
330
A3
100
AcDbEntity
  8
0 - Systemaufbauten
  6
Continuous
 62
     7
370
     0
100
AcDbLine
 10
700.6513798110204
 20
701.2966768956348
 30
0.0
 11
712.0753800742336
 21
738.4486763692066
 31
0.0
  0
LINE
  5
FD
330
A3
100
AcDbEntity
  8
0 - Systemaufbauten
  6
Continuous
 62
     7
370
     0
100
AcDbLine
 10
694.9153792731472
 20
664.1446756339246
 30
0.0
 11
700.6513798110195
 21
701.2966768956348
 31
0.0
  0
LINE
  5
FE
330
A3
100
AcDbEntity
  8
0 - Systemaufbauten
  6
Continuous
 62
     7
370
     0
100
AcDbLine
 10
692.0593774192043
 20
764.1526787495777
 30
0.0
 11
697.771381127091
 21
804.1606586194202
 31
0.0
  0
LINE
  5
FF
330
A3
100
AcDbEntity
  8
0 - Systemaufbauten
  6
Continuous
 62
     7
370
     0
100
AcDbLine
 10
632.0593774192052
 20
647.3686999686643
 30
0.0
 11
639.3313771359631
 21
698.3926527714884
 31
0.0
  0
LINE
  5
100
330
A3
100
AcDbEntity
  8
0 - Systemaufbauten
  6
Continuous
 62
     7
370
     0
100
AcDbLine
 10
672.0673787467199
 20
724.1446774220631
 30
0.0
 11
674.9233770243841
 21
749.8726766324198
 31
0.0
  0
LINE
  5
101
330
A3
100
AcDbEntity
  8
0 - Systemaufbauten
  6
Continuous
 62
     7
370
     0
100
AcDbLine
 10
646.339377748222
 20
647.3686999686643
 30
0.0
 11
652.051377879829
 21
726.976675293462
 31
0.0
  0
LINE
  5
102
330
A3
100
AcDbEntity
  8
0 - Systemaufbauten
  6
Continuous
 62
     7
370
     0
100
AcDbLine
 10
697.7713811270892
 20
804.1606586194202
 30
0.0
 11
703.5073530547329
 21
887.368647358433
 31
0.0
  0
LINE
  5
103
330
A3
100
AcDbEntity
  8
0 - Systemaufbauten
  6
Continuous
 62
     7
370
     0
100
AcDbLine
 10
657.787376629562
 20
781.2646787381327
 30
0.0
 11
660.6433784835049
 21
887.368647358433
 31
0.0
  0
LINE
  5
104
330
A3
100
AcDbEntity
  8
0 - Systemaufbauten
  6
Continuous
 62
     7
370
     0
100
AcDbLine
 10
1534.947377430649
 20
875.5606763577634
 30
0.0
 11
1537.803379284592
 21
647.3686999686643
 31
0.0
  0
LINE
  5
105
330
A3
100
AcDbEntity
  8
0 - Systemaufbauten
  6
Continuous
 62
     7
370
     0
100
AcDbLine
 10
1432.083359944077
 20
887.368647358433
 30
0.0
 11
1437.795377957078
 21
818.4406821942493
 31
0.0
  0
LINE
  5
106
330
A3
100
AcDbEntity
  8
0 - Systemaufbauten
  6
Continuous
 62
     7
370
     0
100
AcDbLine
 10
1466.355382191392
 20
832.744681141392
 30
0.0
 11
1472.091346966476
 21
772.720677158849
 31
0.0
  0
LINE
  5
107
330
A3
100
AcDbEntity
  8
0 - Systemaufbauten
  6
Continuous
 62
     7
370
     0
100
AcDbLine
 10
1494.939347492906
 20
715.5766790127918
 30
0.0
 11
1497.795377957078
 21
692.7286749100849
 31
0.0
  0
LINE
  5
108
330
A3
100
AcDbEntity
  8
0 - Systemaufbauten
  6
Continuous
 62
     7
370
     0
100
AcDbLine
 10
1474.947377430649
 20
849.8806779599354
 30
0.0
 11
1494.939347492906
 21
715.5766790127918
 31
0.0
  0
LINE
  5
109
330
A3
100
AcDbEntity
  8
0 - Systemaufbauten
  6
Continuous
 62
     7
370
     0
100
AcDbLine
 10
1514.955378758164
 20
767.0086519932911
 30
0.0
 11
1526.379357563706
 21
707.0086770272419
 31
0.0
  0
LINE
  5
10A
330
A3
100
AcDbEntity
  8
0 - Systemaufbauten
  6
Continuous
 62
     7
370
     0
100
AcDbLine
 10
1486.371384846421
 20
681.2806527829334
 30
0.0
 11
1492.083359944076
 21
658.4326763963863
 31
0.0
  0
LINE
  5
10B
330
A3
100
AcDbEntity
  8
0 - Systemaufbauten
  6
Continuous
 62
     7
370
     0
100
AcDbLine
 10
1497.795377957078
 20
789.8806779599363
 30
0.0
 11
1514.955378758164
 21
721.2886755681211
 31
0.0
  0
LINE
  5
10C
330
A3
100
AcDbEntity
  8
0 - Systemaufbauten
  6
Continuous
 62
     7
370
     0
100
AcDbLine
 10
1446.363383518906
 20
786.9766824460185
 30
0.0
 11
1472.091346966476
 21
738.4006755566761
 31
0.0
  0
LINE
  5
10D
330
A3
100
AcDbEntity
  8
0 - Systemaufbauten
  6
Continuous
 62
     7
370
     0
100
AcDbLine
 10
1474.947377430649
 20
849.8806779599354
 30
0.0
 11
1486.371384846421
 21
887.3686473584339
 31
0.0
  0
LINE
  5
10E
330
A3
100
AcDbEntity
  8
0 - Systemaufbauten
  6
Continuous
 62
     7
370
     0
100
AcDbLine
 10
1486.371384846421
 20
681.2806527829334
 30
0.0
 11
1494.939347492906
 21
715.5766790127918
 31
0.0
  0
LINE
  5
10F
330
A3
100
AcDbEntity
  8
0 - Systemaufbauten
  6
Continuous
 62
     7
370
     0
100
AcDbLine
 10
1454.931360470505
 20
647.3686999686643
 30
0.0
 11
1472.091346966476
 21
738.4006755566761
 31
0.0
  0
LINE
  5
110
330
A3
100
AcDbEntity
  8
0 - Systemaufbauten
  6
Continuous
 62
     7
370
     0
100
AcDbLine
 10
1492.083359944077
 20
658.4326763963863
 30
0.0
 11
1497.795377957078
 21
692.7286749100849
 31
0.0
  0
LINE
  5
111
330
A3
100
AcDbEntity
  8
0 - Systemaufbauten
  6
Continuous
 62
     7
370
     0
100
AcDbLine
 10
1497.795377957078
 20
789.8806779599363
 30
0.0
 11
1506.363383518905
 21
855.5926816678211
 31
0.0
  0
LINE
  5
112
330
A3
100
AcDbEntity
  8
0 - Systemaufbauten
  6
Continuous
 62
     7
370
     0
100
AcDbLine
 10
1432.083359944077
 20
647.3686999686643
 30
0.0
 11
1443.507381664964
 21
749.8726766324198
 31
0.0
  0
LINE
  5
113
330
A3
100
AcDbEntity
  8
0 - Systemaufbauten
  6
Continuous
 62
     7
370
     0
100
AcDbLine
 10
1520.66738246605
 20
647.3686999686643
 30
0.0
 11
1526.379357563706
 21
707.0086770272437
 31
0.0
  0
LINE
  5
114
330
A3
100
AcDbEntity
  8
0 - Systemaufbauten
  6
Continuous
 62
     7
370
     0
100
AcDbLine
 10
1446.363383518906
 20
786.9766824460185
 30
0.0
 11
1452.075358616562
 21
887.368647358433
 31
0.0
  0
LINE
  5
115
330
A3
100
AcDbEntity
  8
0 - Systemaufbauten
  6
Continuous
 62
     7
370
     0
100
AcDbLine
 10
1514.955378758163
 20
767.0086519932911
 30
0.0
 11
1520.66738246605
 21
887.368647358433
 31
0.0
  0
LINE
  5
116
330
A3
100
AcDbEntity
  8
0 - Systemaufbauten
  6
Continuous
 62
     7
370
     0
100
AcDbLine
 10
366.0913765303817
 20
605.7606759286082
 30
0.0
 11
366.3833773009515
 21
605.1006760811961
 31
0.0
  0
LINE
  5
117
330
A3
100
AcDbEntity
  8
0 - Systemaufbauten
  6
Continuous
 62
     7
370
     0
100
AcDbLine
 10
406.0913765303826
 20
605.7606759286091
 30
0.0
 11
406.3833773009515
 21
605.100676081197
 31
0.0
  0
LINE
  5
118
330
A3
100
AcDbEntity
  8
0 - Systemaufbauten
  6
Continuous
 62
     7
370
     0
100
AcDbLine
 10
446.0913765303826
 20
605.7606759286082
 30
0.0
 11
446.3833773009515
 21
605.100676081197
 31
0.0
  0
LINE
  5
119
330
A3
100
AcDbEntity
  8
0 - Systemaufbauten
  6
Continuous
 62
     7
370
     0
100
AcDbLine
 10
486.0913765303835
 20
605.7606759286082
 30
0.0
 11
486.3833773009524
 21
605.1006760811961
 31
0.0
  0
LINE
  5
11A
330
A3
100
AcDbEntity
  8
0 - Systemaufbauten
  6
Continuous
 62
     7
370
     0
100
AcDbLine
 10
526.0913765303835
 20
605.7606759286091
 30
0.0
 11
526.3833773009524
 21
605.100676081197
 31
0.0
  0
LINE
  5
11B
330
A3
100
AcDbEntity
  8
0 - Systemaufbauten
  6
Continuous
 62
     7
370
     0
100
AcDbLine
 10
566.0913765303844
 20
605.7606759286082
 30
0.0
 11
566.3833773009533
 21
605.100676081197
 31
0.0
  0
LINE
  5
11C
330
A3
100
AcDbEntity
  8
0 - Systemaufbauten
  6
Continuous
 62
     7
370
     0
100
AcDbLine
 10
606.0913765303844
 20
605.7606759286082
 30
0.0
 11
606.3833773009533
 21
605.1006760811961
 31
0.0
  0
LINE
  5
11D
330
A3
100
AcDbEntity
  8
0 - Systemaufbauten
  6
Continuous
 62
     7
370
     0
100
AcDbLine
 10
646.0913765303862
 20
605.7606759286091
 30
0.0
 11
646.3833773009542
 21
605.100676081197
 31
0.0
  0
LINE
  5
11E
330
A3
100
AcDbEntity
  8
0 - Systemaufbauten
  6
Continuous
 62
     7
370
     0
100
AcDbLine
 10
686.0913765303862
 20
605.7606759286082
 30
0.0
 11
686.383377300956
 21
605.100676081197
 31
0.0
  0
LINE
  5
11F
330
A3
100
AcDbEntity
  8
0 - Systemaufbauten
  6
Continuous
 62
     7
370
     0
100
AcDbLine
 10
726.0913765303862
 20
605.7606759286082
 30
0.0
 11
726.3833773009551
 21
605.1006760811961
 31
0.0
  0
LINE
  5
120
330
A3
100
AcDbEntity
  8
0 - Systemaufbauten
  6
Continuous
 62
     7
370
     0
100
AcDbLine
 10
766.0913765303872
 20
605.7606759286091
 30
0.0
 11
766.383377300956
 21
605.100676081197
 31
0.0
  0
LINE
  5
121
330
A3
100
AcDbEntity
  8
0 - Systemaufbauten
  6
Continuous
 62
     7
370
     0
100
AcDbLine
 10
806.0913765303881
 20
605.7606759286082
 30
0.0
 11
806.3833773009569
 21
605.100676081197
 31
0.0
  0
LINE
  5
122
330
A3
100
AcDbEntity
  8
0 - Systemaufbauten
  6
Continuous
 62
     7
370
     0
100
AcDbLine
 10
846.0913765303881
 20
605.7606759286091
 30
0.0
 11
846.3833773009569
 21
605.100676081197
 31
0.0
  0
LINE
  5
123
330
A3
100
AcDbEntity
  8
0 - Systemaufbauten
  6
Continuous
 62
     7
370
     0
100
AcDbLine
 10
886.0913765303881
 20
605.7606759286082
 30
0.0
 11
886.3833773009578
 21
605.100676081197
 31
0.0
  0
LINE
  5
124
330
A3
100
AcDbEntity
  8
0 - Systemaufbauten
  6
Continuous
 62
     7
370
     0
100
AcDbLine
 10
926.0913765303908
 20
605.7606759286082
 30
0.0
 11
926.3833773009587
 21
605.1006760811961
 31
0.0
  0
LINE
  5
125
330
A3
100
AcDbEntity
  8
0 - Systemaufbauten
  6
Continuous
 62
     7
370
     0
100
AcDbLine
 10
966.091376530389
 20
605.7606759286091
 30
0.0
 11
966.3833773009578
 21
605.100676081197
 31
0.0
  0
LINE
  5
126
330
A3
100
AcDbEntity
  8
0 - Systemaufbauten
  6
Continuous
 62
     7
370
     0
100
AcDbLine
 10
1006.091376530391
 20
605.7606759286082
 30
0.0
 11
1006.38337730096
 21
605.100676081197
 31
0.0
  0
LINE
  5
127
330
A3
100
AcDbEntity
  8
0 - Systemaufbauten
  6
Continuous
 62
     7
370
     0
100
AcDbLine
 10
1046.091376530392
 20
605.7606759286082
 30
0.0
 11
1046.383377300961
 21
605.1006760811961
 31
0.0
  0
LINE
  5
128
330
A3
100
AcDbEntity
  8
0 - Systemaufbauten
  6
Continuous
 62
     7
370
     0
100
AcDbLine
 10
1086.091376530392
 20
605.7606759286091
 30
0.0
 11
1086.383377300961
 21
605.100676081197
 31
0.0
  0
LINE
  5
129
330
A3
100
AcDbEntity
  8
0 - Systemaufbauten
  6
Continuous
 62
     7
370
     0
100
AcDbLine
 10
1126.091376530393
 20
605.7606759286082
 30
0.0
 11
1126.383377300961
 21
605.1006760811961
 31
0.0
  0
LINE
  5
12A
330
A3
100
AcDbEntity
  8
0 - Systemaufbauten
  6
Continuous
 62
     7
370
     0
100
AcDbLine
 10
1166.091376530394
 20
605.7606759286082
 30
0.0
 11
1166.383377300962
 21
605.1006760811961
 31
0.0
  0
LINE
  5
12B
330
A3
100
AcDbEntity
  8
0 - Systemaufbauten
  6
Continuous
 62
     7
370
     0
100
AcDbLine
 10
1206.091376530394
 20
605.7606759286091
 30
0.0
 11
1206.383377300962
 21
605.100676081197
 31
0.0
  0
LINE
  5
12C
330
A3
100
AcDbEntity
  8
0 - Systemaufbauten
  6
Continuous
 62
     7
370
     0
100
AcDbLine
 10
1246.091376530394
 20
605.7606759286082
 30
0.0
 11
1246.383377300962
 21
605.1006760811961
 31
0.0
  0
LINE
  5
12D
330
A3
100
AcDbEntity
  8
0 - Systemaufbauten
  6
Continuous
 62
     7
370
     0
100
AcDbLine
 10
1286.091376530394
 20
605.7606759286082
 30
0.0
 11
1286.383377300963
 21
605.1006760811961
 31
0.0
  0
LINE
  5
12E
330
A3
100
AcDbEntity
  8
0 - Systemaufbauten
  6
Continuous
 62
     7
370
     0
100
AcDbLine
 10
1326.091376530395
 20
605.7606759286082
 30
0.0
 11
1326.383377300965
 21
605.100676081197
 31
0.0
  0
LINE
  5
12F
330
A3
100
AcDbEntity
  8
0 - Systemaufbauten
  6
Continuous
 62
     7
370
     0
100
AcDbLine
 10
1366.091376530395
 20
605.7606759286082
 30
0.0
 11
1366.383377300964
 21
605.1006760811961
 31
0.0
  0
LINE
  5
130
330
A3
100
AcDbEntity
  8
0 - Systemaufbauten
  6
Continuous
 62
     7
370
     0
100
AcDbLine
 10
1406.091376530396
 20
605.7606759286082
 30
0.0
 11
1406.383377300965
 21
605.100676081197
 31
0.0
  0
LINE
  5
131
330
A3
100
AcDbEntity
  8
0 - Systemaufbauten
  6
Continuous
 62
     7
370
     0
100
AcDbLine
 10
1446.091376530397
 20
605.7606759286082
 30
0.0
 11
1446.383377300967
 21
605.100676081197
 31
0.0
  0
LINE
  5
132
330
A3
100
AcDbEntity
  8
0 - Systemaufbauten
  6
Continuous
 62
     7
370
     0
100
AcDbLine
 10
1486.091376530399
 20
605.7606759286082
 30
0.0
 11
1486.383377300966
 21
605.1006760811961
 31
0.0
  0
LINE
  5
133
330
A3
100
AcDbEntity
  8
0 - Systemaufbauten
  6
Continuous
 62
     7
370
     0
100
AcDbLine
 10
1526.091376530397
 20
605.7606759286082
 30
0.0
 11
1526.383377300966
 21
605.100676081197
 31
0.0
  0
LINE
  5
134
330
A3
100
AcDbEntity
  8
0 - Systemaufbauten
  6
Continuous
 62
     7
370
     0
100
AcDbLine
 10
1566.091376530398
 20
605.7606759286082
 30
0.0
 11
1566.383377300968
 21
605.100676081197
 31
0.0
  0
LINE
  5
135
330
A3
100
AcDbEntity
  8
0 - Systemaufbauten
  6
Continuous
 62
     7
370
     0
100
AcDbLine
 10
1606.0913765304
 20
605.7606759286082
 30
0.0
 11
1606.383377300969
 21
605.1006760811961
 31
0.0
  0
LINE
  5
136
330
A3
100
AcDbEntity
  8
0 - Systemaufbauten
  6
Continuous
 62
     7
370
     0
100
AcDbLine
 10
1646.0913765304
 20
605.7606759286091
 30
0.0
 11
1646.383377300969
 21
605.100676081197
 31
0.0
  0
LINE
  5
137
330
A3
100
AcDbEntity
  8
0 - Systemaufbauten
  6
Continuous
 62
     7
370
     0
100
AcDbLine
 10
1686.0913765304
 20
605.7606759286082
 30
0.0
 11
1686.383377300969
 21
605.100676081197
 31
0.0
  0
LINE
  5
138
330
A3
100
AcDbEntity
  8
0 - Systemaufbauten
  6
Continuous
 62
     7
370
     0
100
AcDbLine
 10
1726.091376530402
 20
605.7606759286082
 30
0.0
 11
1726.383377300971
 21
605.1006760811961
 31
0.0
  0
LINE
  5
139
330
A3
100
AcDbEntity
  8
0 - Systemaufbauten
  6
Continuous
 62
     7
370
     0
100
AcDbLine
 10
1766.091376530402
 20
605.7606759286091
 30
0.0
 11
1766.383377300971
 21
605.100676081197
 31
0.0
  0
LINE
  5
13A
330
A3
100
AcDbEntity
  8
0 - Systemaufbauten
  6
Continuous
 62
     7
370
     0
100
AcDbLine
 10
1806.091376530401
 20
605.7606759286082
 30
0.0
 11
1806.383377300971
 21
605.100676081197
 31
0.0
  0
LINE
  5
13B
330
A3
100
AcDbEntity
  8
0 - Systemaufbauten
  6
Continuous
 62
     7
370
     0
100
AcDbLine
 10
343.7833779923644
 20
599.1766759371903
 30
0.0
 11
343.9313775174346
 21
598.9566759756372
 31
0.0
  0
LINE
  5
13C
330
A3
100
AcDbEntity
  8
0 - Systemaufbauten
  6
Continuous
 62
     7
370
     0
100
AcDbLine
 10
383.7833779923644
 20
599.1766759371903
 30
0.0
 11
383.9313775174346
 21
598.9566759756372
 31
0.0
  0
LINE
  5
13D
330
A3
100
AcDbEntity
  8
0 - Systemaufbauten
  6
Continuous
 62
     7
370
     0
100
AcDbLine
 10
423.7833779923653
 20
599.1766759371903
 30
0.0
 11
423.9313775174355
 21
598.9566759756372
 31
0.0
  0
LINE
  5
13E
330
A3
100
AcDbEntity
  8
0 - Systemaufbauten
  6
Continuous
 62
     7
370
     0
100
AcDbLine
 10
463.7833779923653
 20
599.1766759371903
 30
0.0
 11
463.9313775174364
 21
598.9566759756362
 31
0.0
  0
LINE
  5
13F
330
A3
100
AcDbEntity
  8
0 - Systemaufbauten
  6
Continuous
 62
     7
370
     0
100
AcDbLine
 10
503.7833779923662
 20
599.1766759371903
 30
0.0
 11
503.9313775174364
 21
598.9566759756372
 31
0.0
  0
LINE
  5
140
330
A3
100
AcDbEntity
  8
0 - Systemaufbauten
  6
Continuous
 62
     7
370
     0
100
AcDbLine
 10
543.7833779923662
 20
599.1766759371903
 30
0.0
 11
543.9313775174373
 21
598.9566759756372
 31
0.0
  0
LINE
  5
141
330
A3
100
AcDbEntity
  8
0 - Systemaufbauten
  6
Continuous
 62
     7
370
     0
100
AcDbLine
 10
583.7833779923672
 20
599.1766759371903
 30
0.0
 11
583.9313775174373
 21
598.9566759756372
 31
0.0
  0
LINE
  5
142
330
A3
100
AcDbEntity
  8
0 - Systemaufbauten
  6
Continuous
 62
     7
370
     0
100
AcDbLine
 10
623.783377992369
 20
599.1766759371903
 30
0.0
 11
623.9313775174373
 21
598.9566759756372
 31
0.0
  0
LINE
  5
143
330
A3
100
AcDbEntity
  8
0 - Systemaufbauten
  6
Continuous
 62
     7
370
     0
100
AcDbLine
 10
663.783377992369
 20
599.1766759371922
 30
0.0
 11
663.9313775174401
 21
598.9566759756372
 31
0.0
  0
LINE
  5
144
330
A3
100
AcDbEntity
  8
0 - Systemaufbauten
  6
Continuous
 62
     7
370
     0
100
AcDbLine
 10
703.783377992369
 20
599.1766759371903
 30
0.0
 11
703.9313775174392
 21
598.9566759756372
 31
0.0
  0
LINE
  5
145
330
A3
100
AcDbEntity
  8
0 - Systemaufbauten
  6
Continuous
 62
     7
370
     0
100
AcDbLine
 10
743.7833779923699
 20
599.1766759371922
 30
0.0
 11
743.9313775174392
 21
598.9566759756372
 31
0.0
  0
LINE
  5
146
330
A3
100
AcDbEntity
  8
0 - Systemaufbauten
  6
Continuous
 62
     7
370
     0
100
AcDbLine
 10
783.7833779923699
 20
599.1766759371903
 30
0.0
 11
783.931377517441
 21
598.9566759756372
 31
0.0
  0
LINE
  5
147
330
A3
100
AcDbEntity
  8
0 - Systemaufbauten
  6
Continuous
 62
     7
370
     0
100
AcDbLine
 10
823.7833779923699
 20
599.1766759371922
 30
0.0
 11
823.931377517441
 21
598.9566759756372
 31
0.0
  0
LINE
  5
148
330
A3
100
AcDbEntity
  8
0 - Systemaufbauten
  6
Continuous
 62
     7
370
     0
100
AcDbLine
 10
863.7833779923717
 20
599.1766759371903
 30
0.0
 11
863.931377517441
 21
598.9566759756372
 31
0.0
  0
LINE
  5
149
330
A3
100
AcDbEntity
  8
0 - Systemaufbauten
  6
Continuous
 62
     7
370
     0
100
AcDbLine
 10
903.7833779923726
 20
599.1766759371922
 30
0.0
 11
903.9313775174428
 21
598.9566759756372
 31
0.0
  0
LINE
  5
14A
330
A3
100
AcDbEntity
  8
0 - Systemaufbauten
  6
Continuous
 62
     7
370
     0
100
AcDbLine
 10
943.7833779923726
 20
599.1766759371903
 30
0.0
 11
943.9313775174437
 21
598.9566759756372
 31
0.0
  0
LINE
  5
14B
330
A3
100
AcDbEntity
  8
0 - Systemaufbauten
  6
Continuous
 62
     7
370
     0
100
AcDbLine
 10
983.7833779923735
 20
599.1766759371903
 30
0.0
 11
983.9313775174419
 21
598.9566759756362
 31
0.0
  0
LINE
  5
14C
330
A3
100
AcDbEntity
  8
0 - Systemaufbauten
  6
Continuous
 62
     7
370
     0
100
AcDbLine
 10
1023.783377992374
 20
599.1766759371903
 30
0.0
 11
1023.931377517444
 21
598.9566759756372
 31
0.0
  0
LINE
  5
14D
330
A3
100
AcDbEntity
  8
0 - Systemaufbauten
  6
Continuous
 62
     7
370
     0
100
AcDbLine
 10
1063.783377992374
 20
599.1766759371903
 30
0.0
 11
1063.931377517445
 21
598.9566759756372
 31
0.0
  0
LINE
  5
14E
330
A3
100
AcDbEntity
  8
0 - Systemaufbauten
  6
Continuous
 62
     7
370
     0
100
AcDbLine
 10
1103.783377992375
 20
599.1766759371903
 30
0.0
 11
1103.931377517445
 21
598.9566759756372
 31
0.0
  0
LINE
  5
14F
330
A3
100
AcDbEntity
  8
0 - Systemaufbauten
  6
Continuous
 62
     7
370
     0
100
AcDbLine
 10
1143.783377992375
 20
599.1766759371903
 30
0.0
 11
1143.931377517446
 21
598.9566759756372
 31
0.0
  0
LINE
  5
150
330
A3
100
AcDbEntity
  8
0 - Systemaufbauten
  6
Continuous
 62
     7
370
     0
100
AcDbLine
 10
1183.783377992375
 20
599.1766759371903
 30
0.0
 11
1183.931377517446
 21
598.9566759756372
 31
0.0
  0
LINE
  5
151
330
A3
100
AcDbEntity
  8
0 - Systemaufbauten
  6
Continuous
 62
     7
370
     0
100
AcDbLine
 10
1223.783377992377
 20
599.1766759371903
 30
0.0
 11
1223.931377517447
 21
598.9566759756372
 31
0.0
  0
LINE
  5
152
330
A3
100
AcDbEntity
  8
0 - Systemaufbauten
  6
Continuous
 62
     7
370
     0
100
AcDbLine
 10
1263.783377992378
 20
599.1766759371903
 30
0.0
 11
1263.931377517447
 21
598.9566759756372
 31
0.0
  0
LINE
  5
153
330
A3
100
AcDbEntity
  8
0 - Systemaufbauten
  6
Continuous
 62
     7
370
     0
100
AcDbLine
 10
1303.783377992378
 20
599.1766759371903
 30
0.0
 11
1303.931377517448
 21
598.9566759756372
 31
0.0
  0
LINE
  5
154
330
A3
100
AcDbEntity
  8
0 - Systemaufbauten
  6
Continuous
 62
     7
370
     0
100
AcDbLine
 10
1343.783377992378
 20
599.1766759371922
 30
0.0
 11
1343.931377517448
 21
598.9566759756372
 31
0.0
  0
LINE
  5
155
330
A3
100
AcDbEntity
  8
0 - Systemaufbauten
  6
Continuous
 62
     7
370
     0
100
AcDbLine
 10
1383.783377992379
 20
599.1766759371903
 30
0.0
 11
1383.931377517449
 21
598.9566759756372
 31
0.0
  0
LINE
  5
156
330
A3
100
AcDbEntity
  8
0 - Systemaufbauten
  6
Continuous
 62
     7
370
     0
100
AcDbLine
 10
1423.783377992379
 20
599.1766759371903
 30
0.0
 11
1423.931377517449
 21
598.9566759756362
 31
0.0
  0
LINE
  5
157
330
A3
100
AcDbEntity
  8
0 - Systemaufbauten
  6
Continuous
 62
     7
370
     0
100
AcDbLine
 10
1463.783377992381
 20
599.1766759371903
 30
0.0
 11
1463.93137751745
 21
598.9566759756372
 31
0.0
  0
LINE
  5
158
330
A3
100
AcDbEntity
  8
0 - Systemaufbauten
  6
Continuous
 62
     7
370
     0
100
AcDbLine
 10
1503.783377992381
 20
599.1766759371903
 30
0.0
 11
1503.931377517452
 21
598.9566759756362
 31
0.0
  0
LINE
  5
159
330
A3
100
AcDbEntity
  8
0 - Systemaufbauten
  6
Continuous
 62
     7
370
     0
100
AcDbLine
 10
1543.783377992382
 20
599.1766759371903
 30
0.0
 11
1543.931377517452
 21
598.9566759756372
 31
0.0
  0
LINE
  5
15A
330
A3
100
AcDbEntity
  8
0 - Systemaufbauten
  6
Continuous
 62
     7
370
     0
100
AcDbLine
 10
1583.783377992383
 20
599.1766759371903
 30
0.0
 11
1583.931377517452
 21
598.9566759756372
 31
0.0
  0
LINE
  5
15B
330
A3
100
AcDbEntity
  8
0 - Systemaufbauten
  6
Continuous
 62
     7
370
     0
100
AcDbLine
 10
1623.783377992383
 20
599.1766759371903
 30
0.0
 11
1623.931377517453
 21
598.9566759756372
 31
0.0
  0
LINE
  5
15C
330
A3
100
AcDbEntity
  8
0 - Systemaufbauten
  6
Continuous
 62
     7
370
     0
100
AcDbLine
 10
1663.783377992383
 20
599.1766759371903
 30
0.0
 11
1663.931377517453
 21
598.9566759756372
 31
0.0
  0
LINE
  5
15D
330
A3
100
AcDbEntity
  8
0 - Systemaufbauten
  6
Continuous
 62
     7
370
     0
100
AcDbLine
 10
1703.783377992384
 20
599.1766759371903
 30
0.0
 11
1703.931377517453
 21
598.9566759756372
 31
0.0
  0
LINE
  5
15E
330
A3
100
AcDbEntity
  8
0 - Systemaufbauten
  6
Continuous
 62
     7
370
     0
100
AcDbLine
 10
1743.783377992384
 20
599.1766759371903
 30
0.0
 11
1743.931377517455
 21
598.9566759756372
 31
0.0
  0
LINE
  5
15F
330
A3
100
AcDbEntity
  8
0 - Systemaufbauten
  6
Continuous
 62
     7
370
     0
100
AcDbLine
 10
1783.783377992384
 20
599.1766759371903
 30
0.0
 11
1783.931377517455
 21
598.9566759756372
 31
0.0
  0
LINE
  5
160
330
A3
100
AcDbEntity
  8
0 - Systemaufbauten
  6
Continuous
 62
     7
370
     0
100
AcDbLine
 10
1823.783377992385
 20
599.1766759371903
 30
0.0
 11
1823.931377517456
 21
598.9566759756372
 31
0.0
  0
LINE
  5
161
330
A3
100
AcDbEntity
  8
0 - Systemaufbauten
  6
Continuous
 62
     7
370
     0
100
AcDbLine
 10
352.7193772666174
 20
607.3566761231586
 30
0.0
 11
352.8673779837814
 21
607.1366759753382
 31
0.0
  0
LINE
  5
162
330
A3
100
AcDbEntity
  8
0 - Systemaufbauten
  6
Continuous
 62
     7
370
     0
100
AcDbLine
 10
392.7193772666183
 20
607.3566761231586
 30
0.0
 11
392.8673779837814
 21
607.1366759753382
 31
0.0
  0
LINE
  5
163
330
A3
100
AcDbEntity
  8
0 - Systemaufbauten
  6
Continuous
 62
     7
370
     0
100
AcDbLine
 10
432.7193772666183
 20
607.3566761231586
 30
0.0
 11
432.8673779837814
 21
607.1366759753382
 31
0.0
  0
LINE
  5
164
330
A3
100
AcDbEntity
  8
0 - Systemaufbauten
  6
Continuous
 62
     7
370
     0
100
AcDbLine
 10
472.7193772666201
 20
607.3566761231586
 30
0.0
 11
472.8673779837841
 21
607.1366759753382
 31
0.0
  0
LINE
  5
165
330
A3
100
AcDbEntity
  8
0 - Systemaufbauten
  6
Continuous
 62
     7
370
     0
100
AcDbLine
 10
512.719377266621
 20
607.3566761231586
 30
0.0
 11
512.8673779837832
 21
607.1366759753382
 31
0.0
  0
LINE
  5
166
330
A3
100
AcDbEntity
  8
0 - Systemaufbauten
  6
Continuous
 62
     7
370
     0
100
AcDbLine
 10
552.719377266621
 20
607.3566761231586
 30
0.0
 11
552.8673779837841
 21
607.1366759753382
 31
0.0
  0
LINE
  5
167
330
A3
100
AcDbEntity
  8
0 - Systemaufbauten
  6
Continuous
 62
     7
370
     0
100
AcDbLine
 10
592.719377266621
 20
607.3566761231586
 30
0.0
 11
592.867377983785
 21
607.1366759753382
 31
0.0
  0
LINE
  5
168
330
A3
100
AcDbEntity
  8
0 - Systemaufbauten
  6
Continuous
 62
     7
370
     0
100
AcDbLine
 10
632.7193772666219
 20
607.3566761231586
 30
0.0
 11
632.867377983785
 21
607.1366759753382
 31
0.0
  0
LINE
  5
169
330
A3
100
AcDbEntity
  8
0 - Systemaufbauten
  6
Continuous
 62
     7
370
     0
100
AcDbLine
 10
672.7193772666219
 20
607.3566761231586
 30
0.0
 11
672.867377983785
 21
607.1366759753382
 31
0.0
  0
LINE
  5
16A
330
A3
100
AcDbEntity
  8
0 - Systemaufbauten
  6
Continuous
 62
     7
370
     0
100
AcDbLine
 10
712.7193772666219
 20
607.3566761231586
 30
0.0
 11
712.8673779837859
 21
607.1366759753382
 31
0.0
  0
LINE
  5
16B
330
A3
100
AcDbEntity
  8
0 - Systemaufbauten
  6
Continuous
 62
     7
370
     0
100
AcDbLine
 10
752.7193772666237
 20
607.3566761231586
 30
0.0
 11
752.8673779837877
 21
607.1366759753382
 31
0.0
  0
LINE
  5
16C
330
A3
100
AcDbEntity
  8
0 - Systemaufbauten
  6
Continuous
 62
     7
370
     0
100
AcDbLine
 10
792.7193772666246
 20
607.3566761231586
 30
0.0
 11
792.8673779837877
 21
607.1366759753382
 31
0.0
  0
LINE
  5
16D
330
A3
100
AcDbEntity
  8
0 - Systemaufbauten
  6
Continuous
 62
     7
370
     0
100
AcDbLine
 10
832.7193772666255
 20
607.3566761231586
 30
0.0
 11
832.8673779837886
 21
607.1366759753382
 31
0.0
  0
LINE
  5
16E
330
A3
100
AcDbEntity
  8
0 - Systemaufbauten
  6
Continuous
 62
     7
370
     0
100
AcDbLine
 10
872.7193772666255
 20
607.3566761231586
 30
0.0
 11
872.8673779837886
 21
607.1366759753382
 31
0.0
  0
LINE
  5
16F
330
A3
100
AcDbEntity
  8
0 - Systemaufbauten
  6
Continuous
 62
     7
370
     0
100
AcDbLine
 10
912.7193772666255
 20
607.3566761231586
 30
0.0
 11
912.8673779837886
 21
607.1366759753391
 31
0.0
  0
LINE
  5
170
330
A3
100
AcDbEntity
  8
0 - Systemaufbauten
  6
Continuous
 62
     7
370
     0
100
AcDbLine
 10
952.7193772666265
 20
607.3566761231586
 30
0.0
 11
952.8673779837895
 21
607.1366759753391
 31
0.0
  0
LINE
  5
171
330
A3
100
AcDbEntity
  8
0 - Systemaufbauten
  6
Continuous
 62
     7
370
     0
100
AcDbLine
 10
992.7193772666265
 20
607.3566761231586
 30
0.0
 11
992.8673779837904
 21
607.1366759753391
 31
0.0
  0
LINE
  5
172
330
A3
100
AcDbEntity
  8
0 - Systemaufbauten
  6
Continuous
 62
     7
370
     0
100
AcDbLine
 10
1032.719377266629
 20
607.3566761231586
 30
0.0
 11
1032.867377983791
 21
607.1366759753391
 31
0.0
  0
LINE
  5
173
330
A3
100
AcDbEntity
  8
0 - Systemaufbauten
  6
Continuous
 62
     7
370
     0
100
AcDbLine
 10
1072.719377266628
 20
607.3566761231586
 30
0.0
 11
1072.867377983791
 21
607.1366759753391
 31
0.0
  0
LINE
  5
174
330
A3
100
AcDbEntity
  8
0 - Systemaufbauten
  6
Continuous
 62
     7
370
     0
100
AcDbLine
 10
1112.719377266628
 20
607.3566761231586
 30
0.0
 11
1112.867377983792
 21
607.1366759753391
 31
0.0
  0
LINE
  5
175
330
A3
100
AcDbEntity
  8
0 - Systemaufbauten
  6
Continuous
 62
     7
370
     0
100
AcDbLine
 10
1152.71937726663
 20
607.3566761231586
 30
0.0
 11
1152.867377983792
 21
607.1366759753391
 31
0.0
  0
LINE
  5
176
330
A3
100
AcDbEntity
  8
0 - Systemaufbauten
  6
Continuous
 62
     7
370
     0
100
AcDbLine
 10
1192.719377266629
 20
607.3566761231586
 30
0.0
 11
1192.867377983792
 21
607.1366759753391
 31
0.0
  0
LINE
  5
177
330
A3
100
AcDbEntity
  8
0 - Systemaufbauten
  6
Continuous
 62
     7
370
     0
100
AcDbLine
 10
1232.71937726663
 20
607.3566761231586
 30
0.0
 11
1232.867377983793
 21
607.1366759753391
 31
0.0
  0
LINE
  5
178
330
A3
100
AcDbEntity
  8
0 - Systemaufbauten
  6
Continuous
 62
     7
370
     0
100
AcDbLine
 10
1272.719377266631
 20
607.3566761231586
 30
0.0
 11
1272.867377983794
 21
607.1366759753391
 31
0.0
  0
LINE
  5
179
330
A3
100
AcDbEntity
  8
0 - Systemaufbauten
  6
Continuous
 62
     7
370
     0
100
AcDbLine
 10
1312.719377266633
 20
607.3566761231586
 30
0.0
 11
1312.867377983796
 21
607.1366759753391
 31
0.0
  0
LINE
  5
17A
330
A3
100
AcDbEntity
  8
0 - Systemaufbauten
  6
Continuous
 62
     7
370
     0
100
AcDbLine
 10
1352.719377266633
 20
607.3566761231586
 30
0.0
 11
1352.867377983796
 21
607.1366759753391
 31
0.0
  0
LINE
  5
17B
330
A3
100
AcDbEntity
  8
0 - Systemaufbauten
  6
Continuous
 62
     7
370
     0
100
AcDbLine
 10
1392.719377266633
 20
607.3566761231586
 30
0.0
 11
1392.867377983796
 21
607.1366759753391
 31
0.0
  0
LINE
  5
17C
330
A3
100
AcDbEntity
  8
0 - Systemaufbauten
  6
Continuous
 62
     7
370
     0
100
AcDbLine
 10
1432.719377266634
 20
607.3566761231586
 30
0.0
 11
1432.867377983797
 21
607.1366759753391
 31
0.0
  0
LINE
  5
17D
330
A3
100
AcDbEntity
  8
0 - Systemaufbauten
  6
Continuous
 62
     7
370
     0
100
AcDbLine
 10
1472.719377266634
 20
607.3566761231586
 30
0.0
 11
1472.867377983797
 21
607.1366759753391
 31
0.0
  0
LINE
  5
17E
330
A3
100
AcDbEntity
  8
0 - Systemaufbauten
  6
Continuous
 62
     7
370
     0
100
AcDbLine
 10
1512.719377266635
 20
607.3566761231586
 30
0.0
 11
1512.867377983797
 21
607.1366759753382
 31
0.0
  0
LINE
  5
17F
330
A3
100
AcDbEntity
  8
0 - Systemaufbauten
  6
Continuous
 62
     7
370
     0
100
AcDbLine
 10
1552.719377266635
 20
607.3566761231586
 30
0.0
 11
1552.867377983799
 21
607.1366759753382
 31
0.0
  0
LINE
  5
180
330
A3
100
AcDbEntity
  8
0 - Systemaufbauten
  6
Continuous
 62
     7
370
     0
100
AcDbLine
 10
1592.719377266636
 20
607.3566761231586
 30
0.0
 11
1592.8673779838
 21
607.1366759753382
 31
0.0
  0
LINE
  5
181
330
A3
100
AcDbEntity
  8
0 - Systemaufbauten
  6
Continuous
 62
     7
370
     0
100
AcDbLine
 10
1632.719377266636
 20
607.3566761231586
 30
0.0
 11
1632.8673779838
 21
607.1366759753382
 31
0.0
  0
LINE
  5
182
330
A3
100
AcDbEntity
  8
0 - Systemaufbauten
  6
Continuous
 62
     7
370
     0
100
AcDbLine
 10
1672.719377266637
 20
607.3566761231586
 30
0.0
 11
1672.8673779838
 21
607.1366759753382
 31
0.0
  0
LINE
  5
183
330
A3
100
AcDbEntity
  8
0 - Systemaufbauten
  6
Continuous
 62
     7
370
     0
100
AcDbLine
 10
1712.719377266637
 20
607.3566761231586
 30
0.0
 11
1712.8673779838
 21
607.1366759753382
 31
0.0
  0
LINE
  5
184
330
A3
100
AcDbEntity
  8
0 - Systemaufbauten
  6
Continuous
 62
     7
370
     0
100
AcDbLine
 10
1752.719377266637
 20
607.3566761231586
 30
0.0
 11
1752.8673779838
 21
607.1366759753382
 31
0.0
  0
LINE
  5
185
330
A3
100
AcDbEntity
  8
0 - Systemaufbauten
  6
Continuous
 62
     7
370
     0
100
AcDbLine
 10
1792.719377266638
 20
607.3566761231586
 30
0.0
 11
1792.867377983801
 21
607.1366759753382
 31
0.0
  0
LINE
  5
186
330
A3
100
AcDbEntity
  8
0 - Systemaufbauten
  6
Continuous
 62
     7
370
     0
100
AcDbLine
 10
1832.719377266638
 20
607.3566761231586
 30
0.0
 11
1832.867377983802
 21
607.1366759753382
 31
0.0
  0
LINE
  5
187
330
A3
100
AcDbEntity
  8
0 - Systemaufbauten
  6
Continuous
 62
     7
370
     0
100
AcDbLine
 10
365.3553783766943
 20
605.4686757540858
 30
0.0
 11
365.7233774535384
 21
604.9526759600803
 31
0.0
  0
LINE
  5
188
330
A3
100
AcDbEntity
  8
0 - Systemaufbauten
  6
Continuous
 62
     7
370
     0
100
AcDbLine
 10
405.3553783766952
 20
605.4686757540876
 30
0.0
 11
405.7233774535384
 21
604.9526759600803
 31
0.0
  0
LINE
  5
189
330
A3
100
AcDbEntity
  8
0 - Systemaufbauten
  6
Continuous
 62
     7
370
     0
100
AcDbLine
 10
445.355378376697
 20
605.4686757540876
 30
0.0
 11
445.7233774535393
 21
604.9526759600803
 31
0.0
  0
LINE
  5
18A
330
A3
100
AcDbEntity
  8
0 - Systemaufbauten
  6
Continuous
 62
     7
370
     0
100
AcDbLine
 10
485.355378376697
 20
605.4686757540858
 30
0.0
 11
485.7233774535393
 21
604.9526759600803
 31
0.0
  0
LINE
  5
18B
330
A3
100
AcDbEntity
  8
0 - Systemaufbauten
  6
Continuous
 62
     7
370
     0
100
AcDbLine
 10
525.355378376697
 20
605.4686757540858
 30
0.0
 11
525.7233774535403
 21
604.9526759600803
 31
0.0
  0
LINE
  5
18C
330
A3
100
AcDbEntity
  8
0 - Systemaufbauten
  6
Continuous
 62
     7
370
     0
100
AcDbLine
 10
565.3553783766979
 20
605.4686757540876
 30
0.0
 11
565.7233774535421
 21
604.9526759600803
 31
0.0
  0
LINE
  5
18D
330
A3
100
AcDbEntity
  8
0 - Systemaufbauten
  6
Continuous
 62
     7
370
     0
100
AcDbLine
 10
605.3553783766979
 20
605.4686757540858
 30
0.0
 11
605.7233774535412
 21
604.9526759600803
 31
0.0
  0
LINE
  5
18E
330
A3
100
AcDbEntity
  8
0 - Systemaufbauten
  6
Continuous
 62
     7
370
     0
100
AcDbLine
 10
645.3553783766979
 20
605.4686757540858
 30
0.0
 11
645.7233774535421
 21
604.9526759600803
 31
0.0
  0
LINE
  5
18F
330
A3
100
AcDbEntity
  8
0 - Systemaufbauten
  6
Continuous
 62
     7
370
     0
100
AcDbLine
 10
685.3553783766997
 20
605.4686757540876
 30
0.0
 11
685.723377453543
 21
604.9526759600803
 31
0.0
  0
LINE
  5
190
330
A3
100
AcDbEntity
  8
0 - Systemaufbauten
  6
Continuous
 62
     7
370
     0
100
AcDbLine
 10
725.3553783767006
 20
605.4686757540876
 30
0.0
 11
725.723377453543
 21
604.9526759600803
 31
0.0
  0
LINE
  5
191
330
A3
100
AcDbEntity
  8
0 - Systemaufbauten
  6
Continuous
 62
     7
370
     0
100
AcDbLine
 10
765.3553783767006
 20
605.4686757540858
 30
0.0
 11
765.723377453543
 21
604.9526759600803
 31
0.0
  0
LINE
  5
192
330
A3
100
AcDbEntity
  8
0 - Systemaufbauten
  6
Continuous
 62
     7
370
     0
100
AcDbLine
 10
805.3553783767015
 20
605.4686757540858
 30
0.0
 11
805.7233774535448
 21
604.9526759600803
 31
0.0
  0
LINE
  5
193
330
A3
100
AcDbEntity
  8
0 - Systemaufbauten
  6
Continuous
 62
     7
370
     0
100
AcDbLine
 10
845.3553783767015
 20
605.4686757540876
 30
0.0
 11
845.7233774535457
 21
604.9526759600803
 31
0.0
  0
LINE
  5
194
330
A3
100
AcDbEntity
  8
0 - Systemaufbauten
  6
Continuous
 62
     7
370
     0
100
AcDbLine
 10
885.3553783767024
 20
605.4686757540858
 30
0.0
 11
885.7233774535457
 21
604.9526759600803
 31
0.0
  0
LINE
  5
195
330
A3
100
AcDbEntity
  8
0 - Systemaufbauten
  6
Continuous
 62
     7
370
     0
100
AcDbLine
 10
925.3553783767024
 20
605.4686757540858
 30
0.0
 11
925.7233774535457
 21
604.9526759600803
 31
0.0
  0
LINE
  5
196
330
A3
100
AcDbEntity
  8
0 - Systemaufbauten
  6
Continuous
 62
     7
370
     0
100
AcDbLine
 10
965.3553783767034
 20
605.4686757540858
 30
0.0
 11
965.7233774535466
 21
604.9526759600803
 31
0.0
  0
LINE
  5
197
330
A3
100
AcDbEntity
  8
0 - Systemaufbauten
  6
Continuous
 62
     7
370
     0
100
AcDbLine
 10
1005.355378376704
 20
605.4686757540876
 30
0.0
 11
1005.723377453548
 21
604.9526759600803
 31
0.0
  0
LINE
  5
198
330
A3
100
AcDbEntity
  8
0 - Systemaufbauten
  6
Continuous
 62
     7
370
     0
100
AcDbLine
 10
1045.355378376704
 20
605.4686757540858
 30
0.0
 11
1045.723377453548
 21
604.9526759600803
 31
0.0
  0
LINE
  5
199
330
A3
100
AcDbEntity
  8
0 - Systemaufbauten
  6
Continuous
 62
     7
370
     0
100
AcDbLine
 10
1085.355378376705
 20
605.4686757540858
 30
0.0
 11
1085.723377453548
 21
604.9526759600803
 31
0.0
  0
LINE
  5
19A
330
A3
100
AcDbEntity
  8
0 - Systemaufbauten
  6
Continuous
 62
     7
370
     0
100
AcDbLine
 10
1125.355378376706
 20
605.4686757540876
 30
0.0
 11
1125.723377453549
 21
604.9526759600803
 31
0.0
  0
LINE
  5
19B
330
A3
100
AcDbEntity
  8
0 - Systemaufbauten
  6
Continuous
 62
     7
370
     0
100
AcDbLine
 10
1165.355378376706
 20
605.4686757540858
 30
0.0
 11
1165.723377453549
 21
604.9526759600803
 31
0.0
  0
LINE
  5
19C
330
A3
100
AcDbEntity
  8
0 - Systemaufbauten
  6
Continuous
 62
     7
370
     0
100
AcDbLine
 10
1205.355378376706
 20
605.4686757540858
 30
0.0
 11
1205.72337745355
 21
604.9526759600803
 31
0.0
  0
LINE
  5
19D
330
A3
100
AcDbEntity
  8
0 - Systemaufbauten
  6
Continuous
 62
     7
370
     0
100
AcDbLine
 10
1245.355378376707
 20
605.4686757540876
 30
0.0
 11
1245.72337745355
 21
604.9526759600803
 31
0.0
  0
LINE
  5
19E
330
A3
100
AcDbEntity
  8
0 - Systemaufbauten
  6
Continuous
 62
     7
370
     0
100
AcDbLine
 10
1285.355378376709
 20
605.4686757540876
 30
0.0
 11
1285.723377453551
 21
604.9526759600803
 31
0.0
  0
LINE
  5
19F
330
A3
100
AcDbEntity
  8
0 - Systemaufbauten
  6
Continuous
 62
     7
370
     0
100
AcDbLine
 10
1325.355378376709
 20
605.4686757540858
 30
0.0
 11
1325.723377453552
 21
604.9526759600803
 31
0.0
  0
LINE
  5
1A0
330
A3
100
AcDbEntity
  8
0 - Systemaufbauten
  6
Continuous
 62
     7
370
     0
100
AcDbLine
 10
1365.355378376709
 20
605.4686757540858
 30
0.0
 11
1365.723377453552
 21
604.9526759600803
 31
0.0
  0
LINE
  5
1A1
330
A3
100
AcDbEntity
  8
0 - Systemaufbauten
  6
Continuous
 62
     7
370
     0
100
AcDbLine
 10
1405.35537837671
 20
605.4686757540876
 30
0.0
 11
1405.723377453552
 21
604.9526759600803
 31
0.0
  0
LINE
  5
1A2
330
A3
100
AcDbEntity
  8
0 - Systemaufbauten
  6
Continuous
 62
     7
370
     0
100
AcDbLine
 10
1445.355378376711
 20
605.4686757540876
 30
0.0
 11
1445.723377453554
 21
604.9526759600803
 31
0.0
  0
LINE
  5
1A3
330
A3
100
AcDbEntity
  8
0 - Systemaufbauten
  6
Continuous
 62
     7
370
     0
100
AcDbLine
 10
1485.35537837671
 20
605.4686757540858
 30
0.0
 11
1485.723377453555
 21
604.9526759600803
 31
0.0
  0
LINE
  5
1A4
330
A3
100
AcDbEntity
  8
0 - Systemaufbauten
  6
Continuous
 62
     7
370
     0
100
AcDbLine
 10
1525.355378376712
 20
605.4686757540858
 30
0.0
 11
1525.723377453555
 21
604.9526759600803
 31
0.0
  0
LINE
  5
1A5
330
A3
100
AcDbEntity
  8
0 - Systemaufbauten
  6
Continuous
 62
     7
370
     0
100
AcDbLine
 10
1565.355378376712
 20
605.4686757540876
 30
0.0
 11
1565.723377453555
 21
604.9526759600803
 31
0.0
  0
LINE
  5
1A6
330
A3
100
AcDbEntity
  8
0 - Systemaufbauten
  6
Continuous
 62
     7
370
     0
100
AcDbLine
 10
1605.355378376712
 20
605.4686757540858
 30
0.0
 11
1605.723377453556
 21
604.9526759600803
 31
0.0
  0
LINE
  5
1A7
330
A3
100
AcDbEntity
  8
0 - Systemaufbauten
  6
Continuous
 62
     7
370
     0
100
AcDbLine
 10
1645.355378376713
 20
605.4686757540858
 30
0.0
 11
1645.723377453557
 21
604.9526759600803
 31
0.0
  0
LINE
  5
1A8
330
A3
100
AcDbEntity
  8
0 - Systemaufbauten
  6
Continuous
 62
     7
370
     0
100
AcDbLine
 10
1685.355378376713
 20
605.4686757540876
 30
0.0
 11
1685.723377453557
 21
604.9526759600803
 31
0.0
  0
LINE
  5
1A9
330
A3
100
AcDbEntity
  8
0 - Systemaufbauten
  6
Continuous
 62
     7
370
     0
100
AcDbLine
 10
1725.355378376714
 20
605.4686757540876
 30
0.0
 11
1725.723377453558
 21
604.9526759600803
 31
0.0
  0
LINE
  5
1AA
330
A3
100
AcDbEntity
  8
0 - Systemaufbauten
  6
Continuous
 62
     7
370
     0
100
AcDbLine
 10
1765.355378376715
 20
605.4686757540858
 30
0.0
 11
1765.723377453558
 21
604.9526759600803
 31
0.0
  0
LINE
  5
1AB
330
A3
100
AcDbEntity
  8
0 - Systemaufbauten
  6
Continuous
 62
     7
370
     0
100
AcDbLine
 10
1805.355378376715
 20
605.4686757540858
 30
0.0
 11
1805.723377453558
 21
604.9526759600803
 31
0.0
  0
LINE
  5
1AC
330
A3
100
AcDbEntity
  8
0 - Systemaufbauten
  6
Continuous
 62
     7
370
     0
100
AcDbLine
 10
338.4313776962476
 20
607.4286761498606
 30
0.0
 11
338.9433777205663
 21
606.9886758542216
 31
0.0
  0
LINE
  5
1AD
330
A3
100
AcDbEntity
  8
0 - Systemaufbauten
  6
Continuous
 62
     7
370
     0
100
AcDbLine
 10
378.4313776962485
 20
607.4286761498606
 30
0.0
 11
378.9433777205672
 21
606.9886758542216
 31
0.0
  0
LINE
  5
1AE
330
A3
100
AcDbEntity
  8
0 - Systemaufbauten
  6
Continuous
 62
     7
370
     0
100
AcDbLine
 10
418.4313776962495
 20
607.4286761498606
 30
0.0
 11
418.9433777205682
 21
606.9886758542216
 31
0.0
  0
LINE
  5
1AF
330
A3
100
AcDbEntity
  8
0 - Systemaufbauten
  6
Continuous
 62
     7
370
     0
100
AcDbLine
 10
458.4313776962495
 20
607.4286761498606
 30
0.0
 11
458.9433777205682
 21
606.9886758542216
 31
0.0
  0
LINE
  5
1B0
330
A3
100
AcDbEntity
  8
0 - Systemaufbauten
  6
Continuous
 62
     7
370
     0
100
AcDbLine
 10
498.4313776962504
 20
607.4286761498606
 30
0.0
 11
498.9433777205691
 21
606.9886758542216
 31
0.0
  0
LINE
  5
1B1
330
A3
100
AcDbEntity
  8
0 - Systemaufbauten
  6
Continuous
 62
     7
370
     0
100
AcDbLine
 10
538.4313776962513
 20
607.4286761498606
 30
0.0
 11
538.9433777205691
 21
606.9886758542216
 31
0.0
  0
LINE
  5
1B2
330
A3
100
AcDbEntity
  8
0 - Systemaufbauten
  6
Continuous
 62
     7
370
     0
100
AcDbLine
 10
578.4313776962513
 20
607.4286761498606
 30
0.0
 11
578.9433777205691
 21
606.9886758542216
 31
0.0
  0
LINE
  5
1B3
330
A3
100
AcDbEntity
  8
0 - Systemaufbauten
  6
Continuous
 62
     7
370
     0
100
AcDbLine
 10
618.4313776962522
 20
607.4286761498606
 30
0.0
 11
618.9433777205718
 21
606.9886758542216
 31
0.0
  0
LINE
  5
1B4
330
A3
100
AcDbEntity
  8
0 - Systemaufbauten
  6
Continuous
 62
     7
370
     0
100
AcDbLine
 10
658.4313776962522
 20
607.4286761498606
 30
0.0
 11
658.94337772057
 21
606.9886758542216
 31
0.0
  0
LINE
  5
1B5
330
A3
100
AcDbEntity
  8
0 - Systemaufbauten
  6
Continuous
 62
     7
370
     0
100
AcDbLine
 10
698.4313776962531
 20
607.4286761498606
 30
0.0
 11
698.9433777205718
 21
606.9886758542216
 31
0.0
  0
LINE
  5
1B6
330
A3
100
AcDbEntity
  8
0 - Systemaufbauten
  6
Continuous
 62
     7
370
     0
100
AcDbLine
 10
738.4313776962549
 20
607.4286761498606
 30
0.0
 11
738.9433777205727
 21
606.9886758542216
 31
0.0
  0
LINE
  5
1B7
330
A3
100
AcDbEntity
  8
0 - Systemaufbauten
  6
Continuous
 62
     7
370
     0
100
AcDbLine
 10
778.4313776962531
 20
607.4286761498606
 30
0.0
 11
778.9433777205727
 21
606.9886758542216
 31
0.0
  0
LINE
  5
1B8
330
A3
100
AcDbEntity
  8
0 - Systemaufbauten
  6
Continuous
 62
     7
370
     0
100
AcDbLine
 10
818.4313776962549
 20
607.4286761498606
 30
0.0
 11
818.9433777205736
 21
606.9886758542216
 31
0.0
  0
LINE
  5
1B9
330
A3
100
AcDbEntity
  8
0 - Systemaufbauten
  6
Continuous
 62
     7
370
     0
100
AcDbLine
 10
858.4313776962558
 20
607.4286761498606
 30
0.0
 11
858.9433777205736
 21
606.9886758542216
 31
0.0
  0
LINE
  5
1BA
330
A3
100
AcDbEntity
  8
0 - Systemaufbauten
  6
Continuous
 62
     7
370
     0
100
AcDbLine
 10
898.4313776962558
 20
607.4286761498606
 30
0.0
 11
898.9433777205745
 21
606.9886758542216
 31
0.0
  0
LINE
  5
1BB
330
A3
100
AcDbEntity
  8
0 - Systemaufbauten
  6
Continuous
 62
     7
370
     0
100
AcDbLine
 10
938.4313776962567
 20
607.4286761498606
 30
0.0
 11
938.9433777205754
 21
606.9886758542216
 31
0.0
  0
LINE
  5
1BC
330
A3
100
AcDbEntity
  8
0 - Systemaufbauten
  6
Continuous
 62
     7
370
     0
100
AcDbLine
 10
978.4313776962567
 20
607.4286761498606
 30
0.0
 11
978.9433777205754
 21
606.9886758542216
 31
0.0
  0
LINE
  5
1BD
330
A3
100
AcDbEntity
  8
0 - Systemaufbauten
  6
Continuous
 62
     7
370
     0
100
AcDbLine
 10
1018.431377696258
 20
607.4286761498606
 30
0.0
 11
1018.943377720576
 21
606.9886758542216
 31
0.0
  0
LINE
  5
1BE
330
A3
100
AcDbEntity
  8
0 - Systemaufbauten
  6
Continuous
 62
     7
370
     0
100
AcDbLine
 10
1058.431377696259
 20
607.4286761498606
 30
0.0
 11
1058.943377720577
 21
606.9886758542216
 31
0.0
  0
LINE
  5
1BF
330
A3
100
AcDbEntity
  8
0 - Systemaufbauten
  6
Continuous
 62
     7
370
     0
100
AcDbLine
 10
1098.431377696259
 20
607.4286761498606
 30
0.0
 11
1098.943377720577
 21
606.9886758542216
 31
0.0
  0
LINE
  5
1C0
330
A3
100
AcDbEntity
  8
0 - Systemaufbauten
  6
Continuous
 62
     7
370
     0
100
AcDbLine
 10
1138.431377696259
 20
607.4286761498606
 30
0.0
 11
1138.943377720578
 21
606.9886758542216
 31
0.0
  0
LINE
  5
1C1
330
A3
100
AcDbEntity
  8
0 - Systemaufbauten
  6
Continuous
 62
     7
370
     0
100
AcDbLine
 10
1178.43137769626
 20
607.4286761498606
 30
0.0
 11
1178.94337772058
 21
606.9886758542216
 31
0.0
  0
LINE
  5
1C2
330
A3
100
AcDbEntity
  8
0 - Systemaufbauten
  6
Continuous
 62
     7
370
     0
100
AcDbLine
 10
1218.43137769626
 20
607.4286761498606
 30
0.0
 11
1218.943377720578
 21
606.9886758542216
 31
0.0
  0
LINE
  5
1C3
330
A3
100
AcDbEntity
  8
0 - Systemaufbauten
  6
Continuous
 62
     7
370
     0
100
AcDbLine
 10
1258.431377696261
 20
607.4286761498606
 30
0.0
 11
1258.94337772058
 21
606.9886758542216
 31
0.0
  0
LINE
  5
1C4
330
A3
100
AcDbEntity
  8
0 - Systemaufbauten
  6
Continuous
 62
     7
370
     0
100
AcDbLine
 10
1298.431377696261
 20
607.4286761498606
 30
0.0
 11
1298.943377720581
 21
606.9886758542216
 31
0.0
  0
LINE
  5
1C5
330
A3
100
AcDbEntity
  8
0 - Systemaufbauten
  6
Continuous
 62
     7
370
     0
100
AcDbLine
 10
1338.431377696262
 20
607.4286761498606
 30
0.0
 11
1338.943377720581
 21
606.9886758542216
 31
0.0
  0
LINE
  5
1C6
330
A3
100
AcDbEntity
  8
0 - Systemaufbauten
  6
Continuous
 62
     7
370
     0
100
AcDbLine
 10
1378.431377696264
 20
607.4286761498606
 30
0.0
 11
1378.943377720581
 21
606.9886758542216
 31
0.0
  0
LINE
  5
1C7
330
A3
100
AcDbEntity
  8
0 - Systemaufbauten
  6
Continuous
 62
     7
370
     0
100
AcDbLine
 10
1418.431377696262
 20
607.4286761498606
 30
0.0
 11
1418.943377720582
 21
606.9886758542216
 31
0.0
  0
LINE
  5
1C8
330
A3
100
AcDbEntity
  8
0 - Systemaufbauten
  6
Continuous
 62
     7
370
     0
100
AcDbLine
 10
1458.431377696264
 20
607.4286761498606
 30
0.0
 11
1458.943377720584
 21
606.9886758542216
 31
0.0
  0
LINE
  5
1C9
330
A3
100
AcDbEntity
  8
0 - Systemaufbauten
  6
Continuous
 62
     7
370
     0
100
AcDbLine
 10
1498.431377696265
 20
607.4286761498606
 30
0.0
 11
1498.943377720582
 21
606.9886758542216
 31
0.0
  0
LINE
  5
1CA
330
A3
100
AcDbEntity
  8
0 - Systemaufbauten
  6
Continuous
 62
     7
370
     0
100
AcDbLine
 10
1538.431377696265
 20
607.4286761498606
 30
0.0
 11
1538.943377720584
 21
606.9886758542216
 31
0.0
  0
LINE
  5
1CB
330
A3
100
AcDbEntity
  8
0 - Systemaufbauten
  6
Continuous
 62
     7
370
     0
100
AcDbLine
 10
1578.431377696265
 20
607.4286761498606
 30
0.0
 11
1578.943377720585
 21
606.9886758542216
 31
0.0
  0
LINE
  5
1CC
330
A3
100
AcDbEntity
  8
0 - Systemaufbauten
  6
Continuous
 62
     7
370
     0
100
AcDbLine
 10
1618.431377696267
 20
607.4286761498606
 30
0.0
 11
1618.943377720585
 21
606.9886758542216
 31
0.0
  0
LINE
  5
1CD
330
A3
100
AcDbEntity
  8
0 - Systemaufbauten
  6
Continuous
 62
     7
370
     0
100
AcDbLine
 10
1658.431377696268
 20
607.4286761498606
 30
0.0
 11
1658.943377720585
 21
606.9886758542216
 31
0.0
  0
LINE
  5
1CE
330
A3
100
AcDbEntity
  8
0 - Systemaufbauten
  6
Continuous
 62
     7
370
     0
100
AcDbLine
 10
1698.431377696268
 20
607.4286761498606
 30
0.0
 11
1698.943377720586
 21
606.9886758542216
 31
0.0
  0
LINE
  5
1CF
330
A3
100
AcDbEntity
  8
0 - Systemaufbauten
  6
Continuous
 62
     7
370
     0
100
AcDbLine
 10
1738.431377696269
 20
607.4286761498606
 30
0.0
 11
1738.943377720586
 21
606.9886758542216
 31
0.0
  0
LINE
  5
1D0
330
A3
100
AcDbEntity
  8
0 - Systemaufbauten
  6
Continuous
 62
     7
370
     0
100
AcDbLine
 10
1778.431377696269
 20
607.4286761498606
 30
0.0
 11
1778.943377720587
 21
606.9886758542216
 31
0.0
  0
LINE
  5
1D1
330
A3
100
AcDbEntity
  8
0 - Systemaufbauten
  6
Continuous
 62
     7
370
     0
100
AcDbLine
 10
1818.431377696269
 20
607.4286761498606
 30
0.0
 11
1818.943377720588
 21
606.9886758542216
 31
0.0
  0
LINE
  5
1D2
330
A3
100
AcDbEntity
  8
0 - Systemaufbauten
  6
Continuous
 62
     7
370
     0
100
AcDbLine
 10
338.7993776671615
 20
607.8726759171641
 30
0.0
 11
339.4593775145727
 21
607.4286761498606
 31
0.0
  0
LINE
  5
1D3
330
A3
100
AcDbEntity
  8
0 - Systemaufbauten
  6
Continuous
 62
     7
370
     0
100
AcDbLine
 10
378.7993776671615
 20
607.872675917165
 30
0.0
 11
379.4593775145736
 21
607.4286761498606
 31
0.0
  0
LINE
  5
1D4
330
A3
100
AcDbEntity
  8
0 - Systemaufbauten
  6
Continuous
 62
     7
370
     0
100
AcDbLine
 10
418.7993776671615
 20
607.8726759171641
 30
0.0
 11
419.4593775145736
 21
607.4286761498606
 31
0.0
  0
LINE
  5
1D5
330
A3
100
AcDbEntity
  8
0 - Systemaufbauten
  6
Continuous
 62
     7
370
     0
100
AcDbLine
 10
458.7993776671624
 20
607.872675917165
 30
0.0
 11
459.4593775145754
 21
607.4286761498606
 31
0.0
  0
LINE
  5
1D6
330
A3
100
AcDbEntity
  8
0 - Systemaufbauten
  6
Continuous
 62
     7
370
     0
100
AcDbLine
 10
498.7993776671633
 20
607.872675917165
 30
0.0
 11
499.4593775145754
 21
607.4286761498606
 31
0.0
  0
LINE
  5
1D7
330
A3
100
AcDbEntity
  8
0 - Systemaufbauten
  6
Continuous
 62
     7
370
     0
100
AcDbLine
 10
538.7993776671633
 20
607.872675917165
 30
0.0
 11
539.4593775145754
 21
607.4286761498606
 31
0.0
  0
LINE
  5
1D8
330
A3
100
AcDbEntity
  8
0 - Systemaufbauten
  6
Continuous
 62
     7
370
     0
100
AcDbLine
 10
578.7993776671642
 20
607.872675917165
 30
0.0
 11
579.4593775145763
 21
607.4286761498606
 31
0.0
  0
LINE
  5
1D9
330
A3
100
AcDbEntity
  8
0 - Systemaufbauten
  6
Continuous
 62
     7
370
     0
100
AcDbLine
 10
618.799377667166
 20
607.8726759171641
 30
0.0
 11
619.4593775145763
 21
607.4286761498606
 31
0.0
  0
LINE
  5
1DA
330
A3
100
AcDbEntity
  8
0 - Systemaufbauten
  6
Continuous
 62
     7
370
     0
100
AcDbLine
 10
658.799377667166
 20
607.872675917165
 30
0.0
 11
659.4593775145772
 21
607.4286761498606
 31
0.0
  0
LINE
  5
1DB
330
A3
100
AcDbEntity
  8
0 - Systemaufbauten
  6
Continuous
 62
     7
370
     0
100
AcDbLine
 10
698.7993776671651
 20
607.872675917165
 30
0.0
 11
699.4593775145781
 21
607.4286761498606
 31
0.0
  0
LINE
  5
1DC
330
A3
100
AcDbEntity
  8
0 - Systemaufbauten
  6
Continuous
 62
     7
370
     0
100
AcDbLine
 10
738.7993776671669
 20
607.872675917165
 30
0.0
 11
739.45937751458
 21
607.4286761498606
 31
0.0
  0
LINE
  5
1DD
330
A3
100
AcDbEntity
  8
0 - Systemaufbauten
  6
Continuous
 62
     7
370
     0
100
AcDbLine
 10
778.7993776671669
 20
607.872675917165
 30
0.0
 11
779.45937751458
 21
607.4286761498606
 31
0.0
  0
LINE
  5
1DE
330
A3
100
AcDbEntity
  8
0 - Systemaufbauten
  6
Continuous
 62
     7
370
     0
100
AcDbLine
 10
818.7993776671669
 20
607.872675917165
 30
0.0
 11
819.459377514579
 21
607.4286761498606
 31
0.0
  0
LINE
  5
1DF
330
A3
100
AcDbEntity
  8
0 - Systemaufbauten
  6
Continuous
 62
     7
370
     0
100
AcDbLine
 10
858.7993776671688
 20
607.872675917165
 30
0.0
 11
859.4593775145809
 21
607.4286761498606
 31
0.0
  0
LINE
  5
1E0
330
A3
100
AcDbEntity
  8
0 - Systemaufbauten
  6
Continuous
 62
     7
370
     0
100
AcDbLine
 10
898.7993776671697
 20
607.8726759171641
 30
0.0
 11
899.4593775145809
 21
607.4286761498606
 31
0.0
  0
LINE
  5
1E1
330
A3
100
AcDbEntity
  8
0 - Systemaufbauten
  6
Continuous
 62
     7
370
     0
100
AcDbLine
 10
938.7993776671697
 20
607.872675917165
 30
0.0
 11
939.4593775145809
 21
607.4286761498606
 31
0.0
  0
LINE
  5
1E2
330
A3
100
AcDbEntity
  8
0 - Systemaufbauten
  6
Continuous
 62
     7
370
     0
100
AcDbLine
 10
978.7993776671697
 20
607.872675917165
 30
0.0
 11
979.4593775145818
 21
607.4286761498606
 31
0.0
  0
LINE
  5
1E3
330
A3
100
AcDbEntity
  8
0 - Systemaufbauten
  6
Continuous
 62
     7
370
     0
100
AcDbLine
 10
1018.799377667171
 20
607.872675917165
 30
0.0
 11
1019.459377514584
 21
607.4286761498606
 31
0.0
  0
LINE
  5
1E4
330
A3
100
AcDbEntity
  8
0 - Systemaufbauten
  6
Continuous
 62
     7
370
     0
100
AcDbLine
 10
1058.799377667171
 20
607.872675917165
 30
0.0
 11
1059.459377514584
 21
607.4286761498606
 31
0.0
  0
LINE
  5
1E5
330
A3
100
AcDbEntity
  8
0 - Systemaufbauten
  6
Continuous
 62
     7
370
     0
100
AcDbLine
 10
1098.799377667171
 20
607.8726759171641
 30
0.0
 11
1099.459377514585
 21
607.4286761498606
 31
0.0
  0
LINE
  5
1E6
330
A3
100
AcDbEntity
  8
0 - Systemaufbauten
  6
Continuous
 62
     7
370
     0
100
AcDbLine
 10
1138.799377667172
 20
607.872675917165
 30
0.0
 11
1139.459377514585
 21
607.4286761498606
 31
0.0
  0
LINE
  5
1E7
330
A3
100
AcDbEntity
  8
0 - Systemaufbauten
  6
Continuous
 62
     7
370
     0
100
AcDbLine
 10
1178.799377667173
 20
607.872675917165
 30
0.0
 11
1179.459377514585
 21
607.4286761498606
 31
0.0
  0
LINE
  5
1E8
330
A3
100
AcDbEntity
  8
0 - Systemaufbauten
  6
Continuous
 62
     7
370
     0
100
AcDbLine
 10
1218.799377667173
 20
607.872675917165
 30
0.0
 11
1219.459377514585
 21
607.4286761498606
 31
0.0
  0
LINE
  5
1E9
330
A3
100
AcDbEntity
  8
0 - Systemaufbauten
  6
Continuous
 62
     7
370
     0
100
AcDbLine
 10
1258.799377667173
 20
607.872675917165
 30
0.0
 11
1259.459377514585
 21
607.4286761498606
 31
0.0
  0
LINE
  5
1EA
330
A3
100
AcDbEntity
  8
0 - Systemaufbauten
  6
Continuous
 62
     7
370
     0
100
AcDbLine
 10
1298.799377667175
 20
607.872675917165
 30
0.0
 11
1299.459377514587
 21
607.4286761498606
 31
0.0
  0
LINE
  5
1EB
330
A3
100
AcDbEntity
  8
0 - Systemaufbauten
  6
Continuous
 62
     7
370
     0
100
AcDbLine
 10
1338.799377667175
 20
607.872675917165
 30
0.0
 11
1339.459377514587
 21
607.4286761498606
 31
0.0
  0
LINE
  5
1EC
330
A3
100
AcDbEntity
  8
0 - Systemaufbauten
  6
Continuous
 62
     7
370
     0
100
AcDbLine
 10
1378.799377667175
 20
607.8726759171641
 30
0.0
 11
1379.459377514588
 21
607.4286761498606
 31
0.0
  0
LINE
  5
1ED
330
A3
100
AcDbEntity
  8
0 - Systemaufbauten
  6
Continuous
 62
     7
370
     0
100
AcDbLine
 10
1418.799377667176
 20
607.872675917165
 30
0.0
 11
1419.459377514589
 21
607.4286761498606
 31
0.0
  0
LINE
  5
1EE
330
A3
100
AcDbEntity
  8
0 - Systemaufbauten
  6
Continuous
 62
     7
370
     0
100
AcDbLine
 10
1458.799377667178
 20
607.872675917165
 30
0.0
 11
1459.459377514588
 21
607.4286761498606
 31
0.0
  0
LINE
  5
1EF
330
A3
100
AcDbEntity
  8
0 - Systemaufbauten
  6
Continuous
 62
     7
370
     0
100
AcDbLine
 10
1498.799377667178
 20
607.872675917165
 30
0.0
 11
1499.45937751459
 21
607.4286761498606
 31
0.0
  0
LINE
  5
1F0
330
A3
100
AcDbEntity
  8
0 - Systemaufbauten
  6
Continuous
 62
     7
370
     0
100
AcDbLine
 10
1538.799377667178
 20
607.872675917165
 30
0.0
 11
1539.45937751459
 21
607.4286761498606
 31
0.0
  0
LINE
  5
1F1
330
A3
100
AcDbEntity
  8
0 - Systemaufbauten
  6
Continuous
 62
     7
370
     0
100
AcDbLine
 10
1578.799377667179
 20
607.8726759171641
 30
0.0
 11
1579.45937751459
 21
607.4286761498606
 31
0.0
  0
LINE
  5
1F2
330
A3
100
AcDbEntity
  8
0 - Systemaufbauten
  6
Continuous
 62
     7
370
     0
100
AcDbLine
 10
1618.799377667179
 20
607.872675917165
 30
0.0
 11
1619.459377514592
 21
607.4286761498606
 31
0.0
  0
LINE
  5
1F3
330
A3
100
AcDbEntity
  8
0 - Systemaufbauten
  6
Continuous
 62
     7
370
     0
100
AcDbLine
 10
1658.799377667179
 20
607.8726759171641
 30
0.0
 11
1659.459377514593
 21
607.4286761498606
 31
0.0
  0
LINE
  5
1F4
330
A3
100
AcDbEntity
  8
0 - Systemaufbauten
  6
Continuous
 62
     7
370
     0
100
AcDbLine
 10
1698.799377667181
 20
607.872675917165
 30
0.0
 11
1699.459377514593
 21
607.4286761498606
 31
0.0
  0
LINE
  5
1F5
330
A3
100
AcDbEntity
  8
0 - Systemaufbauten
  6
Continuous
 62
     7
370
     0
100
AcDbLine
 10
1738.799377667181
 20
607.872675917165
 30
0.0
 11
1739.459377514593
 21
607.4286761498606
 31
0.0
  0
LINE
  5
1F6
330
A3
100
AcDbEntity
  8
0 - Systemaufbauten
  6
Continuous
 62
     7
370
     0
100
AcDbLine
 10
1778.799377667181
 20
607.8726759171641
 30
0.0
 11
1779.459377514594
 21
607.4286761498606
 31
0.0
  0
LINE
  5
1F7
330
A3
100
AcDbEntity
  8
0 - Systemaufbauten
  6
Continuous
 62
     7
370
     0
100
AcDbLine
 10
1818.799377667181
 20
607.872675917165
 30
0.0
 11
1819.459377514594
 21
607.4286761498606
 31
0.0
  0
LINE
  5
1F8
330
A3
100
AcDbEntity
  8
0 - Systemaufbauten
  6
Continuous
 62
     7
370
     0
100
AcDbLine
 10
343.7833779923644
 20
599.1766759371903
 30
0.0
 11
344.1513776652532
 21
599.0286759650871
 31
0.0
  0
LINE
  5
1F9
330
A3
100
AcDbEntity
  8
0 - Systemaufbauten
  6
Continuous
 62
     7
370
     0
100
AcDbLine
 10
383.7833779923644
 20
599.1766759371903
 30
0.0
 11
384.1513776652541
 21
599.0286759650871
 31
0.0
  0
LINE
  5
1FA
330
A3
100
AcDbEntity
  8
0 - Systemaufbauten
  6
Continuous
 62
     7
370
     0
100
AcDbLine
 10
423.7833779923653
 20
599.1766759371903
 30
0.0
 11
424.1513776652559
 21
599.0286759650871
 31
0.0
  0
LINE
  5
1FB
330
A3
100
AcDbEntity
  8
0 - Systemaufbauten
  6
Continuous
 62
     7
370
     0
100
AcDbLine
 10
463.7833779923653
 20
599.1766759371903
 30
0.0
 11
464.1513776652559
 21
599.0286759650871
 31
0.0
  0
LINE
  5
1FC
330
A3
100
AcDbEntity
  8
0 - Systemaufbauten
  6
Continuous
 62
     7
370
     0
100
AcDbLine
 10
503.7833779923662
 20
599.1766759371903
 30
0.0
 11
504.1513776652559
 21
599.0286759650871
 31
0.0
  0
LINE
  5
1FD
330
A3
100
AcDbEntity
  8
0 - Systemaufbauten
  6
Continuous
 62
     7
370
     0
100
AcDbLine
 10
543.7833779923662
 20
599.1766759371903
 30
0.0
 11
544.1513776652569
 21
599.0286759650871
 31
0.0
  0
LINE
  5
1FE
330
A3
100
AcDbEntity
  8
0 - Systemaufbauten
  6
Continuous
 62
     7
370
     0
100
AcDbLine
 10
583.7833779923672
 20
599.1766759371903
 30
0.0
 11
584.1513776652569
 21
599.0286759650871
 31
0.0
  0
LINE
  5
1FF
330
A3
100
AcDbEntity
  8
0 - Systemaufbauten
  6
Continuous
 62
     7
370
     0
100
AcDbLine
 10
623.783377992369
 20
599.1766759371903
 30
0.0
 11
624.1513776652569
 21
599.0286759650871
 31
0.0
  0
LINE
  5
200
330
A3
100
AcDbEntity
  8
0 - Systemaufbauten
  6
Continuous
 62
     7
370
     0
100
AcDbLine
 10
663.783377992369
 20
599.1766759371903
 30
0.0
 11
664.1513776652587
 21
599.0286759650871
 31
0.0
  0
LINE
  5
201
330
A3
100
AcDbEntity
  8
0 - Systemaufbauten
  6
Continuous
 62
     7
370
     0
100
AcDbLine
 10
703.783377992369
 20
599.1766759371903
 30
0.0
 11
704.1513776652596
 21
599.0286759650871
 31
0.0
  0
LINE
  5
202
330
A3
100
AcDbEntity
  8
0 - Systemaufbauten
  6
Continuous
 62
     7
370
     0
100
AcDbLine
 10
743.7833779923699
 20
599.1766759371903
 30
0.0
 11
744.1513776652596
 21
599.0286759650871
 31
0.0
  0
LINE
  5
203
330
A3
100
AcDbEntity
  8
0 - Systemaufbauten
  6
Continuous
 62
     7
370
     0
100
AcDbLine
 10
783.7833779923699
 20
599.1766759371903
 30
0.0
 11
784.1513776652605
 21
599.0286759650871
 31
0.0
  0
LINE
  5
204
330
A3
100
AcDbEntity
  8
0 - Systemaufbauten
  6
Continuous
 62
     7
370
     0
100
AcDbLine
 10
823.7833779923699
 20
599.1766759371903
 30
0.0
 11
824.1513776652605
 21
599.0286759650871
 31
0.0
  0
LINE
  5
205
330
A3
100
AcDbEntity
  8
0 - Systemaufbauten
  6
Continuous
 62
     7
370
     0
100
AcDbLine
 10
863.7833779923708
 20
599.1766759371903
 30
0.0
 11
864.1513776652605
 21
599.0286759650871
 31
0.0
  0
LINE
  5
206
330
A3
100
AcDbEntity
  8
0 - Systemaufbauten
  6
Continuous
 62
     7
370
     0
100
AcDbLine
 10
903.7833779923726
 20
599.1766759371922
 30
0.0
 11
904.1513776652614
 21
599.0286759650871
 31
0.0
  0
LINE
  5
207
330
A3
100
AcDbEntity
  8
0 - Systemaufbauten
  6
Continuous
 62
     7
370
     0
100
AcDbLine
 10
943.7833779923735
 20
599.1766759371903
 30
0.0
 11
944.1513776652623
 21
599.0286759650871
 31
0.0
  0
LINE
  5
208
330
A3
100
AcDbEntity
  8
0 - Systemaufbauten
  6
Continuous
 62
     7
370
     0
100
AcDbLine
 10
983.7833779923735
 20
599.1766759371903
 30
0.0
 11
984.1513776652632
 21
599.0286759650871
 31
0.0
  0
LINE
  5
209
330
A3
100
AcDbEntity
  8
0 - Systemaufbauten
  6
Continuous
 62
     7
370
     0
100
AcDbLine
 10
1023.783377992374
 20
599.1766759371922
 30
0.0
 11
1024.151377665263
 21
599.0286759650871
 31
0.0
  0
LINE
  5
20A
330
A3
100
AcDbEntity
  8
0 - Systemaufbauten
  6
Continuous
 62
     7
370
     0
100
AcDbLine
 10
1063.783377992374
 20
599.1766759371903
 30
0.0
 11
1064.151377665265
 21
599.0286759650871
 31
0.0
  0
LINE
  5
20B
330
A3
100
AcDbEntity
  8
0 - Systemaufbauten
  6
Continuous
 62
     7
370
     0
100
AcDbLine
 10
1103.783377992374
 20
599.1766759371903
 30
0.0
 11
1104.151377665265
 21
599.0286759650871
 31
0.0
  0
LINE
  5
20C
330
A3
100
AcDbEntity
  8
0 - Systemaufbauten
  6
Continuous
 62
     7
370
     0
100
AcDbLine
 10
1143.783377992377
 20
599.1766759371922
 30
0.0
 11
1144.151377665265
 21
599.0286759650871
 31
0.0
  0
LINE
  5
20D
330
A3
100
AcDbEntity
  8
0 - Systemaufbauten
  6
Continuous
 62
     7
370
     0
100
AcDbLine
 10
1183.783377992375
 20
599.1766759371903
 30
0.0
 11
1184.151377665266
 21
599.0286759650871
 31
0.0
  0
LINE
  5
20E
330
A3
100
AcDbEntity
  8
0 - Systemaufbauten
  6
Continuous
 62
     7
370
     0
100
AcDbLine
 10
1223.783377992376
 20
599.1766759371903
 30
0.0
 11
1224.151377665266
 21
599.0286759650871
 31
0.0
  0
LINE
  5
20F
330
A3
100
AcDbEntity
  8
0 - Systemaufbauten
  6
Continuous
 62
     7
370
     0
100
AcDbLine
 10
1263.783377992378
 20
599.1766759371903
 30
0.0
 11
1264.151377665266
 21
599.0286759650871
 31
0.0
  0
LINE
  5
210
330
A3
100
AcDbEntity
  8
0 - Systemaufbauten
  6
Continuous
 62
     7
370
     0
100
AcDbLine
 10
1303.783377992378
 20
599.1766759371903
 30
0.0
 11
1304.151377665268
 21
599.0286759650871
 31
0.0
  0
LINE
  5
211
330
A3
100
AcDbEntity
  8
0 - Systemaufbauten
  6
Continuous
 62
     7
370
     0
100
AcDbLine
 10
1343.783377992378
 20
599.1766759371903
 30
0.0
 11
1344.151377665269
 21
599.0286759650871
 31
0.0
  0
LINE
  5
212
330
A3
100
AcDbEntity
  8
0 - Systemaufbauten
  6
Continuous
 62
     7
370
     0
100
AcDbLine
 10
1383.783377992379
 20
599.1766759371922
 30
0.0
 11
1384.151377665269
 21
599.0286759650871
 31
0.0
  0
LINE
  5
213
330
A3
100
AcDbEntity
  8
0 - Systemaufbauten
  6
Continuous
 62
     7
370
     0
100
AcDbLine
 10
1423.783377992379
 20
599.1766759371903
 30
0.0
 11
1424.15137766527
 21
599.0286759650871
 31
0.0
  0
LINE
  5
214
330
A3
100
AcDbEntity
  8
0 - Systemaufbauten
  6
Continuous
 62
     7
370
     0
100
AcDbLine
 10
1463.783377992379
 20
599.1766759371903
 30
0.0
 11
1464.15137766527
 21
599.0286759650871
 31
0.0
  0
LINE
  5
215
330
A3
100
AcDbEntity
  8
0 - Systemaufbauten
  6
Continuous
 62
     7
370
     0
100
AcDbLine
 10
1503.783377992381
 20
599.1766759371922
 30
0.0
 11
1504.151377665271
 21
599.0286759650871
 31
0.0
  0
LINE
  5
216
330
A3
100
AcDbEntity
  8
0 - Systemaufbauten
  6
Continuous
 62
     7
370
     0
100
AcDbLine
 10
1543.783377992382
 20
599.1766759371903
 30
0.0
 11
1544.151377665271
 21
599.0286759650871
 31
0.0
  0
LINE
  5
217
330
A3
100
AcDbEntity
  8
0 - Systemaufbauten
  6
Continuous
 62
     7
370
     0
100
AcDbLine
 10
1583.783377992382
 20
599.1766759371903
 30
0.0
 11
1584.151377665271
 21
599.0286759650871
 31
0.0
  0
LINE
  5
218
330
A3
100
AcDbEntity
  8
0 - Systemaufbauten
  6
Continuous
 62
     7
370
     0
100
AcDbLine
 10
1623.783377992383
 20
599.1766759371922
 30
0.0
 11
1624.151377665272
 21
599.0286759650871
 31
0.0
  0
LINE
  5
219
330
A3
100
AcDbEntity
  8
0 - Systemaufbauten
  6
Continuous
 62
     7
370
     0
100
AcDbLine
 10
1663.783377992383
 20
599.1766759371903
 30
0.0
 11
1664.151377665272
 21
599.0286759650871
 31
0.0
  0
LINE
  5
21A
330
A3
100
AcDbEntity
  8
0 - Systemaufbauten
  6
Continuous
 62
     7
370
     0
100
AcDbLine
 10
1703.783377992384
 20
599.1766759371903
 30
0.0
 11
1704.151377665273
 21
599.0286759650871
 31
0.0
  0
LINE
  5
21B
330
A3
100
AcDbEntity
  8
0 - Systemaufbauten
  6
Continuous
 62
     7
370
     0
100
AcDbLine
 10
1743.783377992384
 20
599.1766759371922
 30
0.0
 11
1744.151377665274
 21
599.0286759650871
 31
0.0
  0
LINE
  5
21C
330
A3
100
AcDbEntity
  8
0 - Systemaufbauten
  6
Continuous
 62
     7
370
     0
100
AcDbLine
 10
1783.783377992384
 20
599.1766759371903
 30
0.0
 11
1784.151377665274
 21
599.0286759650871
 31
0.0
  0
LINE
  5
21D
330
A3
100
AcDbEntity
  8
0 - Systemaufbauten
  6
Continuous
 62
     7
370
     0
100
AcDbLine
 10
1823.783377992385
 20
599.1766759371903
 30
0.0
 11
1824.151377665274
 21
599.0286759650871
 31
0.0
  0
LINE
  5
21E
330
A3
100
AcDbEntity
  8
0 - Systemaufbauten
  6
Continuous
 62
     7
370
     0
100
AcDbLine
 10
365.7233774535384
 20
604.9526759600803
 30
0.0
 11
366.3833773009505
 21
605.1006760811961
 31
0.0
  0
LINE
  5
21F
330
A3
100
AcDbEntity
  8
0 - Systemaufbauten
  6
Continuous
 62
     7
370
     0
100
AcDbLine
 10
405.7233774535384
 20
604.9526759600803
 30
0.0
 11
406.3833773009515
 21
605.100676081197
 31
0.0
  0
LINE
  5
220
330
A3
100
AcDbEntity
  8
0 - Systemaufbauten
  6
Continuous
 62
     7
370
     0
100
AcDbLine
 10
445.7233774535403
 20
604.9526759600803
 30
0.0
 11
446.3833773009515
 21
605.100676081197
 31
0.0
  0
LINE
  5
221
330
A3
100
AcDbEntity
  8
0 - Systemaufbauten
  6
Continuous
 62
     7
370
     0
100
AcDbLine
 10
485.7233774535393
 20
604.9526759600803
 30
0.0
 11
486.3833773009524
 21
605.1006760811961
 31
0.0
  0
LINE
  5
222
330
A3
100
AcDbEntity
  8
0 - Systemaufbauten
  6
Continuous
 62
     7
370
     0
100
AcDbLine
 10
525.7233774535412
 20
604.9526759600803
 30
0.0
 11
526.3833773009524
 21
605.100676081197
 31
0.0
  0
LINE
  5
223
330
A3
100
AcDbEntity
  8
0 - Systemaufbauten
  6
Continuous
 62
     7
370
     0
100
AcDbLine
 10
565.7233774535421
 20
604.9526759600803
 30
0.0
 11
566.3833773009533
 21
605.100676081197
 31
0.0
  0
LINE
  5
224
330
A3
100
AcDbEntity
  8
0 - Systemaufbauten
  6
Continuous
 62
     7
370
     0
100
AcDbLine
 10
605.7233774535412
 20
604.9526759600803
 30
0.0
 11
606.3833773009533
 21
605.1006760811961
 31
0.0
  0
LINE
  5
225
330
A3
100
AcDbEntity
  8
0 - Systemaufbauten
  6
Continuous
 62
     7
370
     0
100
AcDbLine
 10
645.7233774535421
 20
604.9526759600803
 30
0.0
 11
646.3833773009542
 21
605.100676081197
 31
0.0
  0
LINE
  5
226
330
A3
100
AcDbEntity
  8
0 - Systemaufbauten
  6
Continuous
 62
     7
370
     0
100
AcDbLine
 10
685.723377453543
 20
604.9526759600803
 30
0.0
 11
686.3833773009542
 21
605.100676081197
 31
0.0
  0
LINE
  5
227
330
A3
100
AcDbEntity
  8
0 - Systemaufbauten
  6
Continuous
 62
     7
370
     0
100
AcDbLine
 10
725.723377453543
 20
604.9526759600803
 30
0.0
 11
726.3833773009551
 21
605.1006760811961
 31
0.0
  0
LINE
  5
228
330
A3
100
AcDbEntity
  8
0 - Systemaufbauten
  6
Continuous
 62
     7
370
     0
100
AcDbLine
 10
765.723377453543
 20
604.9526759600803
 30
0.0
 11
766.3833773009551
 21
605.100676081197
 31
0.0
  0
LINE
  5
229
330
A3
100
AcDbEntity
  8
0 - Systemaufbauten
  6
Continuous
 62
     7
370
     0
100
AcDbLine
 10
805.7233774535448
 20
604.9526759600803
 30
0.0
 11
806.3833773009569
 21
605.100676081197
 31
0.0
  0
LINE
  5
22A
330
A3
100
AcDbEntity
  8
0 - Systemaufbauten
  6
Continuous
 62
     7
370
     0
100
AcDbLine
 10
845.7233774535457
 20
604.9526759600803
 30
0.0
 11
846.3833773009569
 21
605.1006760811961
 31
0.0
  0
LINE
  5
22B
330
A3
100
AcDbEntity
  8
0 - Systemaufbauten
  6
Continuous
 62
     7
370
     0
100
AcDbLine
 10
885.7233774535457
 20
604.9526759600803
 30
0.0
 11
886.3833773009578
 21
605.100676081197
 31
0.0
  0
LINE
  5
22C
330
A3
100
AcDbEntity
  8
0 - Systemaufbauten
  6
Continuous
 62
     7
370
     0
100
AcDbLine
 10
925.7233774535457
 20
604.9526759600803
 30
0.0
 11
926.3833773009587
 21
605.100676081197
 31
0.0
  0
LINE
  5
22D
330
A3
100
AcDbEntity
  8
0 - Systemaufbauten
  6
Continuous
 62
     7
370
     0
100
AcDbLine
 10
965.7233774535466
 20
604.9526759600803
 30
0.0
 11
966.3833773009578
 21
605.1006760811961
 31
0.0
  0
LINE
  5
22E
330
A3
100
AcDbEntity
  8
0 - Systemaufbauten
  6
Continuous
 62
     7
370
     0
100
AcDbLine
 10
1005.723377453548
 20
604.9526759600803
 30
0.0
 11
1006.383377300959
 21
605.100676081197
 31
0.0
  0
LINE
  5
22F
330
A3
100
AcDbEntity
  8
0 - Systemaufbauten
  6
Continuous
 62
     7
370
     0
100
AcDbLine
 10
1045.723377453548
 20
604.9526759600803
 30
0.0
 11
1046.383377300961
 21
605.100676081197
 31
0.0
  0
LINE
  5
230
330
A3
100
AcDbEntity
  8
0 - Systemaufbauten
  6
Continuous
 62
     7
370
     0
100
AcDbLine
 10
1085.723377453548
 20
604.9526759600803
 30
0.0
 11
1086.38337730096
 21
605.1006760811961
 31
0.0
  0
LINE
  5
231
330
A3
100
AcDbEntity
  8
0 - Systemaufbauten
  6
Continuous
 62
     7
370
     0
100
AcDbLine
 10
1125.723377453549
 20
604.9526759600803
 30
0.0
 11
1126.383377300961
 21
605.100676081197
 31
0.0
  0
LINE
  5
232
330
A3
100
AcDbEntity
  8
0 - Systemaufbauten
  6
Continuous
 62
     7
370
     0
100
AcDbLine
 10
1165.723377453549
 20
604.9526759600803
 30
0.0
 11
1166.383377300961
 21
605.100676081197
 31
0.0
  0
LINE
  5
233
330
A3
100
AcDbEntity
  8
0 - Systemaufbauten
  6
Continuous
 62
     7
370
     0
100
AcDbLine
 10
1205.72337745355
 20
604.9526759600803
 30
0.0
 11
1206.383377300961
 21
605.1006760811961
 31
0.0
  0
LINE
  5
234
330
A3
100
AcDbEntity
  8
0 - Systemaufbauten
  6
Continuous
 62
     7
370
     0
100
AcDbLine
 10
1245.72337745355
 20
604.9526759600803
 30
0.0
 11
1246.383377300962
 21
605.100676081197
 31
0.0
  0
LINE
  5
235
330
A3
100
AcDbEntity
  8
0 - Systemaufbauten
  6
Continuous
 62
     7
370
     0
100
AcDbLine
 10
1285.72337745355
 20
604.9526759600803
 30
0.0
 11
1286.383377300962
 21
605.100676081197
 31
0.0
  0
LINE
  5
236
330
A3
100
AcDbEntity
  8
0 - Systemaufbauten
  6
Continuous
 62
     7
370
     0
100
AcDbLine
 10
1325.723377453552
 20
604.9526759600803
 30
0.0
 11
1326.383377300965
 21
605.1006760811961
 31
0.0
  0
LINE
  5
237
330
A3
100
AcDbEntity
  8
0 - Systemaufbauten
  6
Continuous
 62
     7
370
     0
100
AcDbLine
 10
1365.723377453552
 20
604.9526759600803
 30
0.0
 11
1366.383377300963
 21
605.100676081197
 31
0.0
  0
LINE
  5
238
330
A3
100
AcDbEntity
  8
0 - Systemaufbauten
  6
Continuous
 62
     7
370
     0
100
AcDbLine
 10
1405.723377453552
 20
604.9526759600803
 30
0.0
 11
1406.383377300964
 21
605.100676081197
 31
0.0
  0
LINE
  5
239
330
A3
100
AcDbEntity
  8
0 - Systemaufbauten
  6
Continuous
 62
     7
370
     0
100
AcDbLine
 10
1445.723377453553
 20
604.9526759600803
 30
0.0
 11
1446.383377300966
 21
605.1006760811961
 31
0.0
  0
LINE
  5
23A
330
A3
100
AcDbEntity
  8
0 - Systemaufbauten
  6
Continuous
 62
     7
370
     0
100
AcDbLine
 10
1485.723377453555
 20
604.9526759600803
 30
0.0
 11
1486.383377300966
 21
605.100676081197
 31
0.0
  0
LINE
  5
23B
330
A3
100
AcDbEntity
  8
0 - Systemaufbauten
  6
Continuous
 62
     7
370
     0
100
AcDbLine
 10
1525.723377453555
 20
604.9526759600803
 30
0.0
 11
1526.383377300966
 21
605.100676081197
 31
0.0
  0
LINE
  5
23C
330
A3
100
AcDbEntity
  8
0 - Systemaufbauten
  6
Continuous
 62
     7
370
     0
100
AcDbLine
 10
1565.723377453555
 20
604.9526759600803
 30
0.0
 11
1566.383377300968
 21
605.1006760811961
 31
0.0
  0
LINE
  5
23D
330
A3
100
AcDbEntity
  8
0 - Systemaufbauten
  6
Continuous
 62
     7
370
     0
100
AcDbLine
 10
1605.723377453556
 20
604.9526759600803
 30
0.0
 11
1606.383377300969
 21
605.100676081197
 31
0.0
  0
LINE
  5
23E
330
A3
100
AcDbEntity
  8
0 - Systemaufbauten
  6
Continuous
 62
     7
370
     0
100
AcDbLine
 10
1645.723377453558
 20
604.9526759600803
 30
0.0
 11
1646.383377300969
 21
605.100676081197
 31
0.0
  0
LINE
  5
23F
330
A3
100
AcDbEntity
  8
0 - Systemaufbauten
  6
Continuous
 62
     7
370
     0
100
AcDbLine
 10
1685.723377453557
 20
604.9526759600803
 30
0.0
 11
1686.383377300969
 21
605.1006760811961
 31
0.0
  0
LINE
  5
240
330
A3
100
AcDbEntity
  8
0 - Systemaufbauten
  6
Continuous
 62
     7
370
     0
100
AcDbLine
 10
1725.723377453558
 20
604.9526759600803
 30
0.0
 11
1726.383377300971
 21
605.100676081197
 31
0.0
  0
LINE
  5
241
330
A3
100
AcDbEntity
  8
0 - Systemaufbauten
  6
Continuous
 62
     7
370
     0
100
AcDbLine
 10
1765.723377453558
 20
604.9526759600803
 30
0.0
 11
1766.383377300971
 21
605.100676081197
 31
0.0
  0
LINE
  5
242
330
A3
100
AcDbEntity
  8
0 - Systemaufbauten
  6
Continuous
 62
     7
370
     0
100
AcDbLine
 10
1805.723377453558
 20
604.9526759600803
 30
0.0
 11
1806.383377300971
 21
605.1006760811961
 31
0.0
  0
LINE
  5
243
330
A3
100
AcDbEntity
  8
0 - Systemaufbauten
  6
Continuous
 62
     7
370
     0
100
AcDbLine
 10
343.9313775174337
 20
598.9566759756372
 30
0.0
 11
344.1513776652532
 21
599.0286759650871
 31
0.0
  0
LINE
  5
244
330
A3
100
AcDbEntity
  8
0 - Systemaufbauten
  6
Continuous
 62
     7
370
     0
100
AcDbLine
 10
383.9313775174346
 20
598.9566759756372
 30
0.0
 11
384.1513776652541
 21
599.0286759650871
 31
0.0
  0
LINE
  5
245
330
A3
100
AcDbEntity
  8
0 - Systemaufbauten
  6
Continuous
 62
     7
370
     0
100
AcDbLine
 10
423.9313775174346
 20
598.9566759756372
 30
0.0
 11
424.1513776652541
 21
599.0286759650871
 31
0.0
  0
LINE
  5
246
330
A3
100
AcDbEntity
  8
0 - Systemaufbauten
  6
Continuous
 62
     7
370
     0
100
AcDbLine
 10
463.9313775174364
 20
598.9566759756372
 30
0.0
 11
464.1513776652559
 21
599.0286759650871
 31
0.0
  0
LINE
  5
247
330
A3
100
AcDbEntity
  8
0 - Systemaufbauten
  6
Continuous
 62
     7
370
     0
100
AcDbLine
 10
503.9313775174364
 20
598.9566759756372
 30
0.0
 11
504.1513776652559
 21
599.0286759650871
 31
0.0
  0
LINE
  5
248
330
A3
100
AcDbEntity
  8
0 - Systemaufbauten
  6
Continuous
 62
     7
370
     0
100
AcDbLine
 10
543.9313775174373
 20
598.9566759756372
 30
0.0
 11
544.1513776652569
 21
599.0286759650871
 31
0.0
  0
LINE
  5
249
330
A3
100
AcDbEntity
  8
0 - Systemaufbauten
  6
Continuous
 62
     7
370
     0
100
AcDbLine
 10
583.9313775174373
 20
598.9566759756372
 30
0.0
 11
584.1513776652569
 21
599.0286759650871
 31
0.0
  0
LINE
  5
24A
330
A3
100
AcDbEntity
  8
0 - Systemaufbauten
  6
Continuous
 62
     7
370
     0
100
AcDbLine
 10
623.9313775174373
 20
598.9566759756372
 30
0.0
 11
624.1513776652569
 21
599.0286759650871
 31
0.0
  0
LINE
  5
24B
330
A3
100
AcDbEntity
  8
0 - Systemaufbauten
  6
Continuous
 62
     7
370
     0
100
AcDbLine
 10
663.9313775174382
 20
598.9566759756372
 30
0.0
 11
664.1513776652587
 21
599.0286759650871
 31
0.0
  0
LINE
  5
24C
330
A3
100
AcDbEntity
  8
0 - Systemaufbauten
  6
Continuous
 62
     7
370
     0
100
AcDbLine
 10
703.9313775174382
 20
598.9566759756372
 30
0.0
 11
704.1513776652587
 21
599.0286759650871
 31
0.0
  0
LINE
  5
24D
330
A3
100
AcDbEntity
  8
0 - Systemaufbauten
  6
Continuous
 62
     7
370
     0
100
AcDbLine
 10
743.9313775174401
 20
598.9566759756372
 30
0.0
 11
744.1513776652596
 21
599.0286759650871
 31
0.0
  0
LINE
  5
24E
330
A3
100
AcDbEntity
  8
0 - Systemaufbauten
  6
Continuous
 62
     7
370
     0
100
AcDbLine
 10
783.931377517441
 20
598.9566759756372
 30
0.0
 11
784.1513776652605
 21
599.0286759650871
 31
0.0
  0
LINE
  5
24F
330
A3
100
AcDbEntity
  8
0 - Systemaufbauten
  6
Continuous
 62
     7
370
     0
100
AcDbLine
 10
823.931377517441
 20
598.9566759756372
 30
0.0
 11
824.1513776652605
 21
599.0286759650871
 31
0.0
  0
LINE
  5
250
330
A3
100
AcDbEntity
  8
0 - Systemaufbauten
  6
Continuous
 62
     7
370
     0
100
AcDbLine
 10
863.931377517441
 20
598.9566759756372
 30
0.0
 11
864.1513776652614
 21
599.0286759650871
 31
0.0
  0
LINE
  5
251
330
A3
100
AcDbEntity
  8
0 - Systemaufbauten
  6
Continuous
 62
     7
370
     0
100
AcDbLine
 10
903.9313775174428
 20
598.9566759756372
 30
0.0
 11
904.1513776652614
 21
599.0286759650871
 31
0.0
  0
LINE
  5
252
330
A3
100
AcDbEntity
  8
0 - Systemaufbauten
  6
Continuous
 62
     7
370
     0
100
AcDbLine
 10
943.9313775174419
 20
598.9566759756372
 30
0.0
 11
944.1513776652614
 21
599.0286759650871
 31
0.0
  0
LINE
  5
253
330
A3
100
AcDbEntity
  8
0 - Systemaufbauten
  6
Continuous
 62
     7
370
     0
100
AcDbLine
 10
983.9313775174419
 20
598.9566759756372
 30
0.0
 11
984.1513776652623
 21
599.0286759650871
 31
0.0
  0
LINE
  5
254
330
A3
100
AcDbEntity
  8
0 - Systemaufbauten
  6
Continuous
 62
     7
370
     0
100
AcDbLine
 10
1023.931377517444
 20
598.9566759756372
 30
0.0
 11
1024.151377665262
 21
599.0286759650871
 31
0.0
  0
LINE
  5
255
330
A3
100
AcDbEntity
  8
0 - Systemaufbauten
  6
Continuous
 62
     7
370
     0
100
AcDbLine
 10
1063.931377517445
 20
598.9566759756372
 30
0.0
 11
1064.151377665265
 21
599.0286759650871
 31
0.0
  0
LINE
  5
256
330
A3
100
AcDbEntity
  8
0 - Systemaufbauten
  6
Continuous
 62
     7
370
     0
100
AcDbLine
 10
1103.931377517446
 20
598.9566759756372
 30
0.0
 11
1104.151377665265
 21
599.0286759650871
 31
0.0
  0
LINE
  5
257
330
A3
100
AcDbEntity
  8
0 - Systemaufbauten
  6
Continuous
 62
     7
370
     0
100
AcDbLine
 10
1143.931377517446
 20
598.9566759756372
 30
0.0
 11
1144.151377665265
 21
599.0286759650871
 31
0.0
  0
LINE
  5
258
330
A3
100
AcDbEntity
  8
0 - Systemaufbauten
  6
Continuous
 62
     7
370
     0
100
AcDbLine
 10
1183.931377517446
 20
598.9566759756372
 30
0.0
 11
1184.151377665266
 21
599.0286759650871
 31
0.0
  0
LINE
  5
259
330
A3
100
AcDbEntity
  8
0 - Systemaufbauten
  6
Continuous
 62
     7
370
     0
100
AcDbLine
 10
1223.931377517446
 20
598.9566759756372
 30
0.0
 11
1224.151377665266
 21
599.0286759650871
 31
0.0
  0
LINE
  5
25A
330
A3
100
AcDbEntity
  8
0 - Systemaufbauten
  6
Continuous
 62
     7
370
     0
100
AcDbLine
 10
1263.931377517446
 20
598.9566759756372
 30
0.0
 11
1264.151377665266
 21
599.0286759650871
 31
0.0
  0
LINE
  5
25B
330
A3
100
AcDbEntity
  8
0 - Systemaufbauten
  6
Continuous
 62
     7
370
     0
100
AcDbLine
 10
1303.931377517447
 20
598.9566759756372
 30
0.0
 11
1304.151377665267
 21
599.0286759650871
 31
0.0
  0
LINE
  5
25C
330
A3
100
AcDbEntity
  8
0 - Systemaufbauten
  6
Continuous
 62
     7
370
     0
100
AcDbLine
 10
1343.931377517448
 20
598.9566759756372
 30
0.0
 11
1344.151377665269
 21
599.0286759650871
 31
0.0
  0
LINE
  5
25D
330
A3
100
AcDbEntity
  8
0 - Systemaufbauten
  6
Continuous
 62
     7
370
     0
100
AcDbLine
 10
1383.931377517449
 20
598.9566759756372
 30
0.0
 11
1384.151377665269
 21
599.0286759650871
 31
0.0
  0
LINE
  5
25E
330
A3
100
AcDbEntity
  8
0 - Systemaufbauten
  6
Continuous
 62
     7
370
     0
100
AcDbLine
 10
1423.931377517449
 20
598.9566759756372
 30
0.0
 11
1424.15137766527
 21
599.0286759650871
 31
0.0
  0
LINE
  5
25F
330
A3
100
AcDbEntity
  8
0 - Systemaufbauten
  6
Continuous
 62
     7
370
     0
100
AcDbLine
 10
1463.93137751745
 20
598.9566759756372
 30
0.0
 11
1464.15137766527
 21
599.0286759650871
 31
0.0
  0
LINE
  5
260
330
A3
100
AcDbEntity
  8
0 - Systemaufbauten
  6
Continuous
 62
     7
370
     0
100
AcDbLine
 10
1503.93137751745
 20
598.9566759756372
 30
0.0
 11
1504.15137766527
 21
599.0286759650871
 31
0.0
  0
LINE
  5
261
330
A3
100
AcDbEntity
  8
0 - Systemaufbauten
  6
Continuous
 62
     7
370
     0
100
AcDbLine
 10
1543.93137751745
 20
598.9566759756372
 30
0.0
 11
1544.151377665271
 21
599.0286759650871
 31
0.0
  0
LINE
  5
262
330
A3
100
AcDbEntity
  8
0 - Systemaufbauten
  6
Continuous
 62
     7
370
     0
100
AcDbLine
 10
1583.931377517451
 20
598.9566759756372
 30
0.0
 11
1584.151377665271
 21
599.0286759650871
 31
0.0
  0
LINE
  5
263
330
A3
100
AcDbEntity
  8
0 - Systemaufbauten
  6
Continuous
 62
     7
370
     0
100
AcDbLine
 10
1623.931377517453
 20
598.9566759756372
 30
0.0
 11
1624.151377665272
 21
599.0286759650871
 31
0.0
  0
LINE
  5
264
330
A3
100
AcDbEntity
  8
0 - Systemaufbauten
  6
Continuous
 62
     7
370
     0
100
AcDbLine
 10
1663.931377517453
 20
598.9566759756372
 30
0.0
 11
1664.151377665272
 21
599.0286759650871
 31
0.0
  0
LINE
  5
265
330
A3
100
AcDbEntity
  8
0 - Systemaufbauten
  6
Continuous
 62
     7
370
     0
100
AcDbLine
 10
1703.931377517453
 20
598.9566759756372
 30
0.0
 11
1704.151377665273
 21
599.0286759650871
 31
0.0
  0
LINE
  5
266
330
A3
100
AcDbEntity
  8
0 - Systemaufbauten
  6
Continuous
 62
     7
370
     0
100
AcDbLine
 10
1743.931377517455
 20
598.9566759756372
 30
0.0
 11
1744.151377665274
 21
599.0286759650871
 31
0.0
  0
LINE
  5
267
330
A3
100
AcDbEntity
  8
0 - Systemaufbauten
  6
Continuous
 62
     7
370
     0
100
AcDbLine
 10
1783.931377517455
 20
598.9566759756372
 30
0.0
 11
1784.151377665274
 21
599.0286759650871
 31
0.0
  0
LINE
  5
268
330
A3
100
AcDbEntity
  8
0 - Systemaufbauten
  6
Continuous
 62
     7
370
     0
100
AcDbLine
 10
1823.931377517455
 20
598.9566759756372
 30
0.0
 11
1824.151377665274
 21
599.0286759650871
 31
0.0
  0
LINE
  5
269
330
A3
100
AcDbEntity
  8
0 - Systemaufbauten
  6
Continuous
 62
     7
370
     0
100
AcDbLine
 10
365.3553783766943
 20
605.4686757540876
 30
0.0
 11
366.0913765303817
 21
605.7606759286091
 31
0.0
  0
LINE
  5
26A
330
A3
100
AcDbEntity
  8
0 - Systemaufbauten
  6
Continuous
 62
     7
370
     0
100
AcDbLine
 10
405.3553783766952
 20
605.4686757540858
 30
0.0
 11
406.0913765303826
 21
605.7606759286082
 31
0.0
  0
LINE
  5
26B
330
A3
100
AcDbEntity
  8
0 - Systemaufbauten
  6
Continuous
 62
     7
370
     0
100
AcDbLine
 10
445.355378376697
 20
605.4686757540876
 30
0.0
 11
446.0913765303826
 21
605.7606759286091
 31
0.0
  0
LINE
  5
26C
330
A3
100
AcDbEntity
  8
0 - Systemaufbauten
  6
Continuous
 62
     7
370
     0
100
AcDbLine
 10
485.355378376697
 20
605.4686757540858
 30
0.0
 11
486.0913765303835
 21
605.7606759286082
 31
0.0
  0
LINE
  5
26D
330
A3
100
AcDbEntity
  8
0 - Systemaufbauten
  6
Continuous
 62
     7
370
     0
100
AcDbLine
 10
525.355378376697
 20
605.4686757540876
 30
0.0
 11
526.0913765303835
 21
605.7606759286091
 31
0.0
  0
LINE
  5
26E
330
A3
100
AcDbEntity
  8
0 - Systemaufbauten
  6
Continuous
 62
     7
370
     0
100
AcDbLine
 10
565.3553783766979
 20
605.4686757540858
 30
0.0
 11
566.0913765303844
 21
605.7606759286082
 31
0.0
  0
LINE
  5
26F
330
A3
100
AcDbEntity
  8
0 - Systemaufbauten
  6
Continuous
 62
     7
370
     0
100
AcDbLine
 10
605.3553783766997
 20
605.4686757540858
 30
0.0
 11
606.0913765303853
 21
605.7606759286082
 31
0.0
  0
LINE
  5
270
330
A3
100
AcDbEntity
  8
0 - Systemaufbauten
  6
Continuous
 62
     7
370
     0
100
AcDbLine
 10
645.3553783766979
 20
605.4686757540858
 30
0.0
 11
646.0913765303853
 21
605.7606759286082
 31
0.0
  0
LINE
  5
271
330
A3
100
AcDbEntity
  8
0 - Systemaufbauten
  6
Continuous
 62
     7
370
     0
100
AcDbLine
 10
685.3553783766997
 20
605.4686757540858
 30
0.0
 11
686.0913765303862
 21
605.7606759286082
 31
0.0
  0
LINE
  5
272
330
A3
100
AcDbEntity
  8
0 - Systemaufbauten
  6
Continuous
 62
     7
370
     0
100
AcDbLine
 10
725.3553783767006
 20
605.4686757540876
 30
0.0
 11
726.0913765303862
 21
605.7606759286091
 31
0.0
  0
LINE
  5
273
330
A3
100
AcDbEntity
  8
0 - Systemaufbauten
  6
Continuous
 62
     7
370
     0
100
AcDbLine
 10
765.3553783767006
 20
605.4686757540858
 30
0.0
 11
766.0913765303872
 21
605.7606759286082
 31
0.0
  0
LINE
  5
274
330
A3
100
AcDbEntity
  8
0 - Systemaufbauten
  6
Continuous
 62
     7
370
     0
100
AcDbLine
 10
805.3553783767015
 20
605.4686757540876
 30
0.0
 11
806.0913765303881
 21
605.7606759286091
 31
0.0
  0
LINE
  5
275
330
A3
100
AcDbEntity
  8
0 - Systemaufbauten
  6
Continuous
 62
     7
370
     0
100
AcDbLine
 10
845.3553783767015
 20
605.4686757540858
 30
0.0
 11
846.0913765303881
 21
605.7606759286082
 31
0.0
  0
LINE
  5
276
330
A3
100
AcDbEntity
  8
0 - Systemaufbauten
  6
Continuous
 62
     7
370
     0
100
AcDbLine
 10
885.3553783767024
 20
605.4686757540858
 30
0.0
 11
886.0913765303881
 21
605.7606759286082
 31
0.0
  0
LINE
  5
277
330
A3
100
AcDbEntity
  8
0 - Systemaufbauten
  6
Continuous
 62
     7
370
     0
100
AcDbLine
 10
925.3553783767024
 20
605.4686757540858
 30
0.0
 11
926.091376530389
 21
605.7606759286082
 31
0.0
  0
LINE
  5
278
330
A3
100
AcDbEntity
  8
0 - Systemaufbauten
  6
Continuous
 62
     7
370
     0
100
AcDbLine
 10
965.3553783767034
 20
605.4686757540858
 30
0.0
 11
966.091376530389
 21
605.7606759286082
 31
0.0
  0
LINE
  5
279
330
A3
100
AcDbEntity
  8
0 - Systemaufbauten
  6
Continuous
 62
     7
370
     0
100
AcDbLine
 10
1005.355378376704
 20
605.4686757540876
 30
0.0
 11
1006.091376530391
 21
605.7606759286091
 31
0.0
  0
LINE
  5
27A
330
A3
100
AcDbEntity
  8
0 - Systemaufbauten
  6
Continuous
 62
     7
370
     0
100
AcDbLine
 10
1045.355378376704
 20
605.4686757540858
 30
0.0
 11
1046.091376530392
 21
605.7606759286082
 31
0.0
  0
LINE
  5
27B
330
A3
100
AcDbEntity
  8
0 - Systemaufbauten
  6
Continuous
 62
     7
370
     0
100
AcDbLine
 10
1085.355378376705
 20
605.4686757540858
 30
0.0
 11
1086.091376530392
 21
605.7606759286082
 31
0.0
  0
LINE
  5
27C
330
A3
100
AcDbEntity
  8
0 - Systemaufbauten
  6
Continuous
 62
     7
370
     0
100
AcDbLine
 10
1125.355378376706
 20
605.4686757540858
 30
0.0
 11
1126.091376530393
 21
605.7606759286082
 31
0.0
  0
LINE
  5
27D
330
A3
100
AcDbEntity
  8
0 - Systemaufbauten
  6
Continuous
 62
     7
370
     0
100
AcDbLine
 10
1165.355378376706
 20
605.4686757540858
 30
0.0
 11
1166.091376530393
 21
605.7606759286082
 31
0.0
  0
LINE
  5
27E
330
A3
100
AcDbEntity
  8
0 - Systemaufbauten
  6
Continuous
 62
     7
370
     0
100
AcDbLine
 10
1205.355378376706
 20
605.4686757540858
 30
0.0
 11
1206.091376530394
 21
605.7606759286082
 31
0.0
  0
LINE
  5
27F
330
A3
100
AcDbEntity
  8
0 - Systemaufbauten
  6
Continuous
 62
     7
370
     0
100
AcDbLine
 10
1245.355378376707
 20
605.4686757540858
 30
0.0
 11
1246.091376530394
 21
605.7606759286082
 31
0.0
  0
LINE
  5
280
330
A3
100
AcDbEntity
  8
0 - Systemaufbauten
  6
Continuous
 62
     7
370
     0
100
AcDbLine
 10
1285.355378376709
 20
605.4686757540876
 30
0.0
 11
1286.091376530394
 21
605.7606759286091
 31
0.0
  0
LINE
  5
281
330
A3
100
AcDbEntity
  8
0 - Systemaufbauten
  6
Continuous
 62
     7
370
     0
100
AcDbLine
 10
1325.355378376709
 20
605.4686757540858
 30
0.0
 11
1326.091376530395
 21
605.7606759286082
 31
0.0
  0
LINE
  5
282
330
A3
100
AcDbEntity
  8
0 - Systemaufbauten
  6
Continuous
 62
     7
370
     0
100
AcDbLine
 10
1365.355378376709
 20
605.4686757540876
 30
0.0
 11
1366.091376530395
 21
605.7606759286091
 31
0.0
  0
LINE
  5
283
330
A3
100
AcDbEntity
  8
0 - Systemaufbauten
  6
Continuous
 62
     7
370
     0
100
AcDbLine
 10
1405.35537837671
 20
605.4686757540858
 30
0.0
 11
1406.091376530396
 21
605.7606759286082
 31
0.0
  0
LINE
  5
284
330
A3
100
AcDbEntity
  8
0 - Systemaufbauten
  6
Continuous
 62
     7
370
     0
100
AcDbLine
 10
1445.35537837671
 20
605.4686757540858
 30
0.0
 11
1446.091376530397
 21
605.7606759286082
 31
0.0
  0
LINE
  5
285
330
A3
100
AcDbEntity
  8
0 - Systemaufbauten
  6
Continuous
 62
     7
370
     0
100
AcDbLine
 10
1485.35537837671
 20
605.4686757540876
 30
0.0
 11
1486.091376530397
 21
605.7606759286082
 31
0.0
  0
LINE
  5
286
330
A3
100
AcDbEntity
  8
0 - Systemaufbauten
  6
Continuous
 62
     7
370
     0
100
AcDbLine
 10
1525.355378376712
 20
605.4686757540858
 30
0.0
 11
1526.091376530397
 21
605.7606759286082
 31
0.0
  0
LINE
  5
287
330
A3
100
AcDbEntity
  8
0 - Systemaufbauten
  6
Continuous
 62
     7
370
     0
100
AcDbLine
 10
1565.355378376712
 20
605.4686757540876
 30
0.0
 11
1566.091376530398
 21
605.7606759286091
 31
0.0
  0
LINE
  5
288
330
A3
100
AcDbEntity
  8
0 - Systemaufbauten
  6
Continuous
 62
     7
370
     0
100
AcDbLine
 10
1605.355378376712
 20
605.4686757540858
 30
0.0
 11
1606.0913765304
 21
605.7606759286082
 31
0.0
  0
LINE
  5
289
330
A3
100
AcDbEntity
  8
0 - Systemaufbauten
  6
Continuous
 62
     7
370
     0
100
AcDbLine
 10
1645.355378376713
 20
605.4686757540858
 30
0.0
 11
1646.0913765304
 21
605.7606759286082
 31
0.0
  0
LINE
  5
28A
330
A3
100
AcDbEntity
  8
0 - Systemaufbauten
  6
Continuous
 62
     7
370
     0
100
AcDbLine
 10
1685.355378376713
 20
605.4686757540858
 30
0.0
 11
1686.0913765304
 21
605.7606759286082
 31
0.0
  0
LINE
  5
28B
330
A3
100
AcDbEntity
  8
0 - Systemaufbauten
  6
Continuous
 62
     7
370
     0
100
AcDbLine
 10
1725.355378376714
 20
605.4686757540858
 30
0.0
 11
1726.091376530401
 21
605.7606759286082
 31
0.0
  0
LINE
  5
28C
330
A3
100
AcDbEntity
  8
0 - Systemaufbauten
  6
Continuous
 62
     7
370
     0
100
AcDbLine
 10
1765.355378376715
 20
605.4686757540858
 30
0.0
 11
1766.091376530401
 21
605.7606759286091
 31
0.0
  0
LINE
  5
28D
330
A3
100
AcDbEntity
  8
0 - Systemaufbauten
  6
Continuous
 62
     7
370
     0
100
AcDbLine
 10
1805.355378376715
 20
605.4686757540858
 30
0.0
 11
1806.091376530401
 21
605.7606759286082
 31
0.0
  0
LINE
  5
28E
330
A3
100
AcDbEntity
  8
0 - Systemaufbauten
  6
Continuous
 62
     7
370
     0
100
AcDbLine
 10
352.7193772666183
 20
607.3566761231586
 30
0.0
 11
353.0873775355544
 21
607.5046762442744
 31
0.0
  0
LINE
  5
28F
330
A3
100
AcDbEntity
  8
0 - Systemaufbauten
  6
Continuous
 62
     7
370
     0
100
AcDbLine
 10
392.7193772666183
 20
607.3566761231586
 30
0.0
 11
393.0873775355544
 21
607.5046762442744
 31
0.0
  0
LINE
  5
290
330
A3
100
AcDbEntity
  8
0 - Systemaufbauten
  6
Continuous
 62
     7
370
     0
100
AcDbLine
 10
432.7193772666192
 20
607.3566761231586
 30
0.0
 11
433.0873775355553
 21
607.5046762442744
 31
0.0
  0
LINE
  5
291
330
A3
100
AcDbEntity
  8
0 - Systemaufbauten
  6
Continuous
 62
     7
370
     0
100
AcDbLine
 10
472.7193772666192
 20
607.3566761231586
 30
0.0
 11
473.0873775355553
 21
607.5046762442744
 31
0.0
  0
LINE
  5
292
330
A3
100
AcDbEntity
  8
0 - Systemaufbauten
  6
Continuous
 62
     7
370
     0
100
AcDbLine
 10
512.719377266621
 20
607.3566761231586
 30
0.0
 11
513.0873775355562
 21
607.5046762442744
 31
0.0
  0
LINE
  5
293
330
A3
100
AcDbEntity
  8
0 - Systemaufbauten
  6
Continuous
 62
     7
370
     0
100
AcDbLine
 10
552.7193772666201
 20
607.3566761231586
 30
0.0
 11
553.0873775355581
 21
607.5046762442744
 31
0.0
  0
LINE
  5
294
330
A3
100
AcDbEntity
  8
0 - Systemaufbauten
  6
Continuous
 62
     7
370
     0
100
AcDbLine
 10
592.719377266621
 20
607.3566761231586
 30
0.0
 11
593.0873775355572
 21
607.5046762442744
 31
0.0
  0
LINE
  5
295
330
A3
100
AcDbEntity
  8
0 - Systemaufbauten
  6
Continuous
 62
     7
370
     0
100
AcDbLine
 10
632.7193772666219
 20
607.3566761231586
 30
0.0
 11
633.0873775355572
 21
607.5046762442744
 31
0.0
  0
LINE
  5
296
330
A3
100
AcDbEntity
  8
0 - Systemaufbauten
  6
Continuous
 62
     7
370
     0
100
AcDbLine
 10
672.7193772666219
 20
607.3566761231586
 30
0.0
 11
673.087377535559
 21
607.5046762442744
 31
0.0
  0
LINE
  5
297
330
A3
100
AcDbEntity
  8
0 - Systemaufbauten
  6
Continuous
 62
     7
370
     0
100
AcDbLine
 10
712.7193772666219
 20
607.3566761231586
 30
0.0
 11
713.087377535559
 21
607.5046762442744
 31
0.0
  0
LINE
  5
298
330
A3
100
AcDbEntity
  8
0 - Systemaufbauten
  6
Continuous
 62
     7
370
     0
100
AcDbLine
 10
752.7193772666237
 20
607.3566761231586
 30
0.0
 11
753.087377535559
 21
607.5046762442744
 31
0.0
  0
LINE
  5
299
330
A3
100
AcDbEntity
  8
0 - Systemaufbauten
  6
Continuous
 62
     7
370
     0
100
AcDbLine
 10
792.7193772666246
 20
607.3566761231586
 30
0.0
 11
793.0873775355608
 21
607.5046762442744
 31
0.0
  0
LINE
  5
29A
330
A3
100
AcDbEntity
  8
0 - Systemaufbauten
  6
Continuous
 62
     7
370
     0
100
AcDbLine
 10
832.7193772666246
 20
607.3566761231586
 30
0.0
 11
833.0873775355617
 21
607.5046762442744
 31
0.0
  0
LINE
  5
29B
330
A3
100
AcDbEntity
  8
0 - Systemaufbauten
  6
Continuous
 62
     7
370
     0
100
AcDbLine
 10
872.7193772666255
 20
607.3566761231586
 30
0.0
 11
873.0873775355617
 21
607.5046762442744
 31
0.0
  0
LINE
  5
29C
330
A3
100
AcDbEntity
  8
0 - Systemaufbauten
  6
Continuous
 62
     7
370
     0
100
AcDbLine
 10
912.7193772666255
 20
607.3566761231586
 30
0.0
 11
913.0873775355617
 21
607.5046762442744
 31
0.0
  0
LINE
  5
29D
330
A3
100
AcDbEntity
  8
0 - Systemaufbauten
  6
Continuous
 62
     7
370
     0
100
AcDbLine
 10
952.7193772666265
 20
607.3566761231586
 30
0.0
 11
953.0873775355626
 21
607.5046762442744
 31
0.0
  0
LINE
  5
29E
330
A3
100
AcDbEntity
  8
0 - Systemaufbauten
  6
Continuous
 62
     7
370
     0
100
AcDbLine
 10
992.7193772666265
 20
607.3566761231586
 30
0.0
 11
993.0873775355626
 21
607.5046762442744
 31
0.0
  0
LINE
  5
29F
330
A3
100
AcDbEntity
  8
0 - Systemaufbauten
  6
Continuous
 62
     7
370
     0
100
AcDbLine
 10
1032.719377266627
 20
607.3566761231586
 30
0.0
 11
1033.087377535564
 21
607.5046762442744
 31
0.0
  0
LINE
  5
2A0
330
A3
100
AcDbEntity
  8
0 - Systemaufbauten
  6
Continuous
 62
     7
370
     0
100
AcDbLine
 10
1072.719377266628
 20
607.3566761231586
 30
0.0
 11
1073.087377535564
 21
607.5046762442744
 31
0.0
  0
LINE
  5
2A1
330
A3
100
AcDbEntity
  8
0 - Systemaufbauten
  6
Continuous
 62
     7
370
     0
100
AcDbLine
 10
1112.719377266628
 20
607.3566761231586
 30
0.0
 11
1113.087377535564
 21
607.5046762442744
 31
0.0
  0
LINE
  5
2A2
330
A3
100
AcDbEntity
  8
0 - Systemaufbauten
  6
Continuous
 62
     7
370
     0
100
AcDbLine
 10
1152.71937726663
 20
607.3566761231586
 30
0.0
 11
1153.087377535565
 21
607.5046762442744
 31
0.0
  0
LINE
  5
2A3
330
A3
100
AcDbEntity
  8
0 - Systemaufbauten
  6
Continuous
 62
     7
370
     0
100
AcDbLine
 10
1192.719377266629
 20
607.3566761231586
 30
0.0
 11
1193.087377535565
 21
607.5046762442744
 31
0.0
  0
LINE
  5
2A4
330
A3
100
AcDbEntity
  8
0 - Systemaufbauten
  6
Continuous
 62
     7
370
     0
100
AcDbLine
 10
1232.71937726663
 20
607.3566761231586
 30
0.0
 11
1233.087377535566
 21
607.5046762442744
 31
0.0
  0
LINE
  5
2A5
330
A3
100
AcDbEntity
  8
0 - Systemaufbauten
  6
Continuous
 62
     7
370
     0
100
AcDbLine
 10
1272.719377266631
 20
607.3566761231586
 30
0.0
 11
1273.087377535566
 21
607.5046762442744
 31
0.0
  0
LINE
  5
2A6
330
A3
100
AcDbEntity
  8
0 - Systemaufbauten
  6
Continuous
 62
     7
370
     0
100
AcDbLine
 10
1312.719377266631
 20
607.3566761231586
 30
0.0
 11
1313.087377535568
 21
607.5046762442744
 31
0.0
  0
LINE
  5
2A7
330
A3
100
AcDbEntity
  8
0 - Systemaufbauten
  6
Continuous
 62
     7
370
     0
100
AcDbLine
 10
1352.719377266631
 20
607.3566761231586
 30
0.0
 11
1353.087377535568
 21
607.5046762442744
 31
0.0
  0
LINE
  5
2A8
330
A3
100
AcDbEntity
  8
0 - Systemaufbauten
  6
Continuous
 62
     7
370
     0
100
AcDbLine
 10
1392.719377266633
 20
607.3566761231586
 30
0.0
 11
1393.087377535568
 21
607.5046762442744
 31
0.0
  0
LINE
  5
2A9
330
A3
100
AcDbEntity
  8
0 - Systemaufbauten
  6
Continuous
 62
     7
370
     0
100
AcDbLine
 10
1432.719377266634
 20
607.3566761231586
 30
0.0
 11
1433.08737753557
 21
607.5046762442744
 31
0.0
  0
LINE
  5
2AA
330
A3
100
AcDbEntity
  8
0 - Systemaufbauten
  6
Continuous
 62
     7
370
     0
100
AcDbLine
 10
1472.719377266634
 20
607.3566761231586
 30
0.0
 11
1473.087377535571
 21
607.5046762442744
 31
0.0
  0
LINE
  5
2AB
330
A3
100
AcDbEntity
  8
0 - Systemaufbauten
  6
Continuous
 62
     7
370
     0
100
AcDbLine
 10
1512.719377266635
 20
607.3566761231586
 30
0.0
 11
1513.087377535571
 21
607.5046762442744
 31
0.0
  0
LINE
  5
2AC
330
A3
100
AcDbEntity
  8
0 - Systemaufbauten
  6
Continuous
 62
     7
370
     0
100
AcDbLine
 10
1552.719377266635
 20
607.3566761231586
 30
0.0
 11
1553.087377535571
 21
607.5046762442744
 31
0.0
  0
LINE
  5
2AD
330
A3
100
AcDbEntity
  8
0 - Systemaufbauten
  6
Continuous
 62
     7
370
     0
100
AcDbLine
 10
1592.719377266636
 20
607.3566761231586
 30
0.0
 11
1593.087377535572
 21
607.5046762442744
 31
0.0
  0
LINE
  5
2AE
330
A3
100
AcDbEntity
  8
0 - Systemaufbauten
  6
Continuous
 62
     7
370
     0
100
AcDbLine
 10
1632.719377266636
 20
607.3566761231586
 30
0.0
 11
1633.087377535573
 21
607.5046762442744
 31
0.0
  0
LINE
  5
2AF
330
A3
100
AcDbEntity
  8
0 - Systemaufbauten
  6
Continuous
 62
     7
370
     0
100
AcDbLine
 10
1672.719377266636
 20
607.3566761231586
 30
0.0
 11
1673.087377535573
 21
607.5046762442744
 31
0.0
  0
LINE
  5
2B0
330
A3
100
AcDbEntity
  8
0 - Systemaufbauten
  6
Continuous
 62
     7
370
     0
100
AcDbLine
 10
1712.719377266637
 20
607.3566761231586
 30
0.0
 11
1713.087377535574
 21
607.5046762442744
 31
0.0
  0
LINE
  5
2B1
330
A3
100
AcDbEntity
  8
0 - Systemaufbauten
  6
Continuous
 62
     7
370
     0
100
AcDbLine
 10
1752.719377266637
 20
607.3566761231586
 30
0.0
 11
1753.087377535574
 21
607.5046762442744
 31
0.0
  0
LINE
  5
2B2
330
A3
100
AcDbEntity
  8
0 - Systemaufbauten
  6
Continuous
 62
     7
370
     0
100
AcDbLine
 10
1792.719377266638
 20
607.3566761231586
 30
0.0
 11
1793.087377535574
 21
607.5046762442744
 31
0.0
  0
LINE
  5
2B3
330
A3
100
AcDbEntity
  8
0 - Systemaufbauten
  6
Continuous
 62
     7
370
     0
100
AcDbLine
 10
1832.719377266638
 20
607.3566761231586
 30
0.0
 11
1833.087377535575
 21
607.5046762442744
 31
0.0
  0
LINE
  5
2B4
330
A3
100
AcDbEntity
  8
0 - Systemaufbauten
  6
Continuous
 62
     7
370
     0
100
AcDbLine
 10
338.9433777205672
 20
606.9886758542216
 30
0.0
 11
339.4593775145736
 21
607.4286761498606
 31
0.0
  0
LINE
  5
2B5
330
A3
100
AcDbEntity
  8
0 - Systemaufbauten
  6
Continuous
 62
     7
370
     0
100
AcDbLine
 10
378.9433777205672
 20
606.9886758542216
 30
0.0
 11
379.4593775145736
 21
607.4286761498606
 31
0.0
  0
LINE
  5
2B6
330
A3
100
AcDbEntity
  8
0 - Systemaufbauten
  6
Continuous
 62
     7
370
     0
100
AcDbLine
 10
418.9433777205672
 20
606.9886758542216
 30
0.0
 11
419.4593775145745
 21
607.4286761498606
 31
0.0
  0
LINE
  5
2B7
330
A3
100
AcDbEntity
  8
0 - Systemaufbauten
  6
Continuous
 62
     7
370
     0
100
AcDbLine
 10
458.9433777205682
 20
606.9886758542216
 30
0.0
 11
459.4593775145754
 21
607.4286761498606
 31
0.0
  0
LINE
  5
2B8
330
A3
100
AcDbEntity
  8
0 - Systemaufbauten
  6
Continuous
 62
     7
370
     0
100
AcDbLine
 10
498.9433777205691
 20
606.9886758542216
 30
0.0
 11
499.4593775145754
 21
607.4286761498606
 31
0.0
  0
LINE
  5
2B9
330
A3
100
AcDbEntity
  8
0 - Systemaufbauten
  6
Continuous
 62
     7
370
     0
100
AcDbLine
 10
538.9433777205691
 20
606.9886758542216
 30
0.0
 11
539.4593775145754
 21
607.4286761498606
 31
0.0
  0
LINE
  5
2BA
330
A3
100
AcDbEntity
  8
0 - Systemaufbauten
  6
Continuous
 62
     7
370
     0
100
AcDbLine
 10
578.9433777205691
 20
606.9886758542216
 30
0.0
 11
579.4593775145763
 21
607.4286761498606
 31
0.0
  0
LINE
  5
2BB
330
A3
100
AcDbEntity
  8
0 - Systemaufbauten
  6
Continuous
 62
     7
370
     0
100
AcDbLine
 10
618.9433777205718
 20
606.9886758542216
 30
0.0
 11
619.4593775145772
 21
607.4286761498606
 31
0.0
  0
LINE
  5
2BC
330
A3
100
AcDbEntity
  8
0 - Systemaufbauten
  6
Continuous
 62
     7
370
     0
100
AcDbLine
 10
658.9433777205718
 20
606.9886758542216
 30
0.0
 11
659.4593775145772
 21
607.4286761498606
 31
0.0
  0
LINE
  5
2BD
330
A3
100
AcDbEntity
  8
0 - Systemaufbauten
  6
Continuous
 62
     7
370
     0
100
AcDbLine
 10
698.9433777205718
 20
606.9886758542216
 30
0.0
 11
699.4593775145781
 21
607.4286761498606
 31
0.0
  0
LINE
  5
2BE
330
A3
100
AcDbEntity
  8
0 - Systemaufbauten
  6
Continuous
 62
     7
370
     0
100
AcDbLine
 10
738.9433777205727
 20
606.9886758542216
 30
0.0
 11
739.45937751458
 21
607.4286761498606
 31
0.0
  0
LINE
  5
2BF
330
A3
100
AcDbEntity
  8
0 - Systemaufbauten
  6
Continuous
 62
     7
370
     0
100
AcDbLine
 10
778.9433777205736
 20
606.9886758542216
 30
0.0
 11
779.45937751458
 21
607.4286761498606
 31
0.0
  0
LINE
  5
2C0
330
A3
100
AcDbEntity
  8
0 - Systemaufbauten
  6
Continuous
 62
     7
370
     0
100
AcDbLine
 10
818.9433777205736
 20
606.9886758542216
 30
0.0
 11
819.459377514579
 21
607.4286761498606
 31
0.0
  0
LINE
  5
2C1
330
A3
100
AcDbEntity
  8
0 - Systemaufbauten
  6
Continuous
 62
     7
370
     0
100
AcDbLine
 10
858.9433777205736
 20
606.9886758542216
 30
0.0
 11
859.4593775145809
 21
607.4286761498606
 31
0.0
  0
LINE
  5
2C2
330
A3
100
AcDbEntity
  8
0 - Systemaufbauten
  6
Continuous
 62
     7
370
     0
100
AcDbLine
 10
898.9433777205745
 20
606.9886758542216
 30
0.0
 11
899.4593775145809
 21
607.4286761498606
 31
0.0
  0
LINE
  5
2C3
330
A3
100
AcDbEntity
  8
0 - Systemaufbauten
  6
Continuous
 62
     7
370
     0
100
AcDbLine
 10
938.9433777205754
 20
606.9886758542216
 30
0.0
 11
939.4593775145809
 21
607.4286761498606
 31
0.0
  0
LINE
  5
2C4
330
A3
100
AcDbEntity
  8
0 - Systemaufbauten
  6
Continuous
 62
     7
370
     0
100
AcDbLine
 10
978.9433777205754
 20
606.9886758542216
 30
0.0
 11
979.4593775145818
 21
607.4286761498606
 31
0.0
  0
LINE
  5
2C5
330
A3
100
AcDbEntity
  8
0 - Systemaufbauten
  6
Continuous
 62
     7
370
     0
100
AcDbLine
 10
1018.943377720576
 20
606.9886758542216
 30
0.0
 11
1019.459377514583
 21
607.4286761498606
 31
0.0
  0
LINE
  5
2C6
330
A3
100
AcDbEntity
  8
0 - Systemaufbauten
  6
Continuous
 62
     7
370
     0
100
AcDbLine
 10
1058.943377720577
 20
606.9886758542216
 30
0.0
 11
1059.459377514584
 21
607.4286761498606
 31
0.0
  0
LINE
  5
2C7
330
A3
100
AcDbEntity
  8
0 - Systemaufbauten
  6
Continuous
 62
     7
370
     0
100
AcDbLine
 10
1098.943377720577
 20
606.9886758542216
 30
0.0
 11
1099.459377514585
 21
607.4286761498606
 31
0.0
  0
LINE
  5
2C8
330
A3
100
AcDbEntity
  8
0 - Systemaufbauten
  6
Continuous
 62
     7
370
     0
100
AcDbLine
 10
1138.943377720578
 20
606.9886758542216
 30
0.0
 11
1139.459377514585
 21
607.4286761498606
 31
0.0
  0
LINE
  5
2C9
330
A3
100
AcDbEntity
  8
0 - Systemaufbauten
  6
Continuous
 62
     7
370
     0
100
AcDbLine
 10
1178.943377720578
 20
606.9886758542216
 30
0.0
 11
1179.459377514585
 21
607.4286761498606
 31
0.0
  0
LINE
  5
2CA
330
A3
100
AcDbEntity
  8
0 - Systemaufbauten
  6
Continuous
 62
     7
370
     0
100
AcDbLine
 10
1218.94337772058
 20
606.9886758542216
 30
0.0
 11
1219.459377514585
 21
607.4286761498606
 31
0.0
  0
LINE
  5
2CB
330
A3
100
AcDbEntity
  8
0 - Systemaufbauten
  6
Continuous
 62
     7
370
     0
100
AcDbLine
 10
1258.943377720579
 20
606.9886758542216
 30
0.0
 11
1259.459377514585
 21
607.4286761498606
 31
0.0
  0
LINE
  5
2CC
330
A3
100
AcDbEntity
  8
0 - Systemaufbauten
  6
Continuous
 62
     7
370
     0
100
AcDbLine
 10
1298.943377720581
 20
606.9886758542216
 30
0.0
 11
1299.459377514586
 21
607.4286761498606
 31
0.0
  0
LINE
  5
2CD
330
A3
100
AcDbEntity
  8
0 - Systemaufbauten
  6
Continuous
 62
     7
370
     0
100
AcDbLine
 10
1338.943377720581
 20
606.9886758542216
 30
0.0
 11
1339.459377514587
 21
607.4286761498606
 31
0.0
  0
LINE
  5
2CE
330
A3
100
AcDbEntity
  8
0 - Systemaufbauten
  6
Continuous
 62
     7
370
     0
100
AcDbLine
 10
1378.943377720581
 20
606.9886758542216
 30
0.0
 11
1379.459377514588
 21
607.4286761498606
 31
0.0
  0
LINE
  5
2CF
330
A3
100
AcDbEntity
  8
0 - Systemaufbauten
  6
Continuous
 62
     7
370
     0
100
AcDbLine
 10
1418.943377720582
 20
606.9886758542216
 30
0.0
 11
1419.459377514589
 21
607.4286761498606
 31
0.0
  0
LINE
  5
2D0
330
A3
100
AcDbEntity
  8
0 - Systemaufbauten
  6
Continuous
 62
     7
370
     0
100
AcDbLine
 10
1458.943377720583
 20
606.9886758542216
 30
0.0
 11
1459.459377514589
 21
607.4286761498606
 31
0.0
  0
LINE
  5
2D1
330
A3
100
AcDbEntity
  8
0 - Systemaufbauten
  6
Continuous
 62
     7
370
     0
100
AcDbLine
 10
1498.943377720584
 20
606.9886758542216
 30
0.0
 11
1499.45937751459
 21
607.4286761498597
 31
0.0
  0
LINE
  5
2D2
330
A3
100
AcDbEntity
  8
0 - Systemaufbauten
  6
Continuous
 62
     7
370
     0
100
AcDbLine
 10
1538.943377720584
 20
606.9886758542216
 30
0.0
 11
1539.45937751459
 21
607.4286761498597
 31
0.0
  0
LINE
  5
2D3
330
A3
100
AcDbEntity
  8
0 - Systemaufbauten
  6
Continuous
 62
     7
370
     0
100
AcDbLine
 10
1578.943377720585
 20
606.9886758542216
 30
0.0
 11
1579.45937751459
 21
607.4286761498606
 31
0.0
  0
LINE
  5
2D4
330
A3
100
AcDbEntity
  8
0 - Systemaufbauten
  6
Continuous
 62
     7
370
     0
100
AcDbLine
 10
1618.943377720585
 20
606.9886758542216
 30
0.0
 11
1619.459377514592
 21
607.4286761498597
 31
0.0
  0
LINE
  5
2D5
330
A3
100
AcDbEntity
  8
0 - Systemaufbauten
  6
Continuous
 62
     7
370
     0
100
AcDbLine
 10
1658.943377720585
 20
606.9886758542216
 30
0.0
 11
1659.459377514593
 21
607.4286761498606
 31
0.0
  0
LINE
  5
2D6
330
A3
100
AcDbEntity
  8
0 - Systemaufbauten
  6
Continuous
 62
     7
370
     0
100
AcDbLine
 10
1698.943377720585
 20
606.9886758542234
 30
0.0
 11
1699.459377514593
 21
607.4286761498606
 31
0.0
  0
LINE
  5
2D7
330
A3
100
AcDbEntity
  8
0 - Systemaufbauten
  6
Continuous
 62
     7
370
     0
100
AcDbLine
 10
1738.943377720586
 20
606.9886758542216
 30
0.0
 11
1739.459377514594
 21
607.4286761498606
 31
0.0
  0
LINE
  5
2D8
330
A3
100
AcDbEntity
  8
0 - Systemaufbauten
  6
Continuous
 62
     7
370
     0
100
AcDbLine
 10
1778.943377720587
 20
606.9886758542234
 30
0.0
 11
1779.459377514594
 21
607.4286761498606
 31
0.0
  0
LINE
  5
2D9
330
A3
100
AcDbEntity
  8
0 - Systemaufbauten
  6
Continuous
 62
     7
370
     0
100
AcDbLine
 10
1818.943377720588
 20
606.9886758542216
 30
0.0
 11
1819.459377514595
 21
607.4286761498606
 31
0.0
  0
LINE
  5
2DA
330
A3
100
AcDbEntity
  8
0 - Systemaufbauten
  6
Continuous
 62
     7
370
     0
100
AcDbLine
 10
338.4313776962476
 20
607.4286761498606
 30
0.0
 11
338.7993776671606
 21
607.872675917165
 31
0.0
  0
LINE
  5
2DB
330
A3
100
AcDbEntity
  8
0 - Systemaufbauten
  6
Continuous
 62
     7
370
     0
100
AcDbLine
 10
378.4313776962485
 20
607.4286761498606
 30
0.0
 11
378.7993776671615
 21
607.872675917165
 31
0.0
  0
LINE
  5
2DC
330
A3
100
AcDbEntity
  8
0 - Systemaufbauten
  6
Continuous
 62
     7
370
     0
100
AcDbLine
 10
418.4313776962495
 20
607.4286761498606
 30
0.0
 11
418.7993776671624
 21
607.872675917165
 31
0.0
  0
LINE
  5
2DD
330
A3
100
AcDbEntity
  8
0 - Systemaufbauten
  6
Continuous
 62
     7
370
     0
100
AcDbLine
 10
458.4313776962504
 20
607.4286761498606
 30
0.0
 11
458.7993776671624
 21
607.8726759171641
 31
0.0
  0
LINE
  5
2DE
330
A3
100
AcDbEntity
  8
0 - Systemaufbauten
  6
Continuous
 62
     7
370
     0
100
AcDbLine
 10
498.4313776962495
 20
607.4286761498606
 30
0.0
 11
498.7993776671633
 21
607.872675917165
 31
0.0
  0
LINE
  5
2DF
330
A3
100
AcDbEntity
  8
0 - Systemaufbauten
  6
Continuous
 62
     7
370
     0
100
AcDbLine
 10
538.4313776962513
 20
607.4286761498606
 30
0.0
 11
538.7993776671633
 21
607.872675917165
 31
0.0
  0
LINE
  5
2E0
330
A3
100
AcDbEntity
  8
0 - Systemaufbauten
  6
Continuous
 62
     7
370
     0
100
AcDbLine
 10
578.4313776962513
 20
607.4286761498606
 30
0.0
 11
578.7993776671642
 21
607.872675917165
 31
0.0
  0
LINE
  5
2E1
330
A3
100
AcDbEntity
  8
0 - Systemaufbauten
  6
Continuous
 62
     7
370
     0
100
AcDbLine
 10
618.4313776962522
 20
607.4286761498606
 30
0.0
 11
618.799377667166
 21
607.872675917165
 31
0.0
  0
LINE
  5
2E2
330
A3
100
AcDbEntity
  8
0 - Systemaufbauten
  6
Continuous
 62
     7
370
     0
100
AcDbLine
 10
658.4313776962522
 20
607.4286761498606
 30
0.0
 11
658.799377667166
 21
607.8726759171641
 31
0.0
  0
LINE
  5
2E3
330
A3
100
AcDbEntity
  8
0 - Systemaufbauten
  6
Continuous
 62
     7
370
     0
100
AcDbLine
 10
698.4313776962531
 20
607.4286761498606
 30
0.0
 11
698.799377667166
 21
607.872675917165
 31
0.0
  0
LINE
  5
2E4
330
A3
100
AcDbEntity
  8
0 - Systemaufbauten
  6
Continuous
 62
     7
370
     0
100
AcDbLine
 10
738.4313776962549
 20
607.4286761498606
 30
0.0
 11
738.7993776671669
 21
607.872675917165
 31
0.0
  0
LINE
  5
2E5
330
A3
100
AcDbEntity
  8
0 - Systemaufbauten
  6
Continuous
 62
     7
370
     0
100
AcDbLine
 10
778.4313776962549
 20
607.4286761498606
 30
0.0
 11
778.7993776671669
 21
607.872675917165
 31
0.0
  0
LINE
  5
2E6
330
A3
100
AcDbEntity
  8
0 - Systemaufbauten
  6
Continuous
 62
     7
370
     0
100
AcDbLine
 10
818.431377696254
 20
607.4286761498606
 30
0.0
 11
818.7993776671669
 21
607.872675917165
 31
0.0
  0
LINE
  5
2E7
330
A3
100
AcDbEntity
  8
0 - Systemaufbauten
  6
Continuous
 62
     7
370
     0
100
AcDbLine
 10
858.4313776962558
 20
607.4286761498606
 30
0.0
 11
858.7993776671688
 21
607.8726759171641
 31
0.0
  0
LINE
  5
2E8
330
A3
100
AcDbEntity
  8
0 - Systemaufbauten
  6
Continuous
 62
     7
370
     0
100
AcDbLine
 10
898.4313776962558
 20
607.4286761498606
 30
0.0
 11
898.7993776671697
 21
607.872675917165
 31
0.0
  0
LINE
  5
2E9
330
A3
100
AcDbEntity
  8
0 - Systemaufbauten
  6
Continuous
 62
     7
370
     0
100
AcDbLine
 10
938.4313776962567
 20
607.4286761498606
 30
0.0
 11
938.7993776671678
 21
607.872675917165
 31
0.0
  0
LINE
  5
2EA
330
A3
100
AcDbEntity
  8
0 - Systemaufbauten
  6
Continuous
 62
     7
370
     0
100
AcDbLine
 10
978.4313776962567
 20
607.4286761498606
 30
0.0
 11
978.7993776671706
 21
607.872675917165
 31
0.0
  0
LINE
  5
2EB
330
A3
100
AcDbEntity
  8
0 - Systemaufbauten
  6
Continuous
 62
     7
370
     0
100
AcDbLine
 10
1018.431377696258
 20
607.4286761498606
 30
0.0
 11
1018.799377667171
 21
607.872675917165
 31
0.0
  0
LINE
  5
2EC
330
A3
100
AcDbEntity
  8
0 - Systemaufbauten
  6
Continuous
 62
     7
370
     0
100
AcDbLine
 10
1058.431377696259
 20
607.4286761498606
 30
0.0
 11
1058.799377667171
 21
607.8726759171641
 31
0.0
  0
LINE
  5
2ED
330
A3
100
AcDbEntity
  8
0 - Systemaufbauten
  6
Continuous
 62
     7
370
     0
100
AcDbLine
 10
1098.431377696259
 20
607.4286761498606
 30
0.0
 11
1098.799377667172
 21
607.872675917165
 31
0.0
  0
LINE
  5
2EE
330
A3
100
AcDbEntity
  8
0 - Systemaufbauten
  6
Continuous
 62
     7
370
     0
100
AcDbLine
 10
1138.431377696259
 20
607.4286761498606
 30
0.0
 11
1138.799377667172
 21
607.872675917165
 31
0.0
  0
LINE
  5
2EF
330
A3
100
AcDbEntity
  8
0 - Systemaufbauten
  6
Continuous
 62
     7
370
     0
100
AcDbLine
 10
1178.43137769626
 20
607.4286761498606
 30
0.0
 11
1178.799377667173
 21
607.872675917165
 31
0.0
  0
LINE
  5
2F0
330
A3
100
AcDbEntity
  8
0 - Systemaufbauten
  6
Continuous
 62
     7
370
     0
100
AcDbLine
 10
1218.43137769626
 20
607.4286761498606
 30
0.0
 11
1218.799377667173
 21
607.872675917165
 31
0.0
  0
LINE
  5
2F1
330
A3
100
AcDbEntity
  8
0 - Systemaufbauten
  6
Continuous
 62
     7
370
     0
100
AcDbLine
 10
1258.431377696261
 20
607.4286761498606
 30
0.0
 11
1258.799377667173
 21
607.8726759171641
 31
0.0
  0
LINE
  5
2F2
330
A3
100
AcDbEntity
  8
0 - Systemaufbauten
  6
Continuous
 62
     7
370
     0
100
AcDbLine
 10
1298.431377696261
 20
607.4286761498606
 30
0.0
 11
1298.799377667175
 21
607.8726759171641
 31
0.0
  0
LINE
  5
2F3
330
A3
100
AcDbEntity
  8
0 - Systemaufbauten
  6
Continuous
 62
     7
370
     0
100
AcDbLine
 10
1338.431377696262
 20
607.4286761498606
 30
0.0
 11
1338.799377667175
 21
607.872675917165
 31
0.0
  0
LINE
  5
2F4
330
A3
100
AcDbEntity
  8
0 - Systemaufbauten
  6
Continuous
 62
     7
370
     0
100
AcDbLine
 10
1378.431377696264
 20
607.4286761498606
 30
0.0
 11
1378.799377667175
 21
607.872675917165
 31
0.0
  0
LINE
  5
2F5
330
A3
100
AcDbEntity
  8
0 - Systemaufbauten
  6
Continuous
 62
     7
370
     0
100
AcDbLine
 10
1418.431377696262
 20
607.4286761498606
 30
0.0
 11
1418.799377667176
 21
607.872675917165
 31
0.0
  0
LINE
  5
2F6
330
A3
100
AcDbEntity
  8
0 - Systemaufbauten
  6
Continuous
 62
     7
370
     0
100
AcDbLine
 10
1458.431377696264
 20
607.4286761498606
 30
0.0
 11
1458.799377667178
 21
607.8726759171641
 31
0.0
  0
LINE
  5
2F7
330
A3
100
AcDbEntity
  8
0 - Systemaufbauten
  6
Continuous
 62
     7
370
     0
100
AcDbLine
 10
1498.431377696265
 20
607.4286761498606
 30
0.0
 11
1498.799377667178
 21
607.872675917165
 31
0.0
  0
LINE
  5
2F8
330
A3
100
AcDbEntity
  8
0 - Systemaufbauten
  6
Continuous
 62
     7
370
     0
100
AcDbLine
 10
1538.431377696265
 20
607.4286761498606
 30
0.0
 11
1538.799377667178
 21
607.8726759171641
 31
0.0
  0
LINE
  5
2F9
330
A3
100
AcDbEntity
  8
0 - Systemaufbauten
  6
Continuous
 62
     7
370
     0
100
AcDbLine
 10
1578.431377696265
 20
607.4286761498606
 30
0.0
 11
1578.79937766718
 21
607.872675917165
 31
0.0
  0
LINE
  5
2FA
330
A3
100
AcDbEntity
  8
0 - Systemaufbauten
  6
Continuous
 62
     7
370
     0
100
AcDbLine
 10
1618.431377696267
 20
607.4286761498606
 30
0.0
 11
1618.79937766718
 21
607.872675917165
 31
0.0
  0
LINE
  5
2FB
330
A3
100
AcDbEntity
  8
0 - Systemaufbauten
  6
Continuous
 62
     7
370
     0
100
AcDbLine
 10
1658.431377696268
 20
607.4286761498606
 30
0.0
 11
1658.799377667179
 21
607.8726759171641
 31
0.0
  0
LINE
  5
2FC
330
A3
100
AcDbEntity
  8
0 - Systemaufbauten
  6
Continuous
 62
     7
370
     0
100
AcDbLine
 10
1698.431377696268
 20
607.4286761498597
 30
0.0
 11
1698.799377667181
 21
607.872675917165
 31
0.0
  0
LINE
  5
2FD
330
A3
100
AcDbEntity
  8
0 - Systemaufbauten
  6
Continuous
 62
     7
370
     0
100
AcDbLine
 10
1738.431377696269
 20
607.4286761498606
 30
0.0
 11
1738.799377667181
 21
607.8726759171641
 31
0.0
  0
LINE
  5
2FE
330
A3
100
AcDbEntity
  8
0 - Systemaufbauten
  6
Continuous
 62
     7
370
     0
100
AcDbLine
 10
1778.431377696269
 20
607.4286761498606
 30
0.0
 11
1778.799377667181
 21
607.872675917165
 31
0.0
  0
LINE
  5
2FF
330
A3
100
AcDbEntity
  8
0 - Systemaufbauten
  6
Continuous
 62
     7
370
     0
100
AcDbLine
 10
1818.431377696269
 20
607.4286761498606
 30
0.0
 11
1818.799377667182
 21
607.872675917165
 31
0.0
  0
LINE
  5
300
330
A3
100
AcDbEntity
  8
0 - Systemaufbauten
  6
Continuous
 62
     7
370
     0
100
AcDbLine
 10
352.8673779837804
 20
607.1366759753382
 30
0.0
 11
353.0873775355535
 21
607.5046762442744
 31
0.0
  0
LINE
  5
301
330
A3
100
AcDbEntity
  8
0 - Systemaufbauten
  6
Continuous
 62
     7
370
     0
100
AcDbLine
 10
392.8673779837814
 20
607.1366759753382
 30
0.0
 11
393.0873775355544
 21
607.5046762442744
 31
0.0
  0
LINE
  5
302
330
A3
100
AcDbEntity
  8
0 - Systemaufbauten
  6
Continuous
 62
     7
370
     0
100
AcDbLine
 10
432.8673779837814
 20
607.1366759753382
 30
0.0
 11
433.0873775355553
 21
607.5046762442744
 31
0.0
  0
LINE
  5
303
330
A3
100
AcDbEntity
  8
0 - Systemaufbauten
  6
Continuous
 62
     7
370
     0
100
AcDbLine
 10
472.8673779837823
 20
607.1366759753382
 30
0.0
 11
473.0873775355553
 21
607.5046762442744
 31
0.0
  0
LINE
  5
304
330
A3
100
AcDbEntity
  8
0 - Systemaufbauten
  6
Continuous
 62
     7
370
     0
100
AcDbLine
 10
512.8673779837823
 20
607.1366759753391
 30
0.0
 11
513.0873775355562
 21
607.5046762442744
 31
0.0
  0
LINE
  5
305
330
A3
100
AcDbEntity
  8
0 - Systemaufbauten
  6
Continuous
 62
     7
370
     0
100
AcDbLine
 10
552.8673779837832
 20
607.1366759753382
 30
0.0
 11
553.0873775355581
 21
607.5046762442744
 31
0.0
  0
LINE
  5
306
330
A3
100
AcDbEntity
  8
0 - Systemaufbauten
  6
Continuous
 62
     7
370
     0
100
AcDbLine
 10
592.867377983785
 20
607.1366759753391
 30
0.0
 11
593.0873775355572
 21
607.5046762442744
 31
0.0
  0
LINE
  5
307
330
A3
100
AcDbEntity
  8
0 - Systemaufbauten
  6
Continuous
 62
     7
370
     0
100
AcDbLine
 10
632.867377983785
 20
607.1366759753391
 30
0.0
 11
633.0873775355581
 21
607.5046762442744
 31
0.0
  0
LINE
  5
308
330
A3
100
AcDbEntity
  8
0 - Systemaufbauten
  6
Continuous
 62
     7
370
     0
100
AcDbLine
 10
672.867377983785
 20
607.1366759753391
 30
0.0
 11
673.087377535559
 21
607.5046762442744
 31
0.0
  0
LINE
  5
309
330
A3
100
AcDbEntity
  8
0 - Systemaufbauten
  6
Continuous
 62
     7
370
     0
100
AcDbLine
 10
712.8673779837868
 20
607.1366759753391
 30
0.0
 11
713.087377535559
 21
607.5046762442744
 31
0.0
  0
LINE
  5
30A
330
A3
100
AcDbEntity
  8
0 - Systemaufbauten
  6
Continuous
 62
     7
370
     0
100
AcDbLine
 10
752.8673779837877
 20
607.1366759753391
 30
0.0
 11
753.087377535559
 21
607.5046762442744
 31
0.0
  0
LINE
  5
30B
330
A3
100
AcDbEntity
  8
0 - Systemaufbauten
  6
Continuous
 62
     7
370
     0
100
AcDbLine
 10
792.8673779837877
 20
607.1366759753391
 30
0.0
 11
793.0873775355608
 21
607.5046762442744
 31
0.0
  0
LINE
  5
30C
330
A3
100
AcDbEntity
  8
0 - Systemaufbauten
  6
Continuous
 62
     7
370
     0
100
AcDbLine
 10
832.8673779837886
 20
607.1366759753391
 30
0.0
 11
833.0873775355617
 21
607.5046762442744
 31
0.0
  0
LINE
  5
30D
330
A3
100
AcDbEntity
  8
0 - Systemaufbauten
  6
Continuous
 62
     7
370
     0
100
AcDbLine
 10
872.8673779837886
 20
607.1366759753391
 30
0.0
 11
873.0873775355617
 21
607.5046762442744
 31
0.0
  0
LINE
  5
30E
330
A3
100
AcDbEntity
  8
0 - Systemaufbauten
  6
Continuous
 62
     7
370
     0
100
AcDbLine
 10
912.8673779837886
 20
607.1366759753382
 30
0.0
 11
913.0873775355617
 21
607.5046762442744
 31
0.0
  0
LINE
  5
30F
330
A3
100
AcDbEntity
  8
0 - Systemaufbauten
  6
Continuous
 62
     7
370
     0
100
AcDbLine
 10
952.8673779837895
 20
607.1366759753382
 30
0.0
 11
953.0873775355626
 21
607.5046762442744
 31
0.0
  0
LINE
  5
310
330
A3
100
AcDbEntity
  8
0 - Systemaufbauten
  6
Continuous
 62
     7
370
     0
100
AcDbLine
 10
992.8673779837895
 20
607.1366759753382
 30
0.0
 11
993.0873775355635
 21
607.5046762442744
 31
0.0
  0
LINE
  5
311
330
A3
100
AcDbEntity
  8
0 - Systemaufbauten
  6
Continuous
 62
     7
370
     0
100
AcDbLine
 10
1032.86737798379
 20
607.1366759753382
 30
0.0
 11
1033.087377535564
 21
607.5046762442744
 31
0.0
  0
LINE
  5
312
330
A3
100
AcDbEntity
  8
0 - Systemaufbauten
  6
Continuous
 62
     7
370
     0
100
AcDbLine
 10
1072.867377983791
 20
607.1366759753382
 30
0.0
 11
1073.087377535564
 21
607.5046762442744
 31
0.0
  0
LINE
  5
313
330
A3
100
AcDbEntity
  8
0 - Systemaufbauten
  6
Continuous
 62
     7
370
     0
100
AcDbLine
 10
1112.867377983792
 20
607.1366759753382
 30
0.0
 11
1113.087377535565
 21
607.5046762442744
 31
0.0
  0
LINE
  5
314
330
A3
100
AcDbEntity
  8
0 - Systemaufbauten
  6
Continuous
 62
     7
370
     0
100
AcDbLine
 10
1152.867377983792
 20
607.1366759753382
 30
0.0
 11
1153.087377535565
 21
607.5046762442744
 31
0.0
  0
LINE
  5
315
330
A3
100
AcDbEntity
  8
0 - Systemaufbauten
  6
Continuous
 62
     7
370
     0
100
AcDbLine
 10
1192.867377983793
 20
607.1366759753382
 30
0.0
 11
1193.087377535567
 21
607.5046762442744
 31
0.0
  0
LINE
  5
316
330
A3
100
AcDbEntity
  8
0 - Systemaufbauten
  6
Continuous
 62
     7
370
     0
100
AcDbLine
 10
1232.867377983793
 20
607.1366759753382
 30
0.0
 11
1233.087377535566
 21
607.5046762442744
 31
0.0
  0
LINE
  5
317
330
A3
100
AcDbEntity
  8
0 - Systemaufbauten
  6
Continuous
 62
     7
370
     0
100
AcDbLine
 10
1272.867377983794
 20
607.1366759753382
 30
0.0
 11
1273.087377535567
 21
607.5046762442744
 31
0.0
  0
LINE
  5
318
330
A3
100
AcDbEntity
  8
0 - Systemaufbauten
  6
Continuous
 62
     7
370
     0
100
AcDbLine
 10
1312.867377983796
 20
607.1366759753391
 30
0.0
 11
1313.087377535568
 21
607.5046762442744
 31
0.0
  0
LINE
  5
319
330
A3
100
AcDbEntity
  8
0 - Systemaufbauten
  6
Continuous
 62
     7
370
     0
100
AcDbLine
 10
1352.867377983796
 20
607.1366759753391
 30
0.0
 11
1353.087377535568
 21
607.5046762442744
 31
0.0
  0
LINE
  5
31A
330
A3
100
AcDbEntity
  8
0 - Systemaufbauten
  6
Continuous
 62
     7
370
     0
100
AcDbLine
 10
1392.867377983795
 20
607.1366759753391
 30
0.0
 11
1393.087377535568
 21
607.5046762442744
 31
0.0
  0
LINE
  5
31B
330
A3
100
AcDbEntity
  8
0 - Systemaufbauten
  6
Continuous
 62
     7
370
     0
100
AcDbLine
 10
1432.867377983797
 20
607.1366759753391
 30
0.0
 11
1433.08737753557
 21
607.5046762442744
 31
0.0
  0
LINE
  5
31C
330
A3
100
AcDbEntity
  8
0 - Systemaufbauten
  6
Continuous
 62
     7
370
     0
100
AcDbLine
 10
1472.867377983797
 20
607.1366759753391
 30
0.0
 11
1473.087377535571
 21
607.5046762442744
 31
0.0
  0
LINE
  5
31D
330
A3
100
AcDbEntity
  8
0 - Systemaufbauten
  6
Continuous
 62
     7
370
     0
100
AcDbLine
 10
1512.867377983797
 20
607.1366759753391
 30
0.0
 11
1513.087377535571
 21
607.5046762442744
 31
0.0
  0
LINE
  5
31E
330
A3
100
AcDbEntity
  8
0 - Systemaufbauten
  6
Continuous
 62
     7
370
     0
100
AcDbLine
 10
1552.867377983798
 20
607.1366759753391
 30
0.0
 11
1553.087377535571
 21
607.5046762442744
 31
0.0
  0
LINE
  5
31F
330
A3
100
AcDbEntity
  8
0 - Systemaufbauten
  6
Continuous
 62
     7
370
     0
100
AcDbLine
 10
1592.8673779838
 20
607.1366759753391
 30
0.0
 11
1593.087377535572
 21
607.5046762442744
 31
0.0
  0
LINE
  5
320
330
A3
100
AcDbEntity
  8
0 - Systemaufbauten
  6
Continuous
 62
     7
370
     0
100
AcDbLine
 10
1632.8673779838
 20
607.1366759753391
 30
0.0
 11
1633.087377535573
 21
607.5046762442744
 31
0.0
  0
LINE
  5
321
330
A3
100
AcDbEntity
  8
0 - Systemaufbauten
  6
Continuous
 62
     7
370
     0
100
AcDbLine
 10
1672.8673779838
 20
607.1366759753391
 30
0.0
 11
1673.087377535573
 21
607.5046762442744
 31
0.0
  0
LINE
  5
322
330
A3
100
AcDbEntity
  8
0 - Systemaufbauten
  6
Continuous
 62
     7
370
     0
100
AcDbLine
 10
1712.8673779838
 20
607.1366759753391
 30
0.0
 11
1713.087377535574
 21
607.5046762442744
 31
0.0
  0
LINE
  5
323
330
A3
100
AcDbEntity
  8
0 - Systemaufbauten
  6
Continuous
 62
     7
370
     0
100
AcDbLine
 10
1752.867377983801
 20
607.1366759753391
 30
0.0
 11
1753.087377535574
 21
607.5046762442744
 31
0.0
  0
LINE
  5
324
330
A3
100
AcDbEntity
  8
0 - Systemaufbauten
  6
Continuous
 62
     7
370
     0
100
AcDbLine
 10
1792.867377983801
 20
607.1366759753391
 30
0.0
 11
1793.087377535574
 21
607.5046762442744
 31
0.0
  0
LINE
  5
325
330
A3
100
AcDbEntity
  8
0 - Systemaufbauten
  6
Continuous
 62
     7
370
     0
100
AcDbLine
 10
1832.867377983802
 20
607.1366759753382
 30
0.0
 11
1833.087377535575
 21
607.5046762442744
 31
0.0
  0
HATCH
  5
326
330
A3
100
AcDbEntity
  8
0 - Systemaufbauten
  6
Continuous
 62
    30
370
     0
100
AcDbHatch
 10
0.0
 20
0.0
 30
0.0
210
0.0
220
0.0
230
1.0
  2
SOLID
 70
     1
 71
     0
 91
        1
 92
        0
 93
        4
 72
     1
 10
334.2593777053075
 20
922.3686759686634
 11
1834.259377705308
 21
922.3686759686634
 72
     1
 10
1834.259377705308
 20
922.3686759686634
 11
1834.259377705308
 21
912.3686759686625
 72
     1
 10
1834.259377705308
 20
912.3686759686625
 11
334.2593777053075
 21
912.3686759686625
 72
     1
 10
334.2593777053075
 20
912.3686759686625
 11
334.2593777053075
 21
922.3686759686634
 97
        0
 75
     0
 76
     1
 98
        0
  0
LWPOLYLINE
  5
327
330
A3
100
AcDbEntity
  8
0 - Systemaufbauten
  6
Continuous
 62
     7
370
     0
100
AcDbPolyline
 90
        4
 70
     1
 43
0.0
 10
1.742957746479078
 20
2.701584507041844
 10
2971.74295774648
 20
2.701584507041844
 10
2971.74295774648
 20
2102.701584507042
 10
1.742957746479078
 20
2102.701584507042
  0
LWPOLYLINE
  5
328
330
A3
100
AcDbEntity
  8
0 - Systemaufbauten
  6
Continuous
 62
     7
370
     0
100
AcDbPolyline
 90
        4
 70
     1
 43
0.0
 10
251.7429577464791
 20
2052.701584507042
 10
2921.74295774648
 20
2052.701584507042
 10
2921.74295774648
 20
52.70158450704184
 10
251.7429577464791
 20
52.70158450704184
  0
LWPOLYLINE
  5
329
330
A3
100
AcDbEntity
  8
0 - Systemaufbauten
  6
Continuous
 62
     7
370
     0
100
AcDbPolyline
 90
        3
 70
     0
 43
0.0
 10
1571.74295774648
 20
52.70158450704184
 10
1571.74295774648
 20
502.7015845070418
 10
2921.74295774648
 20
502.7015845070418
  0
LINE
  5
32A
330
A3
100
AcDbEntity
  8
0 - Systemaufbauten
  6
Continuous
 62
     7
370
     0
100
AcDbLine
 10
1571.74295774648
 20
152.7015845070418
 30
0.0
 11
2921.74295774648
 21
152.7015845070418
 31
0.0
  0
LINE
  5
32B
330
A3
100
AcDbEntity
  8
0 - Systemaufbauten
  6
Continuous
 62
     7
370
     0
100
AcDbLine
 10
1571.74295774648
 20
352.7015845070418
 30
0.0
 11
2921.74295774648
 21
352.7015845070418
 31
0.0
  0
LINE
  5
32C
330
A3
100
AcDbEntity
  8
0 - Systemaufbauten
  6
Continuous
 62
     7
370
     0
100
AcDbLine
 10
1841.74295774648
 20
152.7015845070418
 30
0.0
 11
1841.74295774648
 21
52.70158450704184
 31
0.0
  0
LINE
  5
32D
330
A3
100
AcDbEntity
  8
0 - Systemaufbauten
  6
Continuous
 62
     7
370
     0
100
AcDbLine
 10
2111.74295774648
 20
152.7015845070418
 30
0.0
 11
2111.74295774648
 21
52.70158450704184
 31
0.0
  0
LINE
  5
32E
330
A3
100
AcDbEntity
  8
0 - Systemaufbauten
  6
Continuous
 62
     7
370
     0
100
AcDbLine
 10
2381.742957746481
 20
152.7015845070418
 30
0.0
 11
2381.742957746481
 21
52.70158450704184
 31
0.0
  0
LINE
  5
32F
330
A3
100
AcDbEntity
  8
0 - Systemaufbauten
  6
Continuous
 62
     7
370
     0
100
AcDbLine
 10
2651.74295774648
 20
152.7015845070418
 30
0.0
 11
2651.74295774648
 21
52.70158450704184
 31
0.0
  0
TEXT
  5
330
330
A3
100
AcDbEntity
  8
0 - Systemaufbauten
  6
Continuous
 62
     7
370
     0
100
AcDbText
 10
1591.74295774648
 20
472.7015845070418
 30
0.0
 40
22.69896125793457
  1
PLANINHALT:
 41
0.8579923483530327
  7
Style0
100
AcDbText
  0
TEXT
  5
331
330
A3
100
AcDbEntity
  8
0 - Systemaufbauten
  6
Continuous
 62
     7
370
     0
100
AcDbText
 10
1591.74295774648
 20
122.7015845070418
 30
0.0
 40
22.69896125793457
  1
MASSSTAB:
 41
0.9111284619623434
  7
Style0
100
AcDbText
  0
TEXT
  5
332
330
A3
100
AcDbEntity
  8
0 - Systemaufbauten
  6
Continuous
 62
     7
370
     0
100
AcDbText
 10
1861.74295774648
 20
122.7015845070418
 30
0.0
 40
22.69896125793457
  1
ERSTELLT:
 41
0.8423641974483923
  7
Style0
100
AcDbText
  0
TEXT
  5
333
330
A3
100
AcDbEntity
  8
0 - Systemaufbauten
  6
Continuous
 62
     7
370
     0
100
AcDbText
 10
2131.742957746481
 20
122.7015845070418
 30
0.0
 40
22.69896125793457
  1
BLATT NR.:
 41
0.8458022923346369
  7
Style0
100
AcDbText
  0
TEXT
  5
334
330
A3
100
AcDbEntity
  8
0 - Systemaufbauten
  6
Continuous
 62
     7
370
     0
100
AcDbText
 10
2401.74295774648
 20
122.7015845070418
 30
0.0
 40
22.69896125793457
  1
DETAIL NR.:
 41
0.8204844463352615
  7
Style0
100
AcDbText
  0
TEXT
  5
335
330
A3
100
AcDbEntity
  8
0 - Systemaufbauten
  6
Continuous
 62
     7
370
     0
100
AcDbText
 10
2671.742957746482
 20
122.7015845070418
 30
0.0
 40
22.69896125793457
  1
GEZEICHNET:
 41
0.8908118839923805
  7
Style0
100
AcDbText
  0
TEXT
  5
336
330
A3
100
AcDbEntity
  8
0 - Systemaufbauten
  6
Continuous
 62
     7
370
     0
100
AcDbText
 10
1593.017562377453
 20
326.7960497996037
 30
0.0
 40
9.079585075378418
  1
Die oben dargestellte Detailzeichnung bezieht sich auf eine Regelkonstruktion, d.h. sie ist zu überprüfen,
 41
0.8426884399575822
  7
Style0
100
AcDbText
  0
TEXT
  5
337
330
A3
100
AcDbEntity
  8
0 - Systemaufbauten
  6
Continuous
 62
     7
370
     0
100
AcDbText
 10
1593.017562377453
 20
307.6230394189824
 30
0.0
 40
9.079585075378418
  1
objektgebunden anzupassen, abzustimmen und gegebenfalls zu ergänzen.
 41
0.9123924215372422
  7
Style0
100
AcDbText
  0
TEXT
  5
338
330
A3
100
AcDbEntity
  8
0 - Systemaufbauten
  6
Continuous
 62
     7
370
     0
100
AcDbText
 10
1593.017562377453
 20
288.4500290383594
 30
0.0
 40
9.079585075378418
  1
Die empfohlenen Anwendungsbereiche sind auf Grund der Erfahrungen und Normen ausgearbeitet.
 41
0.9124509843910388
  7
Style0
100
AcDbText
  0
TEXT
  5
339
330
A3
100
AcDbEntity
  8
0 - Systemaufbauten
  6
Continuous
 62
     7
370
     0
100
AcDbText
 10
1593.017562377453
 20
269.2770186577354
 30
0.0
 40
9.079585075378418
  1
Eine Verbindlichkeit kann hieraus nicht abgeleitet werden. Technische Änderungen sind vorbehalten.
 41
0.8551696102436678
  7
Style0
100
AcDbText
  0
TEXT
  5
33A
330
A3
100
AcDbEntity
  8
0 - Systemaufbauten
  6
Continuous
 62
     7
370
     0
100
AcDbText
 10
1593.017562377453
 20
250.1040082771124
 30
0.0
 40
9.079585075378418
  1
Die vorliegende Detailzeichnung verliert bei Erscheinen einer Neuausgabe ihre Gültigkeit.
 41
0.8332855365681433
  7
Style0
100
AcDbText
  0
TEXT
  5
33B
330
A3
100
AcDbEntity
  8
0 - Systemaufbauten
  6
Continuous
 62
     7
370
     0
100
AcDbText
 10
1593.017562377453
 20
230.9309978964911
 30
0.0
 40
9.079585075378418
  1
Jede Haftung von COVERiT bei leichter Fahrlässigkeit sowie für Beratung ohne nachfolgende Warenlieferung
 41
0.8747626777695675
  7
Style0
100
AcDbText
  0
TEXT
  5
33C
330
A3
100
AcDbEntity
  8
0 - Systemaufbauten
  6
Continuous
 62
     7
370
     0
100
AcDbText
 10
1593.017562377453
 20
211.7579875158672
 30
0.0
 40
9.079585075378418
  1
von COVERiT und gegenüber Dritten (andere als COVERiT-Vertragspartner) ist ausgeschlossen.
 41
0.8853418449037859
  7
Style0
100
AcDbText
  0
TEXT
  5
33D
330
A3
100
AcDbEntity
  8
0 - Systemaufbauten
  6
Continuous
 62
     7
370
     0
100
AcDbText
 10
1593.017562377453
 20
192.5849771352441
 30
0.0
 40
9.079585075378418
  1
Verkauf und Lieferung von COVERiT erfolgt ausschließlich zu den allgemeinen Liefer-, Zahlungs- und Gewährleistungsbedingungen von COVERiT.
 41
0.7222222222222222
  7
Style0
100
AcDbText
  0
TEXT
  5
33E
330
A3
100
AcDbEntity
  8
0 - Systemaufbauten
  6
Continuous
 62
     7
370
     0
100
AcDbText
 10
1593.017562377453
 20
173.411966754622
 30
0.0
 40
9.079585075378418
  1
Es gilt österreichisches Recht (ohne UN Kaufrecht). Gerichtsstand ist Wels.
 41
0.8506157414920329
  7
Style0
100
AcDbText
  0
TEXT
  5
33F
330
A3
100
AcDbEntity
  8
0 - Systemaufbauten
  6
Continuous
 62
     7
370
     0
100
AcDbText
 10
1591.74295774648
 20
62.70158450704366
 30
0.0
 40
31.7785472869873
  1
1:1
 41
0.6016886835724486
  7
Style0
100
AcDbText
  0
TEXT
  5
340
330
A3
100
AcDbEntity
  8
0 - Systemaufbauten
  6
Continuous
 62
     7
370
     0
100
AcDbText
 10
1861.74295774648
 20
62.70158450704366
 30
0.0
 40
31.7785472869873
  1
07/15
 41
0.990207449084411
  7
Style0
100
AcDbText
  0
TEXT
  5
341
330
A3
100
AcDbEntity
  8
0 - Systemaufbauten
  6
Continuous
 62
     7
370
     0
100
AcDbText
 10
2131.742957746481
 20
62.70158450704366
 30
0.0
 40
31.7785472869873
  1
07
 41
0.8767462746031762
  7
Style0
100
AcDbText
  0
TEXT
  5
342
330
A3
100
AcDbEntity
  8
0 - Systemaufbauten
  6
Continuous
 62
     7
370
     0
100
AcDbText
 10
2401.74295774648
 20
62.70158450704366
 30
0.0
 40
31.7785472869873
  1
07
 41
0.8767462746031762
  7
Style0
100
AcDbText
  0
TEXT
  5
343
330
A3
100
AcDbEntity
  8
0 - Systemaufbauten
  6
Continuous
 62
     7
370
     0
100
AcDbText
 10
2671.742957746482
 20
62.70158450704366
 30
0.0
 40
31.7785472869873
  1
TR/AP
 41
0.9695781525146926
  7
Style0
100
AcDbText
  0
LINE
  5
344
330
A3
100
AcDbEntity
  8
0 - Systemaufbauten
  6
Continuous
 62
     7
370
     0
100
AcDbLine
 10
2446.544719561717
 20
352.7015845070418
 30
0.0
 11
2446.544719561717
 21
152.7015845070418
 31
0.0
  0
LINE
  5
345
330
A3
100
AcDbEntity
  8
0 - Systemaufbauten
  6
Continuous
 62
     7
370
     0
100
AcDbLine
 10
334.2593777053075
 20
598.3686759686625
 30
0.0
 11
1834.259377705308
 21
598.3686759686625
 31
0.0
  0
LINE
  5
346
330
A3
100
AcDbEntity
  8
0 - Systemaufbauten
  6
Continuous
 62
     7
370
     0
100
AcDbLine
 10
334.2593777053075
 20
613.3686759686625
 30
0.0
 11
1834.259377705308
 21
613.3686759686625
 31
0.0
  0
LINE
  5
347
330
A3
100
AcDbEntity
  8
0 - Systemaufbauten
  6
Continuous
 62
     7
370
     0
100
AcDbLine
 10
334.2593777053075
 20
637.3686759686625
 30
0.0
 11
1834.259377705308
 21
637.3686759686625
 31
0.0
  0
LINE
  5
348
330
A3
100
AcDbEntity
  8
0 - Systemaufbauten
  6
Continuous
 62
     7
370
     0
100
AcDbLine
 10
334.2593777053075
 20
647.3686759686634
 30
0.0
 11
1834.259377705308
 21
647.3686759686634
 31
0.0
  0
LINE
  5
349
330
A3
100
AcDbEntity
  8
0 - Systemaufbauten
  6
Continuous
 62
     7
370
     0
100
AcDbLine
 10
334.2593777053075
 20
887.3686759686625
 30
0.0
 11
1834.259377705308
 21
887.3686759686625
 31
0.0
  0
LINE
  5
34A
330
A3
100
AcDbEntity
  8
0 - Systemaufbauten
  6
Continuous
 62
     7
370
     0
100
AcDbLine
 10
434.2593777053075
 20
647.3686759686634
 30
0.0
 11
434.2593777053075
 21
637.3686759686625
 31
0.0
  0
LINE
  5
34B
330
A3
100
AcDbEntity
  8
0 - Systemaufbauten
  6
Continuous
 62
     7
370
     0
100
AcDbLine
 10
534.2593777053075
 20
647.3686759686634
 30
0.0
 11
534.2593777053075
 21
637.3686759686625
 31
0.0
  0
LINE
  5
34C
330
A3
100
AcDbEntity
  8
0 - Systemaufbauten
  6
Continuous
 62
     7
370
     0
100
AcDbLine
 10
634.2593777053075
 20
647.3686759686634
 30
0.0
 11
634.2593777053075
 21
637.3686759686625
 31
0.0
  0
LINE
  5
34D
330
A3
100
AcDbEntity
  8
0 - Systemaufbauten
  6
Continuous
 62
     7
370
     0
100
AcDbLine
 10
734.2593777053075
 20
647.3686759686634
 30
0.0
 11
734.2593777053075
 21
637.3686759686625
 31
0.0
  0
LINE
  5
34E
330
A3
100
AcDbEntity
  8
0 - Systemaufbauten
  6
Continuous
 62
     7
370
     0
100
AcDbLine
 10
834.2593777053075
 20
647.3686759686634
 30
0.0
 11
834.2593777053075
 21
637.3686759686625
 31
0.0
  0
LINE
  5
34F
330
A3
100
AcDbEntity
  8
0 - Systemaufbauten
  6
Continuous
 62
     7
370
     0
100
AcDbLine
 10
934.2593777053075
 20
647.3686759686634
 30
0.0
 11
934.2593777053075
 21
637.3686759686625
 31
0.0
  0
LINE
  5
350
330
A3
100
AcDbEntity
  8
0 - Systemaufbauten
  6
Continuous
 62
     7
370
     0
100
AcDbLine
 10
1034.259377705308
 20
647.3686759686634
 30
0.0
 11
1034.259377705308
 21
637.3686759686625
 31
0.0
  0
LINE
  5
351
330
A3
100
AcDbEntity
  8
0 - Systemaufbauten
  6
Continuous
 62
     7
370
     0
100
AcDbLine
 10
1134.259377705308
 20
647.3686759686634
 30
0.0
 11
1134.259377705308
 21
637.3686759686625
 31
0.0
  0
LINE
  5
352
330
A3
100
AcDbEntity
  8
0 - Systemaufbauten
  6
Continuous
 62
     7
370
     0
100
AcDbLine
 10
1234.259377705308
 20
647.3686759686634
 30
0.0
 11
1234.259377705308
 21
637.3686759686625
 31
0.0
  0
LINE
  5
353
330
A3
100
AcDbEntity
  8
0 - Systemaufbauten
  6
Continuous
 62
     7
370
     0
100
AcDbLine
 10
1334.259377705308
 20
647.3686759686634
 30
0.0
 11
1334.259377705308
 21
637.3686759686625
 31
0.0
  0
LINE
  5
354
330
A3
100
AcDbEntity
  8
0 - Systemaufbauten
  6
Continuous
 62
     7
370
     0
100
AcDbLine
 10
1434.259377705308
 20
647.3686759686634
 30
0.0
 11
1434.259377705308
 21
637.3686759686625
 31
0.0
  0
LINE
  5
355
330
A3
100
AcDbEntity
  8
0 - Systemaufbauten
  6
Continuous
 62
     7
370
     0
100
AcDbLine
 10
1534.259377705308
 20
647.3686759686634
 30
0.0
 11
1534.259377705308
 21
637.3686759686625
 31
0.0
  0
LINE
  5
356
330
A3
100
AcDbEntity
  8
0 - Systemaufbauten
  6
Continuous
 62
     7
370
     0
100
AcDbLine
 10
1634.259377705308
 20
647.3686759686634
 30
0.0
 11
1634.259377705308
 21
637.3686759686625
 31
0.0
  0
LINE
  5
357
330
A3
100
AcDbEntity
  8
0 - Systemaufbauten
  6
Continuous
 62
     7
370
     0
100
AcDbLine
 10
1734.259377705308
 20
647.3686759686634
 30
0.0
 11
1734.259377705308
 21
637.3686759686625
 31
0.0
  0
LINE
  5
358
330
A3
100
AcDbEntity
  8
0 - Systemaufbauten
  6
Continuous
 62
     7
370
     0
100
AcDbLine
 10
624.2593777053075
 20
887.3686759686625
 30
0.0
 11
624.2593777053075
 21
647.3686759686634
 31
0.0
  0
LINE
  5
359
330
A3
100
AcDbEntity
  8
0 - Systemaufbauten
  6
Continuous
 62
     7
370
     0
100
AcDbLine
 10
744.2593777053075
 20
887.3686759686625
 30
0.0
 11
744.2593777053075
 21
647.3686759686634
 31
0.0
  0
LINE
  5
35A
330
A3
100
AcDbEntity
  8
0 - Systemaufbauten
  6
Continuous
 62
     7
370
     0
100
AcDbLine
 10
1424.259377705308
 20
887.3686759686625
 30
0.0
 11
1424.259377705308
 21
647.3686759686634
 31
0.0
  0
LINE
  5
35B
330
A3
100
AcDbEntity
  8
0 - Systemaufbauten
  6
Continuous
 62
     7
370
     0
100
AcDbLine
 10
1544.259377705308
 20
887.3686759686625
 30
0.0
 11
1544.259377705308
 21
647.3686759686634
 31
0.0
  0
LWPOLYLINE
  5
35C
330
A3
100
AcDbEntity
  8
0 - Systemaufbauten
  6
Continuous
 62
     7
370
     0
100
AcDbPolyline
 90
       18
 70
     0
 43
0.0
 10
334.2593777053075
 20
633.3686759686625
 10
391.2052370402203
 20
635.6239575264817
 10
432.0170228736993
 20
627.1215021445068
 10
476.796621218768
 20
632.7898057324901
 10
554.4523803741363
 20
628.8219932209022
 10
589.029032260833
 20
634.4902968088845
 10
640.6105949114813
 20
627.1215021445068
 10
689.358005768137
 20
634.4902968088845
 10
725.06831837243
 20
634.4902968088845
 10
758.5113095415331
 20
629.3888235797003
 10
810.0928721921805
 20
634.4902968088845
 10
863.3749259192223
 20
631.6561450148938
 10
906.454033187893
 20
632.222975373692
 10
951.800461891758
 20
636.7576182440789
 10
999.9810423896174
 20
631.6561450148938
 10
1036.825015711509
 20
632.222975373692
 10
1069.70117652181
 20
628.255162862104
 10
1079.259377705307
 20
629.6539240109078
  0
LWPOLYLINE
  5
35D
330
A3
100
AcDbEntity
  8
0 - Systemaufbauten
  6
Continuous
 62
     7
370
     0
100
AcDbPolyline
 90
       17
 70
     0
 43
0.0
 10
334.2593777053075
 20
620.8488219898572
 10
374.2003262762714
 20
626.5546717857096
 10
418.4130942625393
 20
619.7527074801283
 10
486.9995676771364
 20
615.7848949685404
 10
523.2767106402284
 20
623.7205199917171
 10
588.4622019020348
 20
623.7205199917171
 10
627.0066663003213
 20
620.3195378389264
 10
677.4545682333724
 20
623.1536896329189
 10
714.8653719140598
 20
628.255162862104
 10
774.3825595878857
 20
618.619046762532
 10
823.6968008033386
 20
622.5868592741208
 10
870.7437205835981
 20
622.0200289153227
 10
910.4218456994827
 20
619.185877121331
 10
935.9292118454073
 20
627.6883325033059
 10
997.1468905956249
 20
625.4210110681124
 10
1038.525506787903
 20
621.4531985565254
 10
1079.259377705307
 20
622.4467076032906
  0
LWPOLYLINE
  5
35E
330
A3
100
AcDbEntity
  8
0 - Systemaufbauten
  6
Continuous
 62
     7
370
     0
100
AcDbPolyline
 90
       18
 70
     0
 43
0.0
 10
1824.259377705308
 20
633.3686759686625
 10
1767.313518370394
 20
635.6239575264817
 10
1726.501732536916
 20
627.1215021445068
 10
1681.722134191849
 20
632.7898057324901
 10
1604.066375036478
 20
628.8219932209022
 10
1569.489723149781
 20
634.4902968088845
 10
1517.908160499134
 20
627.1215021445068
 10
1469.160749642477
 20
634.4902968088845
 10
1433.450437038183
 20
634.4902968088845
 10
1400.007445869082
 20
629.3888235797003
 10
1348.425883218436
 20
634.4902968088845
 10
1295.143829491393
 20
631.6561450148938
 10
1252.06472222272
 20
632.222975373692
 10
1206.718293518855
 20
636.7576182440789
 10
1158.537713020998
 20
631.6561450148938
 10
1121.693739699108
 20
632.222975373692
 10
1088.817578888804
 20
628.255162862104
 10
1079.259377705307
 20
629.6539240109078
  0
LWPOLYLINE
  5
35F
330
A3
100
AcDbEntity
  8
0 - Systemaufbauten
  6
Continuous
 62
     7
370
     0
100
AcDbPolyline
 90
       17
 70
     0
 43
0.0
 10
1824.259377705308
 20
620.8488219898572
 10
1784.318429134344
 20
626.5546717857096
 10
1740.105661148074
 20
619.7527074801283
 10
1671.51918773348
 20
615.7848949685404
 10
1635.242044770387
 20
623.7205199917171
 10
1570.056553508579
 20
623.7205199917171
 10
1531.512089110293
 20
620.3195378389264
 10
1481.064187177242
 20
623.1536896329189
 10
1443.653383496553
 20
628.255162862104
 10
1384.13619582273
 20
618.619046762532
 10
1334.821954607276
 20
622.5868592741208
 10
1287.775034827015
 20
622.0200289153227
 10
1248.096909711134
 20
619.185877121331
 10
1222.589543565208
 20
627.6883325033059
 10
1161.371864814989
 20
625.4210110681124
 10
1119.993248622714
 20
621.4531985565254
 10
1079.259377705307
 20
622.4467076032906
  0
LWPOLYLINE
  5
360
330
A3
100
AcDbEntity
  8
0 - Systemaufbauten
  6
Continuous
 62
     7
370
     0
100
AcDbPolyline
 90
       18
 70
     0
 43
0.0
 10
334.2593777053075
 20
907.3686759686634
 10
391.2052370402203
 20
909.6239575264835
 10
432.0170228736993
 20
901.1215021445087
 10
476.796621218768
 20
906.7898057324901
 10
554.4523803741363
 20
902.8219932209022
 10
589.029032260833
 20
908.4902968088845
 10
640.6105949114813
 20
901.1215021445087
 10
689.358005768137
 20
908.4902968088845
 10
725.06831837243
 20
908.4902968088845
 10
758.5113095415331
 20
903.3888235797003
 10
810.0928721921805
 20
908.4902968088845
 10
863.3749259192223
 20
905.6561450148938
 10
906.454033187893
 20
906.222975373692
 10
951.800461891758
 20
910.7576182440789
 10
999.9810423896174
 20
905.6561450148938
 10
1036.825015711509
 20
906.222975373692
 10
1069.70117652181
 20
902.255162862104
 10
1079.259377705307
 20
903.6539240109087
  0
LWPOLYLINE
  5
361
330
A3
100
AcDbEntity
  8
0 - Systemaufbauten
  6
Continuous
 62
     7
370
     0
100
AcDbPolyline
 90
       17
 70
     0
 43
0.0
 10
334.2593777053075
 20
894.8488219898572
 10
374.2003262762714
 20
900.5546717857087
 10
418.4130942625393
 20
893.7527074801292
 10
486.9995676771364
 20
889.7848949685394
 10
523.2767106402284
 20
897.7205199917171
 10
588.4622019020348
 20
897.7205199917171
 10
627.0066663003213
 20
894.3195378389273
 10
677.4545682333724
 20
897.1536896329189
 10
714.8653719140598
 20
902.255162862104
 10
774.3825595878857
 20
892.6190467625329
 10
823.6968008033386
 20
896.5868592741208
 10
870.7437205835981
 20
896.0200289153227
 10
910.4218456994827
 20
893.185877121331
 10
935.9292118454073
 20
901.6883325033059
 10
997.1468905956249
 20
899.4210110681115
 10
1038.525506787903
 20
895.4531985565245
 10
1079.259377705307
 20
896.4467076032897
  0
LWPOLYLINE
  5
362
330
A3
100
AcDbEntity
  8
0 - Systemaufbauten
  6
Continuous
 62
     7
370
     0
100
AcDbPolyline
 90
       18
 70
     0
 43
0.0
 10
1824.259377705308
 20
907.3686759686634
 10
1767.313518370394
 20
909.6239575264835
 10
1726.501732536916
 20
901.1215021445087
 10
1681.722134191849
 20
906.7898057324901
 10
1604.066375036478
 20
902.8219932209022
 10
1569.489723149781
 20
908.4902968088845
 10
1517.908160499134
 20
901.1215021445087
 10
1469.160749642477
 20
908.4902968088845
 10
1433.450437038183
 20
908.4902968088845
 10
1400.007445869082
 20
903.3888235797003
 10
1348.425883218436
 20
908.4902968088845
 10
1295.143829491393
 20
905.6561450148938
 10
1252.06472222272
 20
906.222975373692
 10
1206.718293518855
 20
910.7576182440789
 10
1158.537713020998
 20
905.6561450148938
 10
1121.693739699108
 20
906.222975373692
 10
1088.817578888804
 20
902.255162862104
 10
1079.259377705307
 20
903.6539240109087
  0
LWPOLYLINE
  5
363
330
A3
100
AcDbEntity
  8
0 - Systemaufbauten
  6
Continuous
 62
     7
370
     0
100
AcDbPolyline
 90
       17
 70
     0
 43
0.0
 10
1824.259377705308
 20
894.8488219898572
 10
1784.318429134344
 20
900.5546717857087
 10
1740.105661148074
 20
893.7527074801292
 10
1671.51918773348
 20
889.7848949685394
 10
1635.242044770387
 20
897.7205199917171
 10
1570.056553508579
 20
897.7205199917171
 10
1531.512089110293
 20
894.3195378389273
 10
1481.064187177242
 20
897.1536896329189
 10
1443.653383496553
 20
902.255162862104
 10
1384.13619582273
 20
892.6190467625329
 10
1334.821954607276
 20
896.5868592741208
 10
1287.775034827015
 20
896.0200289153227
 10
1248.096909711134
 20
893.185877121331
 10
1222.589543565208
 20
901.6883325033059
 10
1161.371864814989
 20
899.4210110681115
 10
1119.993248622714
 20
895.4531985565245
 10
1079.259377705307
 20
896.4467076032897
  0
LINE
  5
364
330
A3
100
AcDbEntity
  8
0 - Systemaufbauten
  6
Continuous
 62
     7
370
     0
100
AcDbLine
 10
1824.259377705308
 20
633.3686759686625
 30
0.0
 11
1834.259377705308
 21
633.3686759686625
 31
0.0
  0
LINE
  5
365
330
A3
100
AcDbEntity
  8
0 - Systemaufbauten
  6
Continuous
 62
     7
370
     0
100
AcDbLine
 10
1824.259377705308
 20
620.8488219898572
 30
0.0
 11
1834.259377705308
 21
620.8488219898572
 31
0.0
  0
LINE
  5
366
330
A3
100
AcDbEntity
  8
0 - Systemaufbauten
  6
Continuous
 62
     7
370
     0
100
AcDbLine
 10
1824.259377705308
 20
907.3686759686634
 30
0.0
 11
1834.259377705308
 21
907.3686759686634
 31
0.0
  0
LINE
  5
367
330
A3
100
AcDbEntity
  8
0 - Systemaufbauten
  6
Continuous
 62
     7
370
     0
100
AcDbLine
 10
1824.259377705308
 20
894.8488219898572
 30
0.0
 11
1834.259377705308
 21
894.8488219898572
 31
0.0
  0
TEXT
  5
368
330
A3
100
AcDbEntity
  8
0 - Systemaufbauten
  6
Continuous
 62
     7
370
     0
100
AcDbText
 10
1592.037046561302
 20
422.9942791929707
 30
0.0
 40
31.7785472869873
  1
Dach nicht belüftet - Holzkonstruktion
 41
0.7222222222222222
  7
Style0
100
AcDbText
  0
TEXT
  5
369
330
A3
100
AcDbEntity
  8
0 - Systemaufbauten
  6
Continuous
 62
     7
370
     0
100
AcDbText
 10
1592.037046561302
 20
368.3887428607914
 30
0.0
 40
31.7785472869873
  1
teilflächig verklebt
 41
0.7222222222222222
  7
Style0
100
AcDbText
  0
TEXT
  5
36A
330
A3
100
AcDbEntity
  8
0 - Systemaufbauten
  6
Continuous
 62
     7
370
     0
100
AcDbText
 10
333.6515941546745
 20
314.084752135178
 30
0.0
 40
31.7785472869873
  1
Dachabdichtungen auf Vollholzschalung zulässig
 41
0.7222222222222222
  7
Style0
100
AcDbText
  0
TEXT
  5
36B
330
A3
100
AcDbEntity
  8
0 - Systemaufbauten
  6
Continuous
 62
     7
370
     0
100
AcDbText
 10
333.6515941546745
 20
362.8418705597569
 30
0.0
 40
31.7785472869873
  1
lt. ÖNORM B 3691, keine direkte Verklebung von
 41
0.7222222222222222
  7
Style0
100
AcDbText
  0
TEXT
  5
36C
330
A3
100
AcDbEntity
  8
0 - Systemaufbauten
  6
Continuous
 62
     7
370
     0
100
AcDbText
 10
333.6515941546745
 20
417.4474068919371
 30
0.0
 40
31.7785472869873
  1
lt. ÖNORM B 3691 und ÖNORM B 2215
 41
0.7222222222222222
  7
Style0
100
AcDbText
  0
TEXT
  5
36D
330
A3
100
AcDbEntity
  8
0 - Systemaufbauten
  6
Continuous
 62
     7
370
     0
100
AcDbText
 10
333.6515941546745
 20
472.0529432241174
 30
0.0
 40
31.7785472869873
  1
(*1) Untergründe aus Holzwerkstoff
 41
0.7222222222222222
  7
Style0
100
AcDbText
  0
LINE
  5
36E
330
A3
100
AcDbEntity
  8
0 - Systemaufbauten
  6
Continuous
 62
     7
370
     0
100
AcDbLine
 10
334.2593777053075
 20
912.3686759686625
 30
0.0
 11
1834.259377705308
 21
912.3686759686625
 31
0.0
  0
LINE
  5
36F
330
A3
100
AcDbEntity
  8
0 - Systemaufbauten
  6
Continuous
 62
     7
370
     0
100
AcDbLine
 10
334.2593777053075
 20
922.3686759686634
 30
0.0
 11
1834.259377705308
 21
922.3686759686634
 31
0.0
  0
TEXT
  5
370
330
A3
100
AcDbEntity
  8
0 - Systemaufbauten
  6
Continuous
 62
     7
370
     0
100
AcDbText
 10
1558.613940109884
 20
1577.02173323745
 30
0.0
 40
31.7785472869873
  1
- Gipskartonplatte
 41
0.7222222222222222
  7
Style0
100
AcDbText
  0
TEXT
  5
371
330
A3
100
AcDbEntity
  8
0 - Systemaufbauten
  6
Continuous
 62
     7
370
     0
100
AcDbText
 10
1558.613940109884
 20
1631.627269569633
 30
0.0
 40
31.7785472869873
  1
- Konterlattung
 41
0.7222222222222222
  7
Style0
100
AcDbText
  0
TEXT
  5
372
330
A3
100
AcDbEntity
  8
0 - Systemaufbauten
  6
Continuous
 62
     7
370
     0
100
AcDbText
 10
1558.613940109884
 20
1686.23280590181
 30
0.0
 40
31.7785472869873
  1
- Dampfsperre
 41
0.7222222222222222
  7
Style0
100
AcDbText
  0
TEXT
  5
373
330
A3
100
AcDbEntity
  8
0 - Systemaufbauten
  6
Continuous
 62
     7
370
     0
100
AcDbText
 10
1558.613940109884
 20
1740.838342233992
 30
0.0
 40
31.7785472869873
  1
- Sparren mit Zwischensparrendämmung
 41
0.7222222222222222
  7
Style0
100
AcDbText
  0
TEXT
  5
374
330
A3
100
AcDbEntity
  8
0 - Systemaufbauten
  6
Continuous
 62
     7
370
     0
100
AcDbText
 10
1558.613940109884
 20
1795.44387856617
 30
0.0
 40
31.7785472869873
  1
- Holzwerkstoffplatte (*1)
 41
0.7222222222222222
  7
Style0
100
AcDbText
  0
TEXT
  5
375
330
A3
100
AcDbEntity
  8
0 - Systemaufbauten
  6
Continuous
 62
    30
370
     0
100
AcDbText
 10
1558.613940109884
 20
1850.04941489835
 30
0.0
 40
31.7785472869873
  1
  oder dickvlieskaschiert 1,3 mm
 41
0.7222222222222222
  7
Style0
100
AcDbText
  0
TEXT
  5
376
330
A3
100
AcDbEntity
  8
0 - Systemaufbauten
  6
Continuous
 62
    30
370
     0
100
AcDbText
 10
1558.613940109884
 20
1905.184952959558
 30
0.0
 40
31.7785472869873
  1
- COVERiT NOVOtan EPDM Rollenware vlieskaschiert 1,3 mm
 41
0.7222222222222222
  7
Style0
100
AcDbText
  0
LINE
  5
377
330
A3
100
AcDbEntity
  8
0 - Systemaufbauten
  6
Continuous
 62
     7
370
     0
100
AcDbLine
 10
1560.093119495327
 20
1015.296143766905
 30
0.0
 11
1560.093119495327
 21
1918.366715376565
 31
0.0
  0
LINE
  5
378
330
A3
100
AcDbEntity
  8
0 - Systemaufbauten
  6
Continuous
 62
     7
370
     0
100
AcDbLine
 10
1560.093119495327
 20
1015.296143766905
 30
0.0
 11
1560.093119495329
 21
548.3686759686625
 31
0.0
  0
IMAGE
  5
379
330
A3
100
AcDbEntity
  8
00_Allgemein - Systemaufbauten
  6
Continuous
 62
     7
370
     0
 92
      140
310
8C00000001000000840000000600000005000000851A3A35E132A34020C65950701F66400000000000000000851A3A15B2BDA64020C65950701F66400000000000000000851A3A15B2BDA64010E32C38BB8674400000000000000000851A3A35E132A34010E32C38BB8674400000000000000000851A3A35E132A34020C659
310
50701F66400000000000000000
100
AcDbRasterImage
 90
        0
 10
2457.439859214532
 20
176.9824601891896
 30
0.0
 11
0.2876954054469384
 21
0.0
 31
0.0
 12
0.0
 22
0.2873591037583758
 32
0.0
 13
1576.0
 23
527.0
340
A2
 70
     3
280
     0
281
    50
282
    50
283
     0
360
0
 71
     1
 91
        2
 14
-0.5
 24
-0.5
 14
1575.5
 24
526.5
  0
HATCH
  5
37A
330
A3
100
AcDbEntity
  8
0 - Systemaufbauten
  6
Continuous
 62
     7
370
     0
100
AcDbHatch
 10
0.0
 20
0.0
 30
0.0
210
0.0
220
0.0
230
1.0
  2
SOLID
 70
     1
 71
     0
 91
        1
 92
        0
 93
        4
 72
     1
 10
334.2593777053075
 20
647.3686759686634
 11
434.2593777053075
 21
647.3686759686634
 72
     1
 10
434.2593777053075
 20
647.3686759686634
 11
434.2593777053075
 21
637.3686759686625
 72
     1
 10
434.2593777053075
 20
637.3686759686625
 11
334.2593777053075
 21
637.3686759686625
 72
     1
 10
334.2593777053075
 20
637.3686759686625
 11
334.2593777053075
 21
647.3686759686634
 97
        0
 75
     0
 76
     1
 98
        0
  0
ENDBLK
  5
37D
330
A3
100
AcDbEntity
  8
0
100
AcDbBlockEnd
  0
ENDSEC
  0
SECTION
  2
ENTITIES
  0
IMAGE
  5
9F
330
1F
100
AcDbEntity
  8
00_Allgemein - Systemaufbauten
  6
Continuous
 62
     7
370
     0
 92
      140
310
8C00000001000000840000000600000005000000851A3A35E132A34020C65950701F66400000000000000000851A3A15B2BDA64020C65950701F66400000000000000000851A3A15B2BDA64010E32C38BB8674400000000000000000851A3A35E132A34010E32C38BB8674400000000000000000851A3A35E132A34020C659
310
50701F66400000000000000000
100
AcDbRasterImage
 90
        0
 10
2457.439859214532
 20
176.9824601891896
 30
0.0
 11
0.2876954054469384
 21
0.0
 31
0.0
 12
0.0
 22
0.2873591037583758
 32
0.0
 13
1576.0
 23
527.0
340
9E
 70
     3
280
     0
281
    50
282
    50
283
     0
360
A0
 71
     1
 91
        2
 14
-0.5
 24
-0.5
 14
1575.5
 24
526.5
  0
INSERT
  5
37B
330
1F
100
AcDbEntity
  8
00_Allgemein - Systemaufbauten
  6
Continuous
 62
     7
370
     0
100
AcDbBlockReference
  2
dokument systemaufbauten.asc(id_4)
 10
0.0
 20
0.0
 30
0.0
  0
ENDSEC
  0
SECTION
  2
OBJECTS
  0
DICTIONARY
  5
C
330
0
100
AcDbDictionary
281
     1
  3
ACAD_DETAILVIEWSTYLE
350
3C3
  3
ACAD_GROUP
350
D
  3
ACAD_IMAGE_DICT
350
9D
  3
ACAD_LAYOUT
350
1A
  3
ACAD_MATERIAL
350
43
  3
ACAD_MLEADERSTYLE
350
6B
  3
ACAD_MLINESTYLE
350
17
  3
ACAD_PLOTSETTINGS
350
19
  3
ACAD_PLOTSTYLENAME
350
E
  3
ACAD_SCALELIST
350
47
  3
ACAD_SECTIONVIEWSTYLE
350
3C4
  3
ACAD_TABLESTYLE
350
69
  3
ACAD_VISUALSTYLE
350
2A
  3
ACDB_RECOMPOSE_DATA
350
3C0
  3
AcDbVariableDictionary
350
380
  0
DICTIONARY
  5
37E
330
8
100
AcDbDictionary
280
     1
281
     1
  3
ACAD_XREC_ROUNDTRIP
360
37F
  0
IMAGEDEF_REACTOR
  5
A0
330
9F
100
AcDbRasterImageDefReactor
 90
        2
330
9F
  0
DICTIONARY
  5
3C3
102
{ACAD_REACTORS
330
C
102
}
330
C
100
AcDbDictionary
281
     1
  0
DICTIONARY
  5
D
102
{ACAD_REACTORS
330
C
102
}
330
C
100
AcDbDictionary
281
     1
  0
DICTIONARY
  5
9D
102
{ACAD_REACTORS
330
C
102
}
330
C
100
AcDbDictionary
281
     1
  3
Image0
350
9E
  3
Image1
350
A2
  0
DICTIONARY
  5
1A
102
{ACAD_REACTORS
330
C
102
}
330
C
100
AcDbDictionary
281
     1
  3
Layout1
350
1E
  3
Layout2
350
26
  3
Model
350
22
  0
DICTIONARY
  5
43
102
{ACAD_REACTORS
330
C
102
}
330
C
100
AcDbDictionary
281
     1
  3
ByBlock
350
45
  3
ByLayer
350
44
  3
Global
350
46
  0
DICTIONARY
  5
6B
102
{ACAD_REACTORS
330
C
102
}
330
C
100
AcDbDictionary
281
     1
  3
Standard
350
6C
  0
DICTIONARY
  5
17
102
{ACAD_REACTORS
330
C
102
}
330
C
100
AcDbDictionary
281
     1
  3
Standard
350
18
  0
DICTIONARY
  5
19
102
{ACAD_REACTORS
330
C
102
}
330
C
100
AcDbDictionary
281
     1
  0
ACDBDICTIONARYWDFLT
  5
E
102
{ACAD_REACTORS
330
C
102
}
330
C
100
AcDbDictionary
281
     1
  3
Normal
350
F
100
AcDbDictionaryWithDefault
340
F
  0
DICTIONARY
  5
47
102
{ACAD_REACTORS
330
C
102
}
330
C
100
AcDbDictionary
281
     1
  3
A0
350
48
  3
A1
350
49
  3
A2
350
4A
  3
A3
350
4B
  3
A4
350
4C
  3
A5
350
4D
  3
A6
350
4E
  3
A7
350
4F
  3
A8
350
50
  3
A9
350
51
  3
B0
350
52
  3
B1
350
53
  3
B2
350
54
  3
B3
350
55
  3
B4
350
56
  3
B5
350
57
  3
B6
350
58
  3
B7
350
59
  3
B8
350
5A
  3
B9
350
5B
  3
C0
350
5C
  3
C1
350
5D
  3
C2
350
5E
  3
C3
350
5F
  3
C4
350
60
  3
C5
350
61
  3
C6
350
62
  3
C7
350
63
  3
C8
350
64
  3
C9
350
65
  3
D0
350
66
  3
D1
350
67
  3
D2
350
68
  0
DICTIONARY
  5
3C4
102
{ACAD_REACTORS
330
C
102
}
330
C
100
AcDbDictionary
281
     1
  0
DICTIONARY
  5
69
102
{ACAD_REACTORS
330
C
102
}
330
C
100
AcDbDictionary
281
     1
  3
Standard
350
6A
  0
DICTIONARY
  5
2A
102
{ACAD_REACTORS
330
C
102
}
330
C
100
AcDbDictionary
281
     1
  3
2dWireframe
350
2F
  3
Basic
350
32
  3
Brighten
350
36
  3
ColorChange
350
3A
  3
Conceptual
350
34
  3
Dim
350
35
  3
EdgeColorOff
350
3D
  3
Facepattern
350
39
  3
Flat
350
2B
  3
FlatWithEdges
350
2C
  3
Gouraud
350
2D
  3
GouraudWithEdges
350
2E
  3
Hidden
350
31
  3
JitterOff
350
3B
  3
Linepattern
350
38
  3
OverhangOff
350
3C
  3
Realistic
350
33
  3
Shaded
350
42
  3
Shaded with edges
350
41
  3
Shades of Gray
350
3E
  3
Sketchy
350
3F
  3
Thicken
350
37
  3
Wireframe
350
30
  3
X-Ray
350
40
  0
XRECORD
  5
3C0
102
{ACAD_REACTORS
330
C
102
}
330
C
100
AcDbXrecord
280
     1
 90
        1
330
6A
  0
DICTIONARY
  5
380
102
{ACAD_REACTORS
330
C
102
}
330
C
100
AcDbDictionary
281
     1
  3
CANNOSCALE
350
381
  3
CMLEADERSTYLE
350
3C2
  3
CTABLESTYLE
350
3C1
  3
MSLTSCALE
350
382
  3
XCLIPFRAME
350
383
  0
XRECORD
  5
37F
102
{ACAD_REACTORS
330
37E
102
}
330
37E
100
AcDbXrecord
280
     1
102
VTR_0.000_0.000_1.000_1.000_VISUALSTYLE
340
2F
102
VTR_0.000_0.000_1.000_1.000_GRIDDISPLAY
 70
     3
102
VTR_0.000_0.000_1.000_1.000_GRIDMAJOR
 70
     5
102
VTR_0.000_0.000_1.000_1.000_DEFAULTLIGHTING
280
     1
102
VTR_0.000_0.000_1.000_1.000_DEFAULTLIGHTINGTYPE
 70
     1
102
VTR_0.000_0.000_1.000_1.000_BRIGHTNESS
141
0.0
102
VTR_0.000_0.000_1.000_1.000_CONTRAST
142
0.0
  0
IMAGEDEF
  5
9E
102
{ACAD_REACTORS
330
9D
330
A0
102
}
330
9D
100
AcDbRasterImageDef
 90
        0
  1
__ID10_Coverit+www.jpg
 10
1576.0
 20
527.0
 11
0.0006345177664974619
 21
0.0006345177664974619
280
     1
281
     1
  0
IMAGEDEF
  5
A2
102
{ACAD_REACTORS
330
9D
102
}
330
9D
100
AcDbRasterImageDef
 90
        0
  1
__ID10_Coverit+www.jpg
 10
1576.0
 20
527.0
 11
0.0006345177664974619
 21
0.0006345177664974619
280
     1
281
     1
  0
LAYOUT
  5
1E
102
{ACAD_REACTORS
330
1A
102
}
330
1A
100
AcDbPlotSettings
  1

  2
none_device
  4

  6

 40
0.0
 41
0.0
 42
0.0
 43
0.0
 44
0.0
 45
0.0
 46
0.0
 47
0.0
 48
0.0
 49
0.0
140
0.0
141
0.0
142
1.0
143
1.0
 70
   688
 72
     0
 73
     0
 74
     5
  7

 75
    16
 76
     0
 77
     2
 78
   300
147
1.0
148
0.0
149
0.0
100
AcDbLayout
  1
Layout1
 70
     1
 71
     1
 10
0.0
 20
0.0
 11
12.0
 21
9.0
 12
0.0
 22
0.0
 32
0.0
 14
1.000000000000000E+20
 24
1.000000000000000E+20
 34
1.000000000000000E+20
 15
-1.000000000000000E+20
 25
-1.000000000000000E+20
 35
-1.000000000000000E+20
146
0.0
 13
0.0
 23
0.0
 33
0.0
 16
1.0
 26
0.0
 36
0.0
 17
0.0
 27
1.0
 37
0.0
 76
     0
330
1B
  0
LAYOUT
  5
26
102
{ACAD_REACTORS
330
1A
102
}
330
1A
100
AcDbPlotSettings
  1

  2
none_device
  4

  6

 40
0.0
 41
0.0
 42
0.0
 43
0.0
 44
0.0
 45
0.0
 46
0.0
 47
0.0
 48
0.0
 49
0.0
140
0.0
141
0.0
142
1.0
143
1.0
 70
   688
 72
     0
 73
     0
 74
     5
  7

 75
    16
 76
     0
 77
     2
 78
   300
147
1.0
148
0.0
149
0.0
100
AcDbLayout
  1
Layout2
 70
     1
 71
     2
 10
0.0
 20
0.0
 11
0.0
 21
0.0
 12
0.0
 22
0.0
 32
0.0
 14
0.0
 24
0.0
 34
0.0
 15
0.0
 25
0.0
 35
0.0
146
0.0
 13
0.0
 23
0.0
 33
0.0
 16
1.0
 26
0.0
 36
0.0
 17
0.0
 27
1.0
 37
0.0
 76
     0
330
23
  0
LAYOUT
  5
22
102
{ACAD_REACTORS
330
1A
102
}
330
1A
100
AcDbPlotSettings
  1

  2
none_device
  4
Letter_(8.50_x_11.00_Inches)
  6

 40
6.35
 41
6.35
 42
6.35000508
 43
6.35000508
 44
215.9
 45
279.4
 46
0.0
 47
0.0
 48
0.0
 49
0.0
140
0.0
141
0.0
142
1.0
143
1.0
 70
  1712
 72
     0
 73
     0
 74
     0
  7

 75
     0
 76
     0
 77
     2
 78
   300
147
1.0
148
0.0
149
0.0
100
AcDbLayout
  1
Model
 70
     1
 71
     0
 10
0.0
 20
0.0
 11
12.0
 21
9.0
 12
0.0
 22
0.0
 32
0.0
 14
1.742957746479078
 24
2.701584507041844
 34
0.0
 15
2971.742957746479
 25
2102.701584507042
 35
0.0
146
0.0
 13
0.0
 23
0.0
 33
0.0
 16
1.0
 26
0.0
 36
0.0
 17
0.0
 27
1.0
 37
0.0
 76
     0
330
1F
331
29
  0
MATERIAL
  5
45
102
{ACAD_REACTORS
330
43
102
}
102
{ACAD_XDICTIONARY
360
3B6
102
}
330
43
100
AcDbMaterial
  1
ByBlock
  0
MATERIAL
  5
44
102
{ACAD_REACTORS
330
43
102
}
102
{ACAD_XDICTIONARY
360
3B4
102
}
330
43
100
AcDbMaterial
  1
ByLayer
  0
MATERIAL
  5
46
102
{ACAD_REACTORS
330
43
102
}
102
{ACAD_XDICTIONARY
360
3B8
102
}
330
43
100
AcDbMaterial
  1
Global
  0
MLEADERSTYLE
  5
6C
102
{ACAD_REACTORS
330
6B
102
}
102
{ACAD_XDICTIONARY
360
3BE
102
}
330
6B
100
AcDbMLeaderStyle
170
     2
171
     1
172
     0
 90
        2
 40
0.0
 41
0.0
173
     1
 91
-1056964608
340
14
 92
       -2
290
     1
 42
0.09
291
     1
 43
0.36
  3
Standard
341
0
 44
0.18
300

342
11
174
     1
178
     6
175
     1
176
     0
 93
-1056964608
 45
0.18
292
     0
297
     0
 46
0.18
343
0
 94
-1056964608
 47
1.0
 49
1.0
140
1.0
293
     1
141
0.0
294
     1
177
     0
142
1.0
295
     0
296
     0
143
0.125
1001
ACAD_MLEADERVER
1070
     2
  0
MLINESTYLE
  5
18
102
{ACAD_REACTORS
330
17
102
}
330
17
100
AcDbMlineStyle
  2
Standard
 70
     0
  3

 62
   256
 51
90.0
 52
90.0
 71
     2
 49
0.5
 62
   256
  6
BYLAYER
 49
-0.5
 62
   256
  6
BYLAYER
  0
ACDBPLACEHOLDER
  5
F
102
{ACAD_REACTORS
330
E
102
}
330
E
  0
SCALE
  5
48
102
{ACAD_REACTORS
330
47
102
}
330
47
100
AcDbScale
 70
     0
300
1:1
140
1.0
141
1.0
290
     1
  0
SCALE
  5
49
102
{ACAD_REACTORS
330
47
102
}
330
47
100
AcDbScale
 70
     0
300
1:2
140
1.0
141
2.0
290
     0
  0
SCALE
  5
4A
102
{ACAD_REACTORS
330
47
102
}
330
47
100
AcDbScale
 70
     0
300
1:4
140
1.0
141
4.0
290
     0
  0
SCALE
  5
4B
102
{ACAD_REACTORS
330
47
102
}
330
47
100
AcDbScale
 70
     0
300
1:5
140
1.0
141
5.0
290
     0
  0
SCALE
  5
4C
102
{ACAD_REACTORS
330
47
102
}
330
47
100
AcDbScale
 70
     0
300
1:8
140
1.0
141
8.0
290
     0
  0
SCALE
  5
4D
102
{ACAD_REACTORS
330
47
102
}
330
47
100
AcDbScale
 70
     0
300
1:10
140
1.0
141
10.0
290
     0
  0
SCALE
  5
4E
102
{ACAD_REACTORS
330
47
102
}
330
47
100
AcDbScale
 70
     0
300
1:16
140
1.0
141
16.0
290
     0
  0
SCALE
  5
4F
102
{ACAD_REACTORS
330
47
102
}
330
47
100
AcDbScale
 70
     0
300
1:20
140
1.0
141
20.0
290
     0
  0
SCALE
  5
50
102
{ACAD_REACTORS
330
47
102
}
330
47
100
AcDbScale
 70
     0
300
1:30
140
1.0
141
30.0
290
     0
  0
SCALE
  5
51
102
{ACAD_REACTORS
330
47
102
}
330
47
100
AcDbScale
 70
     0
300
1:40
140
1.0
141
40.0
290
     0
  0
SCALE
  5
52
102
{ACAD_REACTORS
330
47
102
}
330
47
100
AcDbScale
 70
     0
300
1:50
140
1.0
141
50.0
290
     0
  0
SCALE
  5
53
102
{ACAD_REACTORS
330
47
102
}
330
47
100
AcDbScale
 70
     0
300
1:100
140
1.0
141
100.0
290
     0
  0
SCALE
  5
54
102
{ACAD_REACTORS
330
47
102
}
330
47
100
AcDbScale
 70
     0
300
2:1
140
2.0
141
1.0
290
     0
  0
SCALE
  5
55
102
{ACAD_REACTORS
330
47
102
}
330
47
100
AcDbScale
 70
     0
300
4:1
140
4.0
141
1.0
290
     0
  0
SCALE
  5
56
102
{ACAD_REACTORS
330
47
102
}
330
47
100
AcDbScale
 70
     0
300
8:1
140
8.0
141
1.0
290
     0
  0
SCALE
  5
57
102
{ACAD_REACTORS
330
47
102
}
330
47
100
AcDbScale
 70
     0
300
10:1
140
10.0
141
1.0
290
     0
  0
SCALE
  5
58
102
{ACAD_REACTORS
330
47
102
}
330
47
100
AcDbScale
 70
     0
300
100:1
140
100.0
141
1.0
290
     0
  0
SCALE
  5
59
102
{ACAD_REACTORS
330
47
102
}
330
47
100
AcDbScale
 70
     0
300
1/128" = 1'-0"
140
0.0078125
141
12.0
290
     0
  0
SCALE
  5
5A
102
{ACAD_REACTORS
330
47
102
}
330
47
100
AcDbScale
 70
     0
300
1/64" = 1'-0"
140
0.015625
141
12.0
290
     0
  0
SCALE
  5
5B
102
{ACAD_REACTORS
330
47
102
}
330
47
100
AcDbScale
 70
     0
300
1/32" = 1'-0"
140
0.03125
141
12.0
290
     0
  0
SCALE
  5
5C
102
{ACAD_REACTORS
330
47
102
}
330
47
100
AcDbScale
 70
     0
300
1/16" = 1'-0"
140
0.0625
141
12.0
290
     0
  0
SCALE
  5
5D
102
{ACAD_REACTORS
330
47
102
}
330
47
100
AcDbScale
 70
     0
300
3/32" = 1'-0"
140
0.09375
141
12.0
290
     0
  0
SCALE
  5
5E
102
{ACAD_REACTORS
330
47
102
}
330
47
100
AcDbScale
 70
     0
300
1/8" = 1'-0"
140
0.125
141
12.0
290
     0
  0
SCALE
  5
5F
102
{ACAD_REACTORS
330
47
102
}
330
47
100
AcDbScale
 70
     0
300
3/16" = 1'-0"
140
0.1875
141
12.0
290
     0
  0
SCALE
  5
60
102
{ACAD_REACTORS
330
47
102
}
330
47
100
AcDbScale
 70
     0
300
1/4" = 1'-0"
140
0.25
141
12.0
290
     0
  0
SCALE
  5
61
102
{ACAD_REACTORS
330
47
102
}
330
47
100
AcDbScale
 70
     0
300
3/8" = 1'-0"
140
0.375
141
12.0
290
     0
  0
SCALE
  5
62
102
{ACAD_REACTORS
330
47
102
}
330
47
100
AcDbScale
 70
     0
300
1/2" = 1'-0"
140
0.5
141
12.0
290
     0
  0
SCALE
  5
63
102
{ACAD_REACTORS
330
47
102
}
330
47
100
AcDbScale
 70
     0
300
3/4" = 1'-0"
140
0.75
141
12.0
290
     0
  0
SCALE
  5
64
102
{ACAD_REACTORS
330
47
102
}
330
47
100
AcDbScale
 70
     0
300
1" = 1'-0"
140
1.0
141
12.0
290
     0
  0
SCALE
  5
65
102
{ACAD_REACTORS
330
47
102
}
330
47
100
AcDbScale
 70
     0
300
1-1/2" = 1'-0"
140
1.5
141
12.0
290
     0
  0
SCALE
  5
66
102
{ACAD_REACTORS
330
47
102
}
330
47
100
AcDbScale
 70
     0
300
3" = 1'-0"
140
3.0
141
12.0
290
     0
  0
SCALE
  5
67
102
{ACAD_REACTORS
330
47
102
}
330
47
100
AcDbScale
 70
     0
300
6" = 1'-0"
140
6.0
141
12.0
290
     0
  0
SCALE
  5
68
102
{ACAD_REACTORS
330
47
102
}
330
47
100
AcDbScale
 70
     0
300
1'-0" = 1'-0"
140
12.0
141
12.0
290
     0
  0
TABLESTYLE
  5
6A
102
{ACAD_REACTORS
330
69
102
}
102
{ACAD_XDICTIONARY
360
3BA
102
}
330
69
100
AcDbTableStyle
  3
Standard
 70
     0
 71
     0
 40
0.06
 41
0.06
280
     0
281
     0
  7
Standard
140
0.18
170
     2
 62
     0
 63
   257
283
     0
274
    -2
284
     1
 64
     0
275
    -2
285
     1
 65
     0
276
    -2
286
     1
 66
     0
277
    -2
287
     1
 67
     0
278
    -2
288
     1
 68
     0
279
    -2
289
     1
 69
     0
  7
Standard
140
0.25
170
     5
 62
     0
 63
   257
283
     0
274
    -2
284
     1
 64
     0
275
    -2
285
     1
 65
     0
276
    -2
286
     1
 66
     0
277
    -2
287
     1
 67
     0
278
    -2
288
     1
 68
     0
279
    -2
289
     1
 69
     0
  7
Standard
140
0.18
170
     5
 62
     0
 63
   257
283
     0
274
    -2
284
     1
 64
     0
275
    -2
285
     1
 65
     0
276
    -2
286
     1
 66
     0
277
    -2
287
     1
 67
     0
278
    -2
288
     1
 68
     0
279
    -2
289
     1
 69
     0
  0
VISUALSTYLE
  5
2F
102
{ACAD_REACTORS
330
2A
102
}
102
{ACAD_XDICTIONARY
360
38C
102
}
330
2A
100
AcDbVisualStyle
  2
2dWireframe
 70
     4
 71
     0
 72
     2
 73
     0
 90
        0
 40
0.6
 41
30.0
 62
     5
 63
     7
421
 16777215
 74
     1
 91
        4
 64
     7
 65
   257
 75
     1
175
     1
 42
1.0
 92
        0
 66
   257
 43
1.0
 76
     1
 77
     6
 78
     2
 67
     7
 79
     5
170
     0
171
     0
290
     0
174
     0
 93
        1
 44
0.0
173
     0
291
     0
 45
0.0
1001
ACAD
1000
AcDbSavedByObjectVersion
1070
     0
  0
VISUALSTYLE
  5
32
102
{ACAD_REACTORS
330
2A
102
}
102
{ACAD_XDICTIONARY
360
392
102
}
330
2A
100
AcDbVisualStyle
  2
Basic
 70
     7
 71
     1
 72
     0
 73
     1
 90
        0
 40
0.6
 41
30.0
 62
     5
 63
     7
421
 16777215
 74
     0
 91
        4
 64
     7
 65
   257
 75
     1
175
     1
 42
1.0
 92
        8
 66
     7
 43
1.0
 76
     1
 77
     6
 78
     2
 67
     7
 79
     5
170
     0
171
     0
290
     0
174
     0
 93
        1
 44
0.0
173
     0
291
     1
 45
0.0
1001
ACAD
1000
AcDbSavedByObjectVersion
1070
     0
  0
VISUALSTYLE
  5
36
102
{ACAD_REACTORS
330
2A
102
}
102
{ACAD_XDICTIONARY
360
39A
102
}
330
2A
100
AcDbVisualStyle
  2
Brighten
 70
    12
 71
     2
 72
     2
 73
     0
 90
        0
 40
0.6
 41
30.0
 62
     5
 63
     7
421
 16777215
 74
     1
 91
        4
 64
     7
 65
   257
 75
     1
175
     1
 42
1.0
 92
        8
 66
     7
 43
1.0
 76
     1
 77
     6
 78
     2
 67
     7
 79
     5
170
     0
171
     0
290
     0
174
     0
 93
        1
 44
50.0
173
     0
291
     1
 45
0.0
1001
ACAD
1000
AcDbSavedByObjectVersion
1070
     0
  0
VISUALSTYLE
  5
3A
102
{ACAD_REACTORS
330
2A
102
}
102
{ACAD_XDICTIONARY
360
3A2
102
}
330
2A
100
AcDbVisualStyle
  2
ColorChange
 70
    16
 71
     2
 72
     2
 73
     3
 90
        0
 40
0.6
 41
30.0
 62
     5
 63
     8
421
  8421504
 74
     1
 91
        4
 64
     7
 65
   257
 75
     1
175
     1
 42
1.0
 92
        8
 66
     8
424
  8421504
 43
1.0
 76
     1
 77
     6
 78
     2
 67
     7
 79
     5
170
     0
171
     0
290
     0
174
     0
 93
        1
 44
0.0
173
     0
291
     1
 45
0.0
1001
ACAD
1000
AcDbSavedByObjectVersion
1070
     0
  0
VISUALSTYLE
  5
34
102
{ACAD_REACTORS
330
2A
102
}
102
{ACAD_XDICTIONARY
360
396
102
}
330
2A
100
AcDbVisualStyle
  2
Conceptual
 70
     9
 71
     3
 72
     2
 73
     0
 90
        0
 40
0.6
 41
30.0
 62
     5
 63
     7
421
 16777215
 74
     2
 91
        2
 64
     7
 65
   257
 75
     1
175
     1
 42
179.0
 92
        8
 66
     7
 43
1.0
 76
     1
 77
     6
 78
     2
 67
     7
 79
     3
170
     0
171
     0
290
     0
174
     0
 93
        1
 44
0.0
173
     0
291
     0
 45
0.0
1001
ACAD
1000
AcDbSavedByObjectVersion
1070
     0
  0
VISUALSTYLE
  5
35
102
{ACAD_REACTORS
330
2A
102
}
102
{ACAD_XDICTIONARY
360
398
102
}
330
2A
100
AcDbVisualStyle
  2
Dim
 70
    11
 71
     2
 72
     2
 73
     0
 90
        0
 40
0.6
 41
30.0
 62
     5
 63
     7
421
 16777215
 74
     1
 91
        4
 64
     7
 65
   257
 75
     1
175
     1
 42
1.0
 92
        8
 66
     7
 43
1.0
 76
     1
 77
     6
 78
     2
 67
     7
 79
     5
170
     0
171
     0
290
     0
174
     0
 93
        1
 44
-50.0
173
     0
291
     1
 45
0.0
1001
ACAD
1000
AcDbSavedByObjectVersion
1070
     0
  0
VISUALSTYLE
  5
3D
102
{ACAD_REACTORS
330
2A
102
}
102
{ACAD_XDICTIONARY
360
3A8
102
}
330
2A
100
AcDbVisualStyle
  2
EdgeColorOff
 70
    22
 71
     2
 72
     2
 73
     0
 90
        0
 40
0.6
 41
30.0
 62
     5
 63
     7
421
 16777215
 74
     1
 91
        4
 64
     7
 65
   257
 75
     1
175
     1
 42
1.0
 92
        8
 66
     7
 43
1.0
 76
     1
 77
     6
 78
     2
 67
     7
 79
     5
170
     0
171
     0
290
     0
174
     0
 93
        1
 44
0.0
173
     0
291
     1
 45
0.0
1001
ACAD
1000
AcDbSavedByObjectVersion
1070
     0
  0
VISUALSTYLE
  5
39
102
{ACAD_REACTORS
330
2A
102
}
102
{ACAD_XDICTIONARY
360
3A0
102
}
330
2A
100
AcDbVisualStyle
  2
Facepattern
 70
    15
 71
     2
 72
     2
 73
     0
 90
        0
 40
0.6
 41
30.0
 62
     5
 63
     7
421
 16777215
 74
     1
 91
        4
 64
     7
 65
   257
 75
     1
175
     1
 42
1.0
 92
        8
 66
     7
 43
1.0
 76
     1
 77
     6
 78
     2
 67
     7
 79
     5
170
     0
171
     0
290
     0
174
     0
 93
        1
 44
0.0
173
     0
291
     1
 45
0.0
1001
ACAD
1000
AcDbSavedByObjectVersion
1070
     0
  0
VISUALSTYLE
  5
2B
102
{ACAD_REACTORS
330
2A
102
}
102
{ACAD_XDICTIONARY
360
384
102
}
330
2A
100
AcDbVisualStyle
  2
Flat
 70
     0
 71
     2
 72
     1
 73
     1
 90
        2
 40
0.6
 41
30.0
 62
     5
 63
     7
421
 16777215
 74
     0
 91
        0
 64
     7
 65
   257
 75
     1
175
     1
 42
1.0
 92
        8
 66
     7
 43
1.0
 76
     1
 77
     6
 78
     2
 67
     7
 79
     5
170
     0
171
     0
290
     0
174
     0
 93
       13
 44
0.0
173
     0
291
     1
 45
0.0
1001
ACAD
1000
AcDbSavedByObjectVersion
1070
     0
  0
VISUALSTYLE
  5
2C
102
{ACAD_REACTORS
330
2A
102
}
102
{ACAD_XDICTIONARY
360
386
102
}
330
2A
100
AcDbVisualStyle
  2
FlatWithEdges
 70
     1
 71
     2
 72
     1
 73
     1
 90
        2
 40
0.6
 41
30.0
 62
     5
 63
     7
421
 16777215
 74
     1
 91
        0
 64
     7
 65
   257
 75
     1
175
     1
 42
1.0
 92
        0
 66
   257
 43
1.0
 76
     1
 77
     6
 78
     2
 67
     7
 79
     5
170
     0
171
     0
290
     0
174
     0
 93
       13
 44
0.0
173
     0
291
     1
 45
0.0
1001
ACAD
1000
AcDbSavedByObjectVersion
1070
     0
  0
VISUALSTYLE
  5
2D
102
{ACAD_REACTORS
330
2A
102
}
102
{ACAD_XDICTIONARY
360
388
102
}
330
2A
100
AcDbVisualStyle
  2
Gouraud
 70
     2
 71
     2
 72
     2
 73
     1
 90
        2
 40
0.6
 41
30.0
 62
     5
 63
     7
421
 16777215
 74
     0
 91
        0
 64
     7
 65
   257
 75
     1
175
     1
 42
1.0
 92
        0
 66
     7
 43
1.0
 76
     1
 77
     6
 78
     2
 67
     7
 79
     5
170
     0
171
     0
290
     0
174
     0
 93
       13
 44
0.0
173
     0
291
     1
 45
0.0
1001
ACAD
1000
AcDbSavedByObjectVersion
1070
     0
  0
VISUALSTYLE
  5
2E
102
{ACAD_REACTORS
330
2A
102
}
102
{ACAD_XDICTIONARY
360
38A
102
}
330
2A
100
AcDbVisualStyle
  2
GouraudWithEdges
 70
     3
 71
     2
 72
     2
 73
     1
 90
        2
 40
0.6
 41
30.0
 62
     5
 63
     7
421
 16777215
 74
     1
 91
        0
 64
     7
 65
   257
 75
     1
175
     1
 42
1.0
 92
        0
 66
   257
 43
1.0
 76
     1
 77
     6
 78
     2
 67
     7
 79
     5
170
     0
171
     0
290
     0
174
     0
 93
       13
 44
0.0
173
     0
291
     1
 45
0.0
1001
ACAD
1000
AcDbSavedByObjectVersion
1070
     0
  0
VISUALSTYLE
  5
31
102
{ACAD_REACTORS
330
2A
102
}
102
{ACAD_XDICTIONARY
360
390
102
}
330
2A
100
AcDbVisualStyle
  2
Hidden
 70
     6
 71
     1
 72
     2
 73
     2
 90
        0
 40
0.6
 41
30.0
 62
     5
 63
     7
421
 16777215
 74
     2
 91
        2
 64
     7
 65
   257
 75
     2
175
     1
 42
40.0
 92
        0
 66
   257
 43
1.0
 76
     1
 77
     6
 78
     2
 67
     7
 79
     3
170
     0
171
     0
290
     0
174
     0
 93
        1
 44
0.0
173
     0
291
     0
 45
0.0
1001
ACAD
1000
AcDbSavedByObjectVersion
1070
     0
  0
VISUALSTYLE
  5
3B
102
{ACAD_REACTORS
330
2A
102
}
102
{ACAD_XDICTIONARY
360
3A4
102
}
330
2A
100
AcDbVisualStyle
  2
JitterOff
 70
    20
 71
     2
 72
     2
 73
     0
 90
        0
 40
0.6
 41
30.0
 62
     5
 63
     7
421
 16777215
 74
     1
 91
        4
 64
     7
 65
   257
 75
     1
175
     1
 42
1.0
 92
       10
 66
     7
 43
1.0
 76
     1
 77
     6
 78
     2
 67
     7
 79
     5
170
     0
171
     0
290
     0
174
     0
 93
        1
 44
0.0
173
     0
291
     1
 45
0.0
1001
ACAD
1000
AcDbSavedByObjectVersion
1070
     0
  0
VISUALSTYLE
  5
38
102
{ACAD_REACTORS
330
2A
102
}
102
{ACAD_XDICTIONARY
360
39E
102
}
330
2A
100
AcDbVisualStyle
  2
Linepattern
 70
    14
 71
     2
 72
     2
 73
     0
 90
        0
 40
0.6
 41
30.0
 62
     5
 63
     7
421
 16777215
 74
     1
 91
        4
 64
     7
 65
   257
 75
     7
175
     7
 42
1.0
 92
        8
 66
     7
 43
1.0
 76
     1
 77
     6
 78
     2
 67
     7
 79
     5
170
     0
171
     0
290
     0
174
     0
 93
        1
 44
0.0
173
     0
291
     1
 45
0.0
1001
ACAD
1000
AcDbSavedByObjectVersion
1070
     0
  0
VISUALSTYLE
  5
3C
102
{ACAD_REACTORS
330
2A
102
}
102
{ACAD_XDICTIONARY
360
3A6
102
}
330
2A
100
AcDbVisualStyle
  2
OverhangOff
 70
    21
 71
     2
 72
     2
 73
     0
 90
        0
 40
0.6
 41
30.0
 62
     5
 63
     7
421
 16777215
 74
     1
 91
        4
 64
     7
 65
   257
 75
     1
175
     1
 42
1.0
 92
        9
 66
     7
 43
1.0
 76
     1
 77
     6
 78
     2
 67
     7
 79
     5
170
     0
171
     0
290
     0
174
     0
 93
        1
 44
0.0
173
     0
291
     1
 45
0.0
1001
ACAD
1000
AcDbSavedByObjectVersion
1070
     0
  0
VISUALSTYLE
  5
33
102
{ACAD_REACTORS
330
2A
102
}
102
{ACAD_XDICTIONARY
360
394
102
}
330
2A
100
AcDbVisualStyle
  2
Realistic
 70
     8
 71
     2
 72
     3
 73
     0
 90
        2
 40
0.6
 41
30.0
 62
     5
 63
     7
421
 16777215
 74
     0
 91
        0
 64
     7
 65
   257
 75
     1
175
     1
 42
1.0
 92
        8
 66
   257
 43
1.0
 76
     1
 77
     6
 78
     2
 67
     7
 79
     3
170
     0
171
     0
290
     0
174
     0
 93
       13
 44
0.0
173
     0
291
     0
 45
0.0
1001
ACAD
1000
AcDbSavedByObjectVersion
1070
     0
  0
VISUALSTYLE
  5
42
102
{ACAD_REACTORS
330
2A
102
}
102
{ACAD_XDICTIONARY
360
3B2
102
}
330
2A
100
AcDbVisualStyle
  2
Shaded
 70
    27
 71
     2
 72
     2
 73
     1
 90
        2
 40
0.6
 41
30.0
 62
     5
 63
     7
421
 16777215
 74
     0
 91
        4
 64
     7
 65
   257
 75
     1
175
     1
 42
1.0
 92
        8
 66
   257
 43
1.0
 76
     1
 77
     6
 78
     2
 67
     8
425
  7895160
 79
     3
170
     0
171
     0
290
     0
174
     0
 93
        5
 44
0.0
173
     0
291
     0
 45
0.0
1001
ACAD
1000
AcDbSavedByObjectVersion
1070
     0
  0
VISUALSTYLE
  5
41
102
{ACAD_REACTORS
330
2A
102
}
102
{ACAD_XDICTIONARY
360
3B0
102
}
330
2A
100
AcDbVisualStyle
  2
Shaded with edges
 70
    26
 71
     2
 72
     2
 73
     1
 90
        2
 40
0.6
 41
30.0
 62
     5
 63
     7
421
 16777215
 74
     1
 91
       10
 64
     7
 65
   257
 75
     2
175
     1
 42
1.0
 92
        8
 66
   257
 43
1.0
 76
     1
 77
     6
 78
     2
 67
     7
 79
     3
170
     0
171
     0
290
     0
174
     0
 93
        5
 44
0.0
173
     0
291
     0
 45
0.0
1001
ACAD
1000
AcDbSavedByObjectVersion
1070
     0
  0
VISUALSTYLE
  5
3E
102
{ACAD_REACTORS
330
2A
102
}
102
{ACAD_XDICTIONARY
360
3AA
102
}
330
2A
100
AcDbVisualStyle
  2
Shades of Gray
 70
    23
 71
     2
 72
     2
 73
     3
 90
        0
 40
0.6
 41
30.0
 62
     5
 63
     7
421
 16777215
 74
     2
 91
        2
 64
     7
 65
     7
 75
     1
175
     1
 42
40.0
 92
        8
 66
     7
 43
1.0
 76
     1
 77
     6
 78
     2
 67
     7
 79
     3
170
     0
171
     0
290
     0
174
     0
 93
        1
 44
0.0
173
     0
291
     0
 45
0.0
1001
ACAD
1000
AcDbSavedByObjectVersion
1070
     0
  0
VISUALSTYLE
  5
3F
102
{ACAD_REACTORS
330
2A
102
}
102
{ACAD_XDICTIONARY
360
3AC
102
}
330
2A
100
AcDbVisualStyle
  2
Sketchy
 70
    24
 71
     1
 72
     2
 73
     2
 90
        0
 40
0.6
 41
30.0
 62
     5
 63
     7
421
 16777215
 74
     2
 91
        2
 64
     7
 65
     7
 75
     1
175
     1
 42
40.0
 92
       11
 66
     7
 43
1.0
 76
     1
 77
     6
 78
     2
 67
     7
 79
     6
170
     0
171
     0
290
     0
174
     0
 93
        1
 44
0.0
173
     0
291
     0
 45
0.0
1001
ACAD
1000
AcDbSavedByObjectVersion
1070
     0
  0
VISUALSTYLE
  5
37
102
{ACAD_REACTORS
330
2A
102
}
102
{ACAD_XDICTIONARY
360
39C
102
}
330
2A
100
AcDbVisualStyle
  2
Thicken
 70
    13
 71
     2
 72
     2
 73
     0
 90
        0
 40
0.6
 41
30.0
 62
     5
 63
     7
421
 16777215
 74
     1
 91
        4
 64
     7
 65
   257
 75
     1
175
     1
 42
1.0
 92
       12
 66
     7
 43
1.0
 76
     1
 77
     6
 78
     2
 67
     7
 79
     5
170
     0
171
     0
290
     0
174
     0
 93
        1
 44
0.0
173
     0
291
     1
 45
0.0
1001
ACAD
1000
AcDbSavedByObjectVersion
1070
     0
  0
VISUALSTYLE
  5
30
102
{ACAD_REACTORS
330
2A
102
}
102
{ACAD_XDICTIONARY
360
38E
102
}
330
2A
100
AcDbVisualStyle
  2
Wireframe
 70
     5
 71
     0
 72
     2
 73
     0
 90
        0
 40
0.6
 41
30.0
 62
     5
 63
     7
421
 16777215
 74
     1
 91
        4
 64
     7
 65
   257
 75
     1
175
     1
 42
1.0
 92
        0
 66
   257
 43
1.0
 76
     1
 77
     6
 78
     2
 67
     7
 79
     3
170
     0
171
     0
290
     0
174
     0
 93
        1
 44
0.0
173
     0
291
     0
 45
0.0
1001
ACAD
1000
AcDbSavedByObjectVersion
1070
     0
  0
VISUALSTYLE
  5
40
102
{ACAD_REACTORS
330
2A
102
}
102
{ACAD_XDICTIONARY
360
3AE
102
}
330
2A
100
AcDbVisualStyle
  2
X-Ray
 70
    25
 71
     2
 72
     2
 73
     1
 90
        1
 40
0.5
 41
30.0
 62
     5
 63
     7
421
 16777215
 74
     1
 91
        0
 64
     7
 65
   257
 75
     1
175
     1
 42
1.0
 92
        8
 66
     7
 43
1.0
 76
     1
 77
     6
 78
     2
 67
     7
 79
     3
170
     0
171
     0
290
     0
174
     0
 93
       13
 44
0.0
173
     0
291
     0
 45
0.0
1001
ACAD
1000
AcDbSavedByObjectVersion
1070
     0
  0
DICTIONARYVAR
  5
381
102
{ACAD_REACTORS
330
380
102
}
330
380
100
DictionaryVariables
280
     0
  1
1:1
  0
DICTIONARYVAR
  5
3C2
102
{ACAD_REACTORS
330
380
102
}
330
380
100
DictionaryVariables
280
     0
  1
Standard
  0
DICTIONARYVAR
  5
3C1
102
{ACAD_REACTORS
330
380
102
}
330
380
100
DictionaryVariables
280
     0
  1
Standard
  0
DICTIONARYVAR
  5
382
102
{ACAD_REACTORS
330
380
102
}
330
380
100
DictionaryVariables
280
     0
  1
1
  0
DICTIONARYVAR
  5
383
102
{ACAD_REACTORS
330
380
102
}
330
380
100
DictionaryVariables
280
     0
  1
2
  0
DICTIONARY
  5
3B6
330
45
100
AcDbDictionary
280
     1
281
     1
  3
ACAD_XREC_ROUNDTRIP
360
3B7
  0
DICTIONARY
  5
3B4
330
44
100
AcDbDictionary
280
     1
281
     1
  3
ACAD_XREC_ROUNDTRIP
360
3B5
  0
DICTIONARY
  5
3B8
330
46
100
AcDbDictionary
280
     1
281
     1
  3
ACAD_XREC_ROUNDTRIP
360
3B9
  0
DICTIONARY
  5
3BE
330
6C
100
AcDbDictionary
280
     1
281
     1
  3
ACAD_XREC_ROUNDTRIP
360
3BF
  0
DICTIONARY
  5
3BA
330
6A
100
AcDbDictionary
280
     1
281
     1
  3
ACAD_ROUNDTRIP_2008_TABLESTYLE_CELLSTYLEMAP
360
3BC
  3
ACAD_XREC_ROUNDTRIP
360
3BB
  0
DICTIONARY
  5
38C
330
2F
100
AcDbDictionary
280
     1
281
     1
  3
ACAD_XREC_ROUNDTRIP
360
38D
  0
DICTIONARY
  5
392
330
32
100
AcDbDictionary
280
     1
281
     1
  3
ACAD_XREC_ROUNDTRIP
360
393
  0
DICTIONARY
  5
39A
330
36
100
AcDbDictionary
280
     1
281
     1
  3
ACAD_XREC_ROUNDTRIP
360
39B
  0
DICTIONARY
  5
3A2
330
3A
100
AcDbDictionary
280
     1
281
     1
  3
ACAD_XREC_ROUNDTRIP
360
3A3
  0
DICTIONARY
  5
396
330
34
100
AcDbDictionary
280
     1
281
     1
  3
ACAD_XREC_ROUNDTRIP
360
397
  0
DICTIONARY
  5
398
330
35
100
AcDbDictionary
280
     1
281
     1
  3
ACAD_XREC_ROUNDTRIP
360
399
  0
DICTIONARY
  5
3A8
330
3D
100
AcDbDictionary
280
     1
281
     1
  3
ACAD_XREC_ROUNDTRIP
360
3A9
  0
DICTIONARY
  5
3A0
330
39
100
AcDbDictionary
280
     1
281
     1
  3
ACAD_XREC_ROUNDTRIP
360
3A1
  0
DICTIONARY
  5
384
330
2B
100
AcDbDictionary
280
     1
281
     1
  3
ACAD_XREC_ROUNDTRIP
360
385
  0
DICTIONARY
  5
386
330
2C
100
AcDbDictionary
280
     1
281
     1
  3
ACAD_XREC_ROUNDTRIP
360
387
  0
DICTIONARY
  5
388
330
2D
100
AcDbDictionary
280
     1
281
     1
  3
ACAD_XREC_ROUNDTRIP
360
389
  0
DICTIONARY
  5
38A
330
2E
100
AcDbDictionary
280
     1
281
     1
  3
ACAD_XREC_ROUNDTRIP
360
38B
  0
DICTIONARY
  5
390
330
31
100
AcDbDictionary
280
     1
281
     1
  3
ACAD_XREC_ROUNDTRIP
360
391
  0
DICTIONARY
  5
3A4
330
3B
100
AcDbDictionary
280
     1
281
     1
  3
ACAD_XREC_ROUNDTRIP
360
3A5
  0
DICTIONARY
  5
39E
330
38
100
AcDbDictionary
280
     1
281
     1
  3
ACAD_XREC_ROUNDTRIP
360
39F
  0
DICTIONARY
  5
3A6
330
3C
100
AcDbDictionary
280
     1
281
     1
  3
ACAD_XREC_ROUNDTRIP
360
3A7
  0
DICTIONARY
  5
394
330
33
100
AcDbDictionary
280
     1
281
     1
  3
ACAD_XREC_ROUNDTRIP
360
395
  0
DICTIONARY
  5
3B2
330
42
100
AcDbDictionary
280
     1
281
     1
  3
ACAD_XREC_ROUNDTRIP
360
3B3
  0
DICTIONARY
  5
3B0
330
41
100
AcDbDictionary
280
     1
281
     1
  3
ACAD_XREC_ROUNDTRIP
360
3B1
  0
DICTIONARY
  5
3AA
330
3E
100
AcDbDictionary
280
     1
281
     1
  3
ACAD_XREC_ROUNDTRIP
360
3AB
  0
DICTIONARY
  5
3AC
330
3F
100
AcDbDictionary
280
     1
281
     1
  3
ACAD_XREC_ROUNDTRIP
360
3AD
  0
DICTIONARY
  5
39C
330
37
100
AcDbDictionary
280
     1
281
     1
  3
ACAD_XREC_ROUNDTRIP
360
39D
  0
DICTIONARY
  5
38E
330
30
100
AcDbDictionary
280
     1
281
     1
  3
ACAD_XREC_ROUNDTRIP
360
38F
  0
DICTIONARY
  5
3AE
330
40
100
AcDbDictionary
280
     1
281
     1
  3
ACAD_XREC_ROUNDTRIP
360
3AF
  0
XRECORD
  5
3B7
102
{ACAD_REACTORS
330
3B6
102
}
330
3B6
100
AcDbXrecord
280
     1
102
MATERIAL
148
0.0
149
0.0
149
0.0
 93
        0
 94
      127
282
     0
 72
     1
 77
     1
171
     1
175
     1
179
     1
273
     0
  0
XRECORD
  5
3B5
102
{ACAD_REACTORS
330
3B4
102
}
330
3B4
100
AcDbXrecord
280
     1
102
MATERIAL
148
0.0
149
0.0
149
0.0
 93
        0
 94
      127
282
     0
 72
     1
 77
     1
171
     1
175
     1
179
     1
273
     0
  0
XRECORD
  5
3B9
102
{ACAD_REACTORS
330
3B8
102
}
330
3B8
100
AcDbXrecord
280
     1
102
MATERIAL
148
0.0
149
0.0
149
0.0
 93
        0
 94
      127
282
     0
 72
     1
 77
     1
171
     1
175
     1
179
     1
273
     0
  0
XRECORD
  5
3BF
102
{ACAD_REACTORS
330
3BE
102
}
330
3BE
100
AcDbXrecord
280
     1
102
ACAD_ROUNDTRIP_2010_MLEADER_STYLE
  0
CELLSTYLEMAP
  5
3BC
102
{ACAD_REACTORS
330
3BA
102
}
330
3BA
100
AcDbCellStyleMap
 90
        3
300
CELLSTYLE
  1
TABLEFORMAT_BEGIN
 90
        5
170
     1
 91
        0
 92
    32768
 62
   257
 93
        1
300
CONTENTFORMAT
  1
CONTENTFORMAT_BEGIN
 90
        0
 91
        0
 92
        4
 93
        0
300

 40
0.0
140
1.0
 94
        5
 62
     0
340
11
144
0.25
309
CONTENTFORMAT_END
171
     1
301
MARGIN
  1
CELLMARGIN_BEGIN
 40
0.06
 40
0.06
 40
0.06
 40
0.06
 40
0.06
 40
0.06
309
CELLMARGIN_END
 94
        6
 95
        1
302
GRIDFORMAT
  1
GRIDFORMAT_BEGIN
 90
        0
 91
        1
 62
     0
 92
       -2
340
14
 93
        0
 40
0.045
309
GRIDFORMAT_END
 95
        2
302
GRIDFORMAT
  1
GRIDFORMAT_BEGIN
 90
        0
 91
        1
 62
     0
 92
       -2
340
14
 93
        0
 40
0.045
309
GRIDFORMAT_END
 95
        4
302
GRIDFORMAT
  1
GRIDFORMAT_BEGIN
 90
        0
 91
        1
 62
     0
 92
       -2
340
14
 93
        0
 40
0.045
309
GRIDFORMAT_END
 95
        8
302
GRIDFORMAT
  1
GRIDFORMAT_BEGIN
 90
        0
 91
        1
 62
     0
 92
       -2
340
14
 93
        0
 40
0.045
309
GRIDFORMAT_END
 95
       16
302
GRIDFORMAT
  1
GRIDFORMAT_BEGIN
 90
        0
 91
        1
 62
     0
 92
       -2
340
14
 93
        0
 40
0.045
309
GRIDFORMAT_END
 95
       32
302
GRIDFORMAT
  1
GRIDFORMAT_BEGIN
 90
        0
 91
        1
 62
     0
 92
       -2
340
14
 93
        0
 40
0.045
309
GRIDFORMAT_END
309
TABLEFORMAT_END
  1
CELLSTYLE_BEGIN
 90
        1
 91
        1
300
_TITLE
309
CELLSTYLE_END
300
CELLSTYLE
  1
TABLEFORMAT_BEGIN
 90
        5
170
     1
 91
        0
 92
        0
 62
   257
 93
        1
300
CONTENTFORMAT
  1
CONTENTFORMAT_BEGIN
 90
        0
 91
        0
 92
        4
 93
        0
300

 40
0.0
140
1.0
 94
        5
 62
     0
340
11
144
0.18
309
CONTENTFORMAT_END
171
     1
301
MARGIN
  1
CELLMARGIN_BEGIN
 40
0.06
 40
0.06
 40
0.06
 40
0.06
 40
0.06
 40
0.06
309
CELLMARGIN_END
 94
        6
 95
        1
302
GRIDFORMAT
  1
GRIDFORMAT_BEGIN
 90
        0
 91
        1
 62
     0
 92
       -2
340
14
 93
        0
 40
0.045
309
GRIDFORMAT_END
 95
        2
302
GRIDFORMAT
  1
GRIDFORMAT_BEGIN
 90
        0
 91
        1
 62
     0
 92
       -2
340
14
 93
        0
 40
0.045
309
GRIDFORMAT_END
 95
        4
302
GRIDFORMAT
  1
GRIDFORMAT_BEGIN
 90
        0
 91
        1
 62
     0
 92
       -2
340
14
 93
        0
 40
0.045
309
GRIDFORMAT_END
 95
        8
302
GRIDFORMAT
  1
GRIDFORMAT_BEGIN
 90
        0
 91
        1
 62
     0
 92
       -2
340
14
 93
        0
 40
0.045
309
GRIDFORMAT_END
 95
       16
302
GRIDFORMAT
  1
GRIDFORMAT_BEGIN
 90
        0
 91
        1
 62
     0
 92
       -2
340
14
 93
        0
 40
0.045
309
GRIDFORMAT_END
 95
       32
302
GRIDFORMAT
  1
GRIDFORMAT_BEGIN
 90
        0
 91
        1
 62
     0
 92
       -2
340
14
 93
        0
 40
0.045
309
GRIDFORMAT_END
309
TABLEFORMAT_END
  1
CELLSTYLE_BEGIN
 90
        2
 91
        1
300
_HEADER
309
CELLSTYLE_END
300
CELLSTYLE
  1
TABLEFORMAT_BEGIN
 90
        5
170
     1
 91
        0
 92
        0
 62
   257
 93
        1
300
CONTENTFORMAT
  1
CONTENTFORMAT_BEGIN
 90
        0
 91
        0
 92
        4
 93
        0
300

 40
0.0
140
1.0
 94
        2
 62
     0
340
11
144
0.18
309
CONTENTFORMAT_END
171
     1
301
MARGIN
  1
CELLMARGIN_BEGIN
 40
0.06
 40
0.06
 40
0.06
 40
0.06
 40
0.06
 40
0.06
309
CELLMARGIN_END
 94
        6
 95
        1
302
GRIDFORMAT
  1
GRIDFORMAT_BEGIN
 90
        0
 91
        1
 62
     0
 92
       -2
340
14
 93
        0
 40
0.045
309
GRIDFORMAT_END
 95
        2
302
GRIDFORMAT
  1
GRIDFORMAT_BEGIN
 90
        0
 91
        1
 62
     0
 92
       -2
340
14
 93
        0
 40
0.045
309
GRIDFORMAT_END
 95
        4
302
GRIDFORMAT
  1
GRIDFORMAT_BEGIN
 90
        0
 91
        1
 62
     0
 92
       -2
340
14
 93
        0
 40
0.045
309
GRIDFORMAT_END
 95
        8
302
GRIDFORMAT
  1
GRIDFORMAT_BEGIN
 90
        0
 91
        1
 62
     0
 92
       -2
340
14
 93
        0
 40
0.045
309
GRIDFORMAT_END
 95
       16
302
GRIDFORMAT
  1
GRIDFORMAT_BEGIN
 90
        0
 91
        1
 62
     0
 92
       -2
340
14
 93
        0
 40
0.045
309
GRIDFORMAT_END
 95
       32
302
GRIDFORMAT
  1
GRIDFORMAT_BEGIN
 90
        0
 91
        1
 62
     0
 92
       -2
340
14
 93
        0
 40
0.045
309
GRIDFORMAT_END
309
TABLEFORMAT_END
  1
CELLSTYLE_BEGIN
 90
        3
 91
        2
300
_DATA
309
CELLSTYLE_END
  0
XRECORD
  5
3BB
102
{ACAD_REACTORS
330
3BA
102
}
330
3BA
100
AcDbXrecord
280
     1
102
ACAD_ROUNDTRIP_PRE2007_TABLESTYLE
 90
        4
 91
        0
  1

 92
        4
 93
        0
  2

 94
        4
 95
        0
  3

  0
XRECORD
  5
38D
102
{ACAD_REACTORS
330
38C
102
}
330
38C
100
AcDbXrecord
280
     1
102
RTVSPropertyOp0
 70
     1
102
RTVSPropertyOp1
 70
     1
102
RTVSPropertyOp2
 70
     1
102
RTVSPropertyOp3
 70
     1
102
RTVSPropertyOp4
 70
     1
102
RTVSPropertyOp5
 70
     1
102
RTVSPropertyOp6
 70
     1
102
RTVSPropertyOp7
 70
     1
102
RTVSPropertyOp8
 70
     1
102
RTVSPropertyOp9
 70
     1
102
RTVSPropertyOp10
 70
     1
102
RTVSPropertyOp11
 70
     1
102
RTVSPropertyOp12
 70
     1
102
RTVSPropertyOp13
 70
     1
102
RTVSPropertyOp14
 70
     1
102
RTVSPropertyOp15
 70
     1
102
RTVSPropertyOp16
 70
     1
102
RTVSPropertyOp17
 70
     1
102
RTVSPropertyOp18
 70
     1
102
RTVSPropertyOp19
 70
     1
102
RTVSPropertyOp20
 70
     1
102
RTVSPropertyOp21
 70
     1
102
RTVSPropertyOp22
 70
     1
102
RTVSPropertyOp23
 70
     1
102
RTVSPropertyOp24
 70
     1
102
RTVSPropertyOp25
 70
     1
102
RTVSPropertyOp26
 70
     1
102
RTVSPropertyOp27
 70
     1
102
RTVSPropertyOp28
 70
     1
102
RTVSPropertyOp29
 70
     1
102
RTVSPropertyOp30
 70
     1
102
RTVSPropertyOp31
 70
     1
102
RTVSPropertyOp32
 70
     1
102
RTVSPropertyOp33
 70
     1
102
RTVSPropertyOp34
 70
     1
102
RTVSPropertyOp35
 70
     1
102
RTVSPropertyOp36
 70
     1
102
RTVSPropertyOp37
 70
     1
102
RTVSPropertyOp38
 70
     1
102
RTVSPropertyOp39
 70
     1
102
RTVSPropertyOp40
 70
     1
102
RTVSPropertyOp41
 70
     1
102
RTVSPropertyOp42
 70
     1
102
RTVSPropertyOp43
 70
     1
102
RTVSPropertyOp44
 70
     1
102
RTVSPropertyOp45
 70
     1
102
RTVSPropertyOp46
 70
     1
102
RTVSPropertyOp47
 70
     1
102
RTVSPropertyOp48
 70
     1
102
RTVSPropertyOp49
 70
     1
102
RTVSPropertyOp50
 70
     1
102
RTVSPropertyOp51
 70
     0
102
RTVSPropertyOp52
 70
     0
102
RTVSPropertyOp53
 70
     1
102
RTVSPropertyOp54
 70
     1
102
RTVSPropertyOp55
 70
     1
102
RTVSPropertyOp56
 70
     1
102
RTVSPropertyOp57
 70
     1
102
RTVSPost2010Prop28
280
     1
102
RTVSPost2010PropOp28
 70
     1
102
RTVSPost2010Prop29
280
     1
102
RTVSPost2010PropOp29
 70
     1
102
RTVSPost2010Prop30
280
     0
102
RTVSPost2010PropOp30
 70
     1
102
RTVSPost2010Prop31
280
     0
102
RTVSPost2010PropOp31
 70
     1
102
RTVSPost2010Prop32
280
     0
102
RTVSPost2010PropOp32
 70
     1
102
RTVSPost2010Prop33
280
     0
102
RTVSPost2010PropOp33
 70
     1
102
RTVSPost2010Prop34
280
     0
102
RTVSPost2010PropOp34
 70
     1
102
RTVSPost2010Prop35
280
     0
102
RTVSPost2010PropOp35
 70
     1
102
RTVSPost2010Prop36
280
     0
102
RTVSPost2010PropOp36
 70
     1
102
RTVSPost2010Prop37
 90
       50
102
RTVSPost2010PropOp37
 70
     1
102
RTVSPost2010Prop38
140
0.0
102
RTVSPost2010PropOp38
 70
     1
102
RTVSPost2010Prop39
140
1.0
102
RTVSPost2010PropOp39
 70
     1
102
RTVSPost2010Prop40
 90
        0
102
RTVSPost2010PropOp40
 70
     1
102
RTVSPost2010Prop41ColorIndex
 90
       18
102
RTVSPost2010Prop41ColorRGB
 90
        0
102
RTVSPost2010PropOp41
 70
     1
102
RTVSPost2010Prop42
 90
       50
102
RTVSPost2010PropOp42
 70
     1
102
RTVSPost2010Prop43
 90
        3
102
RTVSPost2010PropOp43
 70
     1
102
RTVSPost2010Prop44ColorIndex
 90
        5
102
RTVSPost2010Prop44ColorRGB
 90
      255
102
RTVSPost2010PropOp44
 70
     1
102
RTVSPost2010Prop45
280
     0
102
RTVSPost2010PropOp45
 70
     1
102
RTVSPost2010Prop46
 90
       50
102
RTVSPost2010PropOp46
 70
     1
102
RTVSPost2010Prop47
 90
       50
102
RTVSPost2010PropOp47
 70
     1
102
RTVSPost2010Prop48
 90
       50
102
RTVSPost2010PropOp48
 70
     1
102
RTVSPost2010Prop49
280
     0
102
RTVSPost2010PropOp49
 70
     1
102
RTVSPost2010Prop50
 90
       50
102
RTVSPost2010PropOp50
 70
     1
102
RTVSPost2010Prop51ColorIndex
 90
      256
102
RTVSPost2010Prop51ColorRGB
 90
-16777216
102
RTVSPost2010PropOp51
 70
     0
102
RTVSPost2010Prop52
140
1.0
102
RTVSPost2010PropOp52
 70
     0
102
RTVSPost2010Prop53
 90
        2
102
RTVSPost2010PropOp53
 70
     1
102
RTVSPost2010Prop54
  1
strokes_ogs.tif
102
RTVSPost2010PropOp54
 70
     1
102
RTVSPost2010Prop55
280
     0
102
RTVSPost2010PropOp55
 70
     1
102
RTVSPost2010Prop56
140
1.0
102
RTVSPost2010PropOp56
 70
     1
102
RTVSPost2010Prop57
140
1.0
102
RTVSPost2010PropOp57
 70
     1
  0
XRECORD
  5
393
102
{ACAD_REACTORS
330
392
102
}
330
392
100
AcDbXrecord
280
     1
102
RTVSPropertyOp0
 70
     1
102
RTVSPropertyOp1
 70
     1
102
RTVSPropertyOp2
 70
     1
102
RTVSPropertyOp3
 70
     1
102
RTVSPropertyOp4
 70
     1
102
RTVSPropertyOp5
 70
     1
102
RTVSPropertyOp6
 70
     1
102
RTVSPropertyOp7
 70
     1
102
RTVSPropertyOp8
 70
     1
102
RTVSPropertyOp9
 70
     1
102
RTVSPropertyOp10
 70
     1
102
RTVSPropertyOp11
 70
     1
102
RTVSPropertyOp12
 70
     1
102
RTVSPropertyOp13
 70
     1
102
RTVSPropertyOp14
 70
     1
102
RTVSPropertyOp15
 70
     1
102
RTVSPropertyOp16
 70
     1
102
RTVSPropertyOp17
 70
     1
102
RTVSPropertyOp18
 70
     1
102
RTVSPropertyOp19
 70
     1
102
RTVSPropertyOp20
 70
     1
102
RTVSPropertyOp21
 70
     1
102
RTVSPropertyOp22
 70
     1
102
RTVSPropertyOp23
 70
     1
102
RTVSPropertyOp24
 70
     1
102
RTVSPropertyOp25
 70
     1
102
RTVSPropertyOp26
 70
     1
102
RTVSPropertyOp27
 70
     1
102
RTVSPropertyOp28
 70
     1
102
RTVSPropertyOp29
 70
     1
102
RTVSPropertyOp30
 70
     1
102
RTVSPropertyOp31
 70
     1
102
RTVSPropertyOp32
 70
     1
102
RTVSPropertyOp33
 70
     1
102
RTVSPropertyOp34
 70
     1
102
RTVSPropertyOp35
 70
     1
102
RTVSPropertyOp36
 70
     1
102
RTVSPropertyOp37
 70
     1
102
RTVSPropertyOp38
 70
     1
102
RTVSPropertyOp39
 70
     1
102
RTVSPropertyOp40
 70
     1
102
RTVSPropertyOp41
 70
     1
102
RTVSPropertyOp42
 70
     1
102
RTVSPropertyOp43
 70
     1
102
RTVSPropertyOp44
 70
     1
102
RTVSPropertyOp45
 70
     1
102
RTVSPropertyOp46
 70
     1
102
RTVSPropertyOp47
 70
     1
102
RTVSPropertyOp48
 70
     1
102
RTVSPropertyOp49
 70
     1
102
RTVSPropertyOp50
 70
     1
102
RTVSPropertyOp51
 70
     0
102
RTVSPropertyOp52
 70
     0
102
RTVSPropertyOp53
 70
     1
102
RTVSPropertyOp54
 70
     1
102
RTVSPropertyOp55
 70
     1
102
RTVSPropertyOp56
 70
     1
102
RTVSPropertyOp57
 70
     1
102
RTVSPost2010Prop28
280
     0
102
RTVSPost2010PropOp28
 70
     1
102
RTVSPost2010Prop29
280
     1
102
RTVSPost2010PropOp29
 70
     1
102
RTVSPost2010Prop30
280
     1
102
RTVSPost2010PropOp30
 70
     1
102
RTVSPost2010Prop31
280
     0
102
RTVSPost2010PropOp31
 70
     1
102
RTVSPost2010Prop32
280
     0
102
RTVSPost2010PropOp32
 70
     1
102
RTVSPost2010Prop33
280
     0
102
RTVSPost2010PropOp33
 70
     1
102
RTVSPost2010Prop34
280
     0
102
RTVSPost2010PropOp34
 70
     1
102
RTVSPost2010Prop35
280
     0
102
RTVSPost2010PropOp35
 70
     1
102
RTVSPost2010Prop36
280
     0
102
RTVSPost2010PropOp36
 70
     1
102
RTVSPost2010Prop37
 90
       50
102
RTVSPost2010PropOp37
 70
     1
102
RTVSPost2010Prop38
140
0.0
102
RTVSPost2010PropOp38
 70
     1
102
RTVSPost2010Prop39
140
1.0
102
RTVSPost2010PropOp39
 70
     1
102
RTVSPost2010Prop40
 90
        0
102
RTVSPost2010PropOp40
 70
     1
102
RTVSPost2010Prop41ColorIndex
 90
       18
102
RTVSPost2010Prop41ColorRGB
 90
        0
102
RTVSPost2010PropOp41
 70
     1
102
RTVSPost2010Prop42
 90
       50
102
RTVSPost2010PropOp42
 70
     1
102
RTVSPost2010Prop43
 90
        3
102
RTVSPost2010PropOp43
 70
     1
102
RTVSPost2010Prop44ColorIndex
 90
        5
102
RTVSPost2010Prop44ColorRGB
 90
      255
102
RTVSPost2010PropOp44
 70
     1
102
RTVSPost2010Prop45
280
     0
102
RTVSPost2010PropOp45
 70
     1
102
RTVSPost2010Prop46
 90
       50
102
RTVSPost2010PropOp46
 70
     1
102
RTVSPost2010Prop47
 90
       50
102
RTVSPost2010PropOp47
 70
     1
102
RTVSPost2010Prop48
 90
       50
102
RTVSPost2010PropOp48
 70
     1
102
RTVSPost2010Prop49
280
     0
102
RTVSPost2010PropOp49
 70
     1
102
RTVSPost2010Prop50
 90
       50
102
RTVSPost2010PropOp50
 70
     1
102
RTVSPost2010Prop51ColorIndex
 90
      256
102
RTVSPost2010Prop51ColorRGB
 90
-16777216
102
RTVSPost2010PropOp51
 70
     0
102
RTVSPost2010Prop52
140
1.0
102
RTVSPost2010PropOp52
 70
     0
102
RTVSPost2010Prop53
 90
        2
102
RTVSPost2010PropOp53
 70
     1
102
RTVSPost2010Prop54
  1
strokes_ogs.tif
102
RTVSPost2010PropOp54
 70
     1
102
RTVSPost2010Prop55
280
     0
102
RTVSPost2010PropOp55
 70
     1
102
RTVSPost2010Prop56
140
1.0
102
RTVSPost2010PropOp56
 70
     1
102
RTVSPost2010Prop57
140
1.0
102
RTVSPost2010PropOp57
 70
     1
  0
XRECORD
  5
39B
102
{ACAD_REACTORS
330
39A
102
}
330
39A
100
AcDbXrecord
280
     1
102
RTVSPropertyOp0
 70
     1
102
RTVSPropertyOp1
 70
     1
102
RTVSPropertyOp2
 70
     1
102
RTVSPropertyOp3
 70
     1
102
RTVSPropertyOp4
 70
     1
102
RTVSPropertyOp5
 70
     1
102
RTVSPropertyOp6
 70
     1
102
RTVSPropertyOp7
 70
     1
102
RTVSPropertyOp8
 70
     1
102
RTVSPropertyOp9
 70
     1
102
RTVSPropertyOp10
 70
     1
102
RTVSPropertyOp11
 70
     1
102
RTVSPropertyOp12
 70
     1
102
RTVSPropertyOp13
 70
     1
102
RTVSPropertyOp14
 70
     1
102
RTVSPropertyOp15
 70
     1
102
RTVSPropertyOp16
 70
     1
102
RTVSPropertyOp17
 70
     1
102
RTVSPropertyOp18
 70
     1
102
RTVSPropertyOp19
 70
     1
102
RTVSPropertyOp20
 70
     1
102
RTVSPropertyOp21
 70
     1
102
RTVSPropertyOp22
 70
     1
102
RTVSPropertyOp23
 70
     1
102
RTVSPropertyOp24
 70
     1
102
RTVSPropertyOp25
 70
     1
102
RTVSPropertyOp26
 70
     1
102
RTVSPropertyOp27
 70
     1
102
RTVSPropertyOp28
 70
     1
102
RTVSPropertyOp29
 70
     1
102
RTVSPropertyOp30
 70
     1
102
RTVSPropertyOp31
 70
     1
102
RTVSPropertyOp32
 70
     1
102
RTVSPropertyOp33
 70
     1
102
RTVSPropertyOp34
 70
     1
102
RTVSPropertyOp35
 70
     1
102
RTVSPropertyOp36
 70
     1
102
RTVSPropertyOp37
 70
     1
102
RTVSPropertyOp38
 70
     1
102
RTVSPropertyOp39
 70
     1
102
RTVSPropertyOp40
 70
     1
102
RTVSPropertyOp41
 70
     1
102
RTVSPropertyOp42
 70
     1
102
RTVSPropertyOp43
 70
     1
102
RTVSPropertyOp44
 70
     1
102
RTVSPropertyOp45
 70
     1
102
RTVSPropertyOp46
 70
     1
102
RTVSPropertyOp47
 70
     1
102
RTVSPropertyOp48
 70
     1
102
RTVSPropertyOp49
 70
     1
102
RTVSPropertyOp50
 70
     1
102
RTVSPropertyOp51
 70
     0
102
RTVSPropertyOp52
 70
     0
102
RTVSPropertyOp53
 70
     1
102
RTVSPropertyOp54
 70
     1
102
RTVSPropertyOp55
 70
     1
102
RTVSPropertyOp56
 70
     1
102
RTVSPropertyOp57
 70
     1
102
RTVSPost2010Prop28
280
     0
102
RTVSPost2010PropOp28
 70
     1
102
RTVSPost2010Prop29
280
     1
102
RTVSPost2010PropOp29
 70
     1
102
RTVSPost2010Prop30
280
     1
102
RTVSPost2010PropOp30
 70
     1
102
RTVSPost2010Prop31
280
     0
102
RTVSPost2010PropOp31
 70
     1
102
RTVSPost2010Prop32
280
     0
102
RTVSPost2010PropOp32
 70
     1
102
RTVSPost2010Prop33
280
     0
102
RTVSPost2010PropOp33
 70
     1
102
RTVSPost2010Prop34
280
     0
102
RTVSPost2010PropOp34
 70
     1
102
RTVSPost2010Prop35
280
     0
102
RTVSPost2010PropOp35
 70
     1
102
RTVSPost2010Prop36
280
     0
102
RTVSPost2010PropOp36
 70
     1
102
RTVSPost2010Prop37
 90
       50
102
RTVSPost2010PropOp37
 70
     1
102
RTVSPost2010Prop38
140
0.0
102
RTVSPost2010PropOp38
 70
     1
102
RTVSPost2010Prop39
140
1.0
102
RTVSPost2010PropOp39
 70
     1
102
RTVSPost2010Prop40
 90
        0
102
RTVSPost2010PropOp40
 70
     1
102
RTVSPost2010Prop41ColorIndex
 90
       18
102
RTVSPost2010Prop41ColorRGB
 90
        0
102
RTVSPost2010PropOp41
 70
     1
102
RTVSPost2010Prop42
 90
       50
102
RTVSPost2010PropOp42
 70
     1
102
RTVSPost2010Prop43
 90
        3
102
RTVSPost2010PropOp43
 70
     1
102
RTVSPost2010Prop44ColorIndex
 90
        5
102
RTVSPost2010Prop44ColorRGB
 90
      255
102
RTVSPost2010PropOp44
 70
     1
102
RTVSPost2010Prop45
280
     0
102
RTVSPost2010PropOp45
 70
     1
102
RTVSPost2010Prop46
 90
       50
102
RTVSPost2010PropOp46
 70
     1
102
RTVSPost2010Prop47
 90
       50
102
RTVSPost2010PropOp47
 70
     1
102
RTVSPost2010Prop48
 90
       50
102
RTVSPost2010PropOp48
 70
     1
102
RTVSPost2010Prop49
280
     0
102
RTVSPost2010PropOp49
 70
     1
102
RTVSPost2010Prop50
 90
       50
102
RTVSPost2010PropOp50
 70
     1
102
RTVSPost2010Prop51ColorIndex
 90
      256
102
RTVSPost2010Prop51ColorRGB
 90
-16777216
102
RTVSPost2010PropOp51
 70
     0
102
RTVSPost2010Prop52
140
1.0
102
RTVSPost2010PropOp52
 70
     0
102
RTVSPost2010Prop53
 90
        2
102
RTVSPost2010PropOp53
 70
     1
102
RTVSPost2010Prop54
  1
strokes_ogs.tif
102
RTVSPost2010PropOp54
 70
     1
102
RTVSPost2010Prop55
280
     0
102
RTVSPost2010PropOp55
 70
     1
102
RTVSPost2010Prop56
140
1.0
102
RTVSPost2010PropOp56
 70
     1
102
RTVSPost2010Prop57
140
1.0
102
RTVSPost2010PropOp57
 70
     1
  0
XRECORD
  5
3A3
102
{ACAD_REACTORS
330
3A2
102
}
330
3A2
100
AcDbXrecord
280
     1
102
RTVSPropertyOp0
 70
     1
102
RTVSPropertyOp1
 70
     1
102
RTVSPropertyOp2
 70
     1
102
RTVSPropertyOp3
 70
     1
102
RTVSPropertyOp4
 70
     1
102
RTVSPropertyOp5
 70
     1
102
RTVSPropertyOp6
 70
     1
102
RTVSPropertyOp7
 70
     1
102
RTVSPropertyOp8
 70
     1
102
RTVSPropertyOp9
 70
     1
102
RTVSPropertyOp10
 70
     1
102
RTVSPropertyOp11
 70
     1
102
RTVSPropertyOp12
 70
     1
102
RTVSPropertyOp13
 70
     1
102
RTVSPropertyOp14
 70
     1
102
RTVSPropertyOp15
 70
     1
102
RTVSPropertyOp16
 70
     1
102
RTVSPropertyOp17
 70
     1
102
RTVSPropertyOp18
 70
     1
102
RTVSPropertyOp19
 70
     1
102
RTVSPropertyOp20
 70
     1
102
RTVSPropertyOp21
 70
     1
102
RTVSPropertyOp22
 70
     1
102
RTVSPropertyOp23
 70
     1
102
RTVSPropertyOp24
 70
     1
102
RTVSPropertyOp25
 70
     1
102
RTVSPropertyOp26
 70
     1
102
RTVSPropertyOp27
 70
     1
102
RTVSPropertyOp28
 70
     1
102
RTVSPropertyOp29
 70
     1
102
RTVSPropertyOp30
 70
     1
102
RTVSPropertyOp31
 70
     1
102
RTVSPropertyOp32
 70
     1
102
RTVSPropertyOp33
 70
     1
102
RTVSPropertyOp34
 70
     1
102
RTVSPropertyOp35
 70
     1
102
RTVSPropertyOp36
 70
     1
102
RTVSPropertyOp37
 70
     1
102
RTVSPropertyOp38
 70
     1
102
RTVSPropertyOp39
 70
     1
102
RTVSPropertyOp40
 70
     1
102
RTVSPropertyOp41
 70
     1
102
RTVSPropertyOp42
 70
     1
102
RTVSPropertyOp43
 70
     1
102
RTVSPropertyOp44
 70
     1
102
RTVSPropertyOp45
 70
     1
102
RTVSPropertyOp46
 70
     1
102
RTVSPropertyOp47
 70
     1
102
RTVSPropertyOp48
 70
     1
102
RTVSPropertyOp49
 70
     1
102
RTVSPropertyOp50
 70
     1
102
RTVSPropertyOp51
 70
     0
102
RTVSPropertyOp52
 70
     0
102
RTVSPropertyOp53
 70
     1
102
RTVSPropertyOp54
 70
     1
102
RTVSPropertyOp55
 70
     1
102
RTVSPropertyOp56
 70
     1
102
RTVSPropertyOp57
 70
     1
102
RTVSPost2010Prop28
280
     0
102
RTVSPost2010PropOp28
 70
     1
102
RTVSPost2010Prop29
280
     1
102
RTVSPost2010PropOp29
 70
     1
102
RTVSPost2010Prop30
280
     1
102
RTVSPost2010PropOp30
 70
     1
102
RTVSPost2010Prop31
280
     0
102
RTVSPost2010PropOp31
 70
     1
102
RTVSPost2010Prop32
280
     0
102
RTVSPost2010PropOp32
 70
     1
102
RTVSPost2010Prop33
280
     0
102
RTVSPost2010PropOp33
 70
     1
102
RTVSPost2010Prop34
280
     0
102
RTVSPost2010PropOp34
 70
     1
102
RTVSPost2010Prop35
280
     0
102
RTVSPost2010PropOp35
 70
     1
102
RTVSPost2010Prop36
280
     0
102
RTVSPost2010PropOp36
 70
     1
102
RTVSPost2010Prop37
 90
       50
102
RTVSPost2010PropOp37
 70
     1
102
RTVSPost2010Prop38
140
0.0
102
RTVSPost2010PropOp38
 70
     1
102
RTVSPost2010Prop39
140
1.0
102
RTVSPost2010PropOp39
 70
     1
102
RTVSPost2010Prop40
 90
        0
102
RTVSPost2010PropOp40
 70
     1
102
RTVSPost2010Prop41ColorIndex
 90
       18
102
RTVSPost2010Prop41ColorRGB
 90
        0
102
RTVSPost2010PropOp41
 70
     1
102
RTVSPost2010Prop42
 90
       50
102
RTVSPost2010PropOp42
 70
     1
102
RTVSPost2010Prop43
 90
        3
102
RTVSPost2010PropOp43
 70
     1
102
RTVSPost2010Prop44ColorIndex
 90
        5
102
RTVSPost2010Prop44ColorRGB
 90
      255
102
RTVSPost2010PropOp44
 70
     1
102
RTVSPost2010Prop45
280
     0
102
RTVSPost2010PropOp45
 70
     1
102
RTVSPost2010Prop46
 90
       50
102
RTVSPost2010PropOp46
 70
     1
102
RTVSPost2010Prop47
 90
       50
102
RTVSPost2010PropOp47
 70
     1
102
RTVSPost2010Prop48
 90
       50
102
RTVSPost2010PropOp48
 70
     1
102
RTVSPost2010Prop49
280
     0
102
RTVSPost2010PropOp49
 70
     1
102
RTVSPost2010Prop50
 90
       50
102
RTVSPost2010PropOp50
 70
     1
102
RTVSPost2010Prop51ColorIndex
 90
      256
102
RTVSPost2010Prop51ColorRGB
 90
-16777216
102
RTVSPost2010PropOp51
 70
     0
102
RTVSPost2010Prop52
140
1.0
102
RTVSPost2010PropOp52
 70
     0
102
RTVSPost2010Prop53
 90
        2
102
RTVSPost2010PropOp53
 70
     1
102
RTVSPost2010Prop54
  1
strokes_ogs.tif
102
RTVSPost2010PropOp54
 70
     1
102
RTVSPost2010Prop55
280
     0
102
RTVSPost2010PropOp55
 70
     1
102
RTVSPost2010Prop56
140
1.0
102
RTVSPost2010PropOp56
 70
     1
102
RTVSPost2010Prop57
140
1.0
102
RTVSPost2010PropOp57
 70
     1
  0
XRECORD
  5
397
102
{ACAD_REACTORS
330
396
102
}
330
396
100
AcDbXrecord
280
     1
102
RTVSPropertyOp0
 70
     1
102
RTVSPropertyOp1
 70
     1
102
RTVSPropertyOp2
 70
     1
102
RTVSPropertyOp3
 70
     1
102
RTVSPropertyOp4
 70
     1
102
RTVSPropertyOp5
 70
     1
102
RTVSPropertyOp6
 70
     1
102
RTVSPropertyOp7
 70
     1
102
RTVSPropertyOp8
 70
     1
102
RTVSPropertyOp9
 70
     1
102
RTVSPropertyOp10
 70
     1
102
RTVSPropertyOp11
 70
     1
102
RTVSPropertyOp12
 70
     1
102
RTVSPropertyOp13
 70
     1
102
RTVSPropertyOp14
 70
     1
102
RTVSPropertyOp15
 70
     1
102
RTVSPropertyOp16
 70
     1
102
RTVSPropertyOp17
 70
     1
102
RTVSPropertyOp18
 70
     1
102
RTVSPropertyOp19
 70
     1
102
RTVSPropertyOp20
 70
     1
102
RTVSPropertyOp21
 70
     1
102
RTVSPropertyOp22
 70
     1
102
RTVSPropertyOp23
 70
     1
102
RTVSPropertyOp24
 70
     1
102
RTVSPropertyOp25
 70
     1
102
RTVSPropertyOp26
 70
     1
102
RTVSPropertyOp27
 70
     1
102
RTVSPropertyOp28
 70
     1
102
RTVSPropertyOp29
 70
     1
102
RTVSPropertyOp30
 70
     1
102
RTVSPropertyOp31
 70
     1
102
RTVSPropertyOp32
 70
     1
102
RTVSPropertyOp33
 70
     1
102
RTVSPropertyOp34
 70
     1
102
RTVSPropertyOp35
 70
     1
102
RTVSPropertyOp36
 70
     1
102
RTVSPropertyOp37
 70
     1
102
RTVSPropertyOp38
 70
     1
102
RTVSPropertyOp39
 70
     1
102
RTVSPropertyOp40
 70
     1
102
RTVSPropertyOp41
 70
     1
102
RTVSPropertyOp42
 70
     1
102
RTVSPropertyOp43
 70
     1
102
RTVSPropertyOp44
 70
     1
102
RTVSPropertyOp45
 70
     1
102
RTVSPropertyOp46
 70
     1
102
RTVSPropertyOp47
 70
     1
102
RTVSPropertyOp48
 70
     1
102
RTVSPropertyOp49
 70
     1
102
RTVSPropertyOp50
 70
     1
102
RTVSPropertyOp51
 70
     0
102
RTVSPropertyOp52
 70
     0
102
RTVSPropertyOp53
 70
     1
102
RTVSPropertyOp54
 70
     1
102
RTVSPropertyOp55
 70
     1
102
RTVSPropertyOp56
 70
     1
102
RTVSPropertyOp57
 70
     1
102
RTVSPost2010Prop28
280
     0
102
RTVSPost2010PropOp28
 70
     1
102
RTVSPost2010Prop29
280
     1
102
RTVSPost2010PropOp29
 70
     1
102
RTVSPost2010Prop30
280
     1
102
RTVSPost2010PropOp30
 70
     1
102
RTVSPost2010Prop31
280
     0
102
RTVSPost2010PropOp31
 70
     1
102
RTVSPost2010Prop32
280
     0
102
RTVSPost2010PropOp32
 70
     1
102
RTVSPost2010Prop33
280
     0
102
RTVSPost2010PropOp33
 70
     1
102
RTVSPost2010Prop34
280
     0
102
RTVSPost2010PropOp34
 70
     1
102
RTVSPost2010Prop35
280
     0
102
RTVSPost2010PropOp35
 70
     1
102
RTVSPost2010Prop36
280
     0
102
RTVSPost2010PropOp36
 70
     1
102
RTVSPost2010Prop37
 90
       50
102
RTVSPost2010PropOp37
 70
     1
102
RTVSPost2010Prop38
140
0.0
102
RTVSPost2010PropOp38
 70
     1
102
RTVSPost2010Prop39
140
1.0
102
RTVSPost2010PropOp39
 70
     1
102
RTVSPost2010Prop40
 90
        0
102
RTVSPost2010PropOp40
 70
     1
102
RTVSPost2010Prop41ColorIndex
 90
       18
102
RTVSPost2010Prop41ColorRGB
 90
        0
102
RTVSPost2010PropOp41
 70
     1
102
RTVSPost2010Prop42
 90
       50
102
RTVSPost2010PropOp42
 70
     1
102
RTVSPost2010Prop43
 90
        3
102
RTVSPost2010PropOp43
 70
     1
102
RTVSPost2010Prop44ColorIndex
 90
        5
102
RTVSPost2010Prop44ColorRGB
 90
      255
102
RTVSPost2010PropOp44
 70
     1
102
RTVSPost2010Prop45
280
     0
102
RTVSPost2010PropOp45
 70
     1
102
RTVSPost2010Prop46
 90
       50
102
RTVSPost2010PropOp46
 70
     1
102
RTVSPost2010Prop47
 90
       50
102
RTVSPost2010PropOp47
 70
     1
102
RTVSPost2010Prop48
 90
       50
102
RTVSPost2010PropOp48
 70
     1
102
RTVSPost2010Prop49
280
     0
102
RTVSPost2010PropOp49
 70
     1
102
RTVSPost2010Prop50
 90
       50
102
RTVSPost2010PropOp50
 70
     1
102
RTVSPost2010Prop51ColorIndex
 90
      256
102
RTVSPost2010Prop51ColorRGB
 90
-16777216
102
RTVSPost2010PropOp51
 70
     0
102
RTVSPost2010Prop52
140
1.0
102
RTVSPost2010PropOp52
 70
     0
102
RTVSPost2010Prop53
 90
        2
102
RTVSPost2010PropOp53
 70
     1
102
RTVSPost2010Prop54
  1
strokes_ogs.tif
102
RTVSPost2010PropOp54
 70
     1
102
RTVSPost2010Prop55
280
     0
102
RTVSPost2010PropOp55
 70
     1
102
RTVSPost2010Prop56
140
1.0
102
RTVSPost2010PropOp56
 70
     1
102
RTVSPost2010Prop57
140
1.0
102
RTVSPost2010PropOp57
 70
     1
  0
XRECORD
  5
399
102
{ACAD_REACTORS
330
398
102
}
330
398
100
AcDbXrecord
280
     1
102
RTVSPropertyOp0
 70
     1
102
RTVSPropertyOp1
 70
     1
102
RTVSPropertyOp2
 70
     1
102
RTVSPropertyOp3
 70
     1
102
RTVSPropertyOp4
 70
     1
102
RTVSPropertyOp5
 70
     1
102
RTVSPropertyOp6
 70
     1
102
RTVSPropertyOp7
 70
     1
102
RTVSPropertyOp8
 70
     1
102
RTVSPropertyOp9
 70
     1
102
RTVSPropertyOp10
 70
     1
102
RTVSPropertyOp11
 70
     1
102
RTVSPropertyOp12
 70
     1
102
RTVSPropertyOp13
 70
     1
102
RTVSPropertyOp14
 70
     1
102
RTVSPropertyOp15
 70
     1
102
RTVSPropertyOp16
 70
     1
102
RTVSPropertyOp17
 70
     1
102
RTVSPropertyOp18
 70
     1
102
RTVSPropertyOp19
 70
     1
102
RTVSPropertyOp20
 70
     1
102
RTVSPropertyOp21
 70
     1
102
RTVSPropertyOp22
 70
     1
102
RTVSPropertyOp23
 70
     1
102
RTVSPropertyOp24
 70
     1
102
RTVSPropertyOp25
 70
     1
102
RTVSPropertyOp26
 70
     1
102
RTVSPropertyOp27
 70
     1
102
RTVSPropertyOp28
 70
     1
102
RTVSPropertyOp29
 70
     1
102
RTVSPropertyOp30
 70
     1
102
RTVSPropertyOp31
 70
     1
102
RTVSPropertyOp32
 70
     1
102
RTVSPropertyOp33
 70
     1
102
RTVSPropertyOp34
 70
     1
102
RTVSPropertyOp35
 70
     1
102
RTVSPropertyOp36
 70
     1
102
RTVSPropertyOp37
 70
     1
102
RTVSPropertyOp38
 70
     1
102
RTVSPropertyOp39
 70
     1
102
RTVSPropertyOp40
 70
     1
102
RTVSPropertyOp41
 70
     1
102
RTVSPropertyOp42
 70
     1
102
RTVSPropertyOp43
 70
     1
102
RTVSPropertyOp44
 70
     1
102
RTVSPropertyOp45
 70
     1
102
RTVSPropertyOp46
 70
     1
102
RTVSPropertyOp47
 70
     1
102
RTVSPropertyOp48
 70
     1
102
RTVSPropertyOp49
 70
     1
102
RTVSPropertyOp50
 70
     1
102
RTVSPropertyOp51
 70
     0
102
RTVSPropertyOp52
 70
     0
102
RTVSPropertyOp53
 70
     1
102
RTVSPropertyOp54
 70
     1
102
RTVSPropertyOp55
 70
     1
102
RTVSPropertyOp56
 70
     1
102
RTVSPropertyOp57
 70
     1
102
RTVSPost2010Prop28
280
     0
102
RTVSPost2010PropOp28
 70
     1
102
RTVSPost2010Prop29
280
     1
102
RTVSPost2010PropOp29
 70
     1
102
RTVSPost2010Prop30
280
     1
102
RTVSPost2010PropOp30
 70
     1
102
RTVSPost2010Prop31
280
     0
102
RTVSPost2010PropOp31
 70
     1
102
RTVSPost2010Prop32
280
     0
102
RTVSPost2010PropOp32
 70
     1
102
RTVSPost2010Prop33
280
     0
102
RTVSPost2010PropOp33
 70
     1
102
RTVSPost2010Prop34
280
     0
102
RTVSPost2010PropOp34
 70
     1
102
RTVSPost2010Prop35
280
     0
102
RTVSPost2010PropOp35
 70
     1
102
RTVSPost2010Prop36
280
     0
102
RTVSPost2010PropOp36
 70
     1
102
RTVSPost2010Prop37
 90
       50
102
RTVSPost2010PropOp37
 70
     1
102
RTVSPost2010Prop38
140
0.0
102
RTVSPost2010PropOp38
 70
     1
102
RTVSPost2010Prop39
140
1.0
102
RTVSPost2010PropOp39
 70
     1
102
RTVSPost2010Prop40
 90
        0
102
RTVSPost2010PropOp40
 70
     1
102
RTVSPost2010Prop41ColorIndex
 90
       18
102
RTVSPost2010Prop41ColorRGB
 90
        0
102
RTVSPost2010PropOp41
 70
     1
102
RTVSPost2010Prop42
 90
       50
102
RTVSPost2010PropOp42
 70
     1
102
RTVSPost2010Prop43
 90
        3
102
RTVSPost2010PropOp43
 70
     1
102
RTVSPost2010Prop44ColorIndex
 90
        5
102
RTVSPost2010Prop44ColorRGB
 90
      255
102
RTVSPost2010PropOp44
 70
     1
102
RTVSPost2010Prop45
280
     0
102
RTVSPost2010PropOp45
 70
     1
102
RTVSPost2010Prop46
 90
       50
102
RTVSPost2010PropOp46
 70
     1
102
RTVSPost2010Prop47
 90
       50
102
RTVSPost2010PropOp47
 70
     1
102
RTVSPost2010Prop48
 90
       50
102
RTVSPost2010PropOp48
 70
     1
102
RTVSPost2010Prop49
280
     0
102
RTVSPost2010PropOp49
 70
     1
102
RTVSPost2010Prop50
 90
       50
102
RTVSPost2010PropOp50
 70
     1
102
RTVSPost2010Prop51ColorIndex
 90
      256
102
RTVSPost2010Prop51ColorRGB
 90
-16777216
102
RTVSPost2010PropOp51
 70
     0
102
RTVSPost2010Prop52
140
1.0
102
RTVSPost2010PropOp52
 70
     0
102
RTVSPost2010Prop53
 90
        2
102
RTVSPost2010PropOp53
 70
     1
102
RTVSPost2010Prop54
  1
strokes_ogs.tif
102
RTVSPost2010PropOp54
 70
     1
102
RTVSPost2010Prop55
280
     0
102
RTVSPost2010PropOp55
 70
     1
102
RTVSPost2010Prop56
140
1.0
102
RTVSPost2010PropOp56
 70
     1
102
RTVSPost2010Prop57
140
1.0
102
RTVSPost2010PropOp57
 70
     1
  0
XRECORD
  5
3A9
102
{ACAD_REACTORS
330
3A8
102
}
330
3A8
100
AcDbXrecord
280
     1
102
RTVSPropertyOp0
 70
     0
102
RTVSPropertyOp1
 70
     0
102
RTVSPropertyOp2
 70
     0
102
RTVSPropertyOp3
 70
     0
102
RTVSPropertyOp4
 70
     0
102
RTVSPropertyOp5
 70
     0
102
RTVSPropertyOp6
 70
     0
102
RTVSPropertyOp7
 70
     0
102
RTVSPropertyOp8
 70
     0
102
RTVSPropertyOp9
 70
     0
102
RTVSPropertyOp10
 70
     0
102
RTVSPropertyOp11
 70
     0
102
RTVSPropertyOp12
 70
     0
102
RTVSPropertyOp13
 70
     0
102
RTVSPropertyOp14
 70
     2
102
RTVSPropertyOp15
 70
     0
102
RTVSPropertyOp16
 70
     0
102
RTVSPropertyOp17
 70
     0
102
RTVSPropertyOp18
 70
     0
102
RTVSPropertyOp19
 70
     0
102
RTVSPropertyOp20
 70
     0
102
RTVSPropertyOp21
 70
     0
102
RTVSPropertyOp22
 70
     0
102
RTVSPropertyOp23
 70
     0
102
RTVSPropertyOp24
 70
     0
102
RTVSPropertyOp25
 70
     0
102
RTVSPropertyOp26
 70
     0
102
RTVSPropertyOp27
 70
     0
102
RTVSPropertyOp28
 70
     0
102
RTVSPropertyOp29
 70
     0
102
RTVSPropertyOp30
 70
     0
102
RTVSPropertyOp31
 70
     0
102
RTVSPropertyOp32
 70
     0
102
RTVSPropertyOp33
 70
     0
102
RTVSPropertyOp34
 70
     0
102
RTVSPropertyOp35
 70
     0
102
RTVSPropertyOp36
 70
     0
102
RTVSPropertyOp37
 70
     0
102
RTVSPropertyOp38
 70
     0
102
RTVSPropertyOp39
 70
     0
102
RTVSPropertyOp40
 70
     0
102
RTVSPropertyOp41
 70
     0
102
RTVSPropertyOp42
 70
     0
102
RTVSPropertyOp43
 70
     0
102
RTVSPropertyOp44
 70
     0
102
RTVSPropertyOp45
 70
     0
102
RTVSPropertyOp46
 70
     0
102
RTVSPropertyOp47
 70
     0
102
RTVSPropertyOp48
 70
     0
102
RTVSPropertyOp49
 70
     0
102
RTVSPropertyOp50
 70
     0
102
RTVSPropertyOp51
 70
     0
102
RTVSPropertyOp52
 70
     0
102
RTVSPropertyOp53
 70
     0
102
RTVSPropertyOp54
 70
     0
102
RTVSPropertyOp55
 70
     0
102
RTVSPropertyOp56
 70
     0
102
RTVSPropertyOp57
 70
     0
102
RTVSPost2010Prop28
280
     0
102
RTVSPost2010PropOp28
 70
     0
102
RTVSPost2010Prop29
280
     1
102
RTVSPost2010PropOp29
 70
     0
102
RTVSPost2010Prop30
280
     1
102
RTVSPost2010PropOp30
 70
     0
102
RTVSPost2010Prop31
280
     0
102
RTVSPost2010PropOp31
 70
     0
102
RTVSPost2010Prop32
280
     0
102
RTVSPost2010PropOp32
 70
     0
102
RTVSPost2010Prop33
280
     0
102
RTVSPost2010PropOp33
 70
     0
102
RTVSPost2010Prop34
280
     0
102
RTVSPost2010PropOp34
 70
     0
102
RTVSPost2010Prop35
280
     0
102
RTVSPost2010PropOp35
 70
     0
102
RTVSPost2010Prop36
280
     0
102
RTVSPost2010PropOp36
 70
     0
102
RTVSPost2010Prop37
 90
       50
102
RTVSPost2010PropOp37
 70
     0
102
RTVSPost2010Prop38
140
0.0
102
RTVSPost2010PropOp38
 70
     0
102
RTVSPost2010Prop39
140
1.0
102
RTVSPost2010PropOp39
 70
     0
102
RTVSPost2010Prop40
 90
        0
102
RTVSPost2010PropOp40
 70
     0
102
RTVSPost2010Prop41ColorIndex
 90
       18
102
RTVSPost2010Prop41ColorRGB
 90
        0
102
RTVSPost2010PropOp41
 70
     0
102
RTVSPost2010Prop42
 90
       50
102
RTVSPost2010PropOp42
 70
     0
102
RTVSPost2010Prop43
 90
        3
102
RTVSPost2010PropOp43
 70
     0
102
RTVSPost2010Prop44ColorIndex
 90
        5
102
RTVSPost2010Prop44ColorRGB
 90
      255
102
RTVSPost2010PropOp44
 70
     0
102
RTVSPost2010Prop45
280
     0
102
RTVSPost2010PropOp45
 70
     0
102
RTVSPost2010Prop46
 90
       50
102
RTVSPost2010PropOp46
 70
     0
102
RTVSPost2010Prop47
 90
       50
102
RTVSPost2010PropOp47
 70
     0
102
RTVSPost2010Prop48
 90
       50
102
RTVSPost2010PropOp48
 70
     0
102
RTVSPost2010Prop49
280
     0
102
RTVSPost2010PropOp49
 70
     0
102
RTVSPost2010Prop50
 90
       50
102
RTVSPost2010PropOp50
 70
     0
102
RTVSPost2010Prop51ColorIndex
 90
      256
102
RTVSPost2010Prop51ColorRGB
 90
-16777216
102
RTVSPost2010PropOp51
 70
     0
102
RTVSPost2010Prop52
140
1.0
102
RTVSPost2010PropOp52
 70
     0
102
RTVSPost2010Prop53
 90
        2
102
RTVSPost2010PropOp53
 70
     0
102
RTVSPost2010Prop54
  1
strokes_ogs.tif
102
RTVSPost2010PropOp54
 70
     0
102
RTVSPost2010Prop55
280
     0
102
RTVSPost2010PropOp55
 70
     0
102
RTVSPost2010Prop56
140
1.0
102
RTVSPost2010PropOp56
 70
     0
102
RTVSPost2010Prop57
140
1.0
102
RTVSPost2010PropOp57
 70
     0
  0
XRECORD
  5
3A1
102
{ACAD_REACTORS
330
3A0
102
}
330
3A0
100
AcDbXrecord
280
     1
102
RTVSPropertyOp0
 70
     1
102
RTVSPropertyOp1
 70
     1
102
RTVSPropertyOp2
 70
     1
102
RTVSPropertyOp3
 70
     1
102
RTVSPropertyOp4
 70
     1
102
RTVSPropertyOp5
 70
     1
102
RTVSPropertyOp6
 70
     1
102
RTVSPropertyOp7
 70
     1
102
RTVSPropertyOp8
 70
     1
102
RTVSPropertyOp9
 70
     1
102
RTVSPropertyOp10
 70
     1
102
RTVSPropertyOp11
 70
     1
102
RTVSPropertyOp12
 70
     1
102
RTVSPropertyOp13
 70
     1
102
RTVSPropertyOp14
 70
     1
102
RTVSPropertyOp15
 70
     1
102
RTVSPropertyOp16
 70
     1
102
RTVSPropertyOp17
 70
     1
102
RTVSPropertyOp18
 70
     1
102
RTVSPropertyOp19
 70
     1
102
RTVSPropertyOp20
 70
     1
102
RTVSPropertyOp21
 70
     1
102
RTVSPropertyOp22
 70
     1
102
RTVSPropertyOp23
 70
     1
102
RTVSPropertyOp24
 70
     1
102
RTVSPropertyOp25
 70
     1
102
RTVSPropertyOp26
 70
     1
102
RTVSPropertyOp27
 70
     1
102
RTVSPropertyOp28
 70
     1
102
RTVSPropertyOp29
 70
     1
102
RTVSPropertyOp30
 70
     1
102
RTVSPropertyOp31
 70
     1
102
RTVSPropertyOp32
 70
     1
102
RTVSPropertyOp33
 70
     1
102
RTVSPropertyOp34
 70
     1
102
RTVSPropertyOp35
 70
     1
102
RTVSPropertyOp36
 70
     1
102
RTVSPropertyOp37
 70
     1
102
RTVSPropertyOp38
 70
     1
102
RTVSPropertyOp39
 70
     1
102
RTVSPropertyOp40
 70
     1
102
RTVSPropertyOp41
 70
     1
102
RTVSPropertyOp42
 70
     1
102
RTVSPropertyOp43
 70
     1
102
RTVSPropertyOp44
 70
     1
102
RTVSPropertyOp45
 70
     1
102
RTVSPropertyOp46
 70
     1
102
RTVSPropertyOp47
 70
     1
102
RTVSPropertyOp48
 70
     1
102
RTVSPropertyOp49
 70
     1
102
RTVSPropertyOp50
 70
     1
102
RTVSPropertyOp51
 70
     0
102
RTVSPropertyOp52
 70
     0
102
RTVSPropertyOp53
 70
     1
102
RTVSPropertyOp54
 70
     1
102
RTVSPropertyOp55
 70
     1
102
RTVSPropertyOp56
 70
     1
102
RTVSPropertyOp57
 70
     1
102
RTVSPost2010Prop28
280
     0
102
RTVSPost2010PropOp28
 70
     1
102
RTVSPost2010Prop29
280
     1
102
RTVSPost2010PropOp29
 70
     1
102
RTVSPost2010Prop30
280
     1
102
RTVSPost2010PropOp30
 70
     1
102
RTVSPost2010Prop31
280
     0
102
RTVSPost2010PropOp31
 70
     1
102
RTVSPost2010Prop32
280
     0
102
RTVSPost2010PropOp32
 70
     1
102
RTVSPost2010Prop33
280
     0
102
RTVSPost2010PropOp33
 70
     1
102
RTVSPost2010Prop34
280
     0
102
RTVSPost2010PropOp34
 70
     1
102
RTVSPost2010Prop35
280
     0
102
RTVSPost2010PropOp35
 70
     1
102
RTVSPost2010Prop36
280
     0
102
RTVSPost2010PropOp36
 70
     1
102
RTVSPost2010Prop37
 90
       50
102
RTVSPost2010PropOp37
 70
     1
102
RTVSPost2010Prop38
140
0.0
102
RTVSPost2010PropOp38
 70
     1
102
RTVSPost2010Prop39
140
1.0
102
RTVSPost2010PropOp39
 70
     1
102
RTVSPost2010Prop40
 90
        0
102
RTVSPost2010PropOp40
 70
     1
102
RTVSPost2010Prop41ColorIndex
 90
       18
102
RTVSPost2010Prop41ColorRGB
 90
        0
102
RTVSPost2010PropOp41
 70
     1
102
RTVSPost2010Prop42
 90
       50
102
RTVSPost2010PropOp42
 70
     1
102
RTVSPost2010Prop43
 90
        3
102
RTVSPost2010PropOp43
 70
     1
102
RTVSPost2010Prop44ColorIndex
 90
        5
102
RTVSPost2010Prop44ColorRGB
 90
      255
102
RTVSPost2010PropOp44
 70
     1
102
RTVSPost2010Prop45
280
     0
102
RTVSPost2010PropOp45
 70
     1
102
RTVSPost2010Prop46
 90
       50
102
RTVSPost2010PropOp46
 70
     1
102
RTVSPost2010Prop47
 90
       50
102
RTVSPost2010PropOp47
 70
     1
102
RTVSPost2010Prop48
 90
       50
102
RTVSPost2010PropOp48
 70
     1
102
RTVSPost2010Prop49
280
     0
102
RTVSPost2010PropOp49
 70
     1
102
RTVSPost2010Prop50
 90
       50
102
RTVSPost2010PropOp50
 70
     1
102
RTVSPost2010Prop51ColorIndex
 90
      256
102
RTVSPost2010Prop51ColorRGB
 90
-16777216
102
RTVSPost2010PropOp51
 70
     0
102
RTVSPost2010Prop52
140
1.0
102
RTVSPost2010PropOp52
 70
     0
102
RTVSPost2010Prop53
 90
        2
102
RTVSPost2010PropOp53
 70
     1
102
RTVSPost2010Prop54
  1
strokes_ogs.tif
102
RTVSPost2010PropOp54
 70
     1
102
RTVSPost2010Prop55
280
     0
102
RTVSPost2010PropOp55
 70
     1
102
RTVSPost2010Prop56
140
1.0
102
RTVSPost2010PropOp56
 70
     1
102
RTVSPost2010Prop57
140
1.0
102
RTVSPost2010PropOp57
 70
     1
  0
XRECORD
  5
385
102
{ACAD_REACTORS
330
384
102
}
330
384
100
AcDbXrecord
280
     1
102
RTVSPropertyOp0
 70
     1
102
RTVSPropertyOp1
 70
     1
102
RTVSPropertyOp2
 70
     1
102
RTVSPropertyOp3
 70
     1
102
RTVSPropertyOp4
 70
     1
102
RTVSPropertyOp5
 70
     1
102
RTVSPropertyOp6
 70
     1
102
RTVSPropertyOp7
 70
     1
102
RTVSPropertyOp8
 70
     1
102
RTVSPropertyOp9
 70
     1
102
RTVSPropertyOp10
 70
     1
102
RTVSPropertyOp11
 70
     1
102
RTVSPropertyOp12
 70
     1
102
RTVSPropertyOp13
 70
     1
102
RTVSPropertyOp14
 70
     1
102
RTVSPropertyOp15
 70
     1
102
RTVSPropertyOp16
 70
     1
102
RTVSPropertyOp17
 70
     1
102
RTVSPropertyOp18
 70
     1
102
RTVSPropertyOp19
 70
     1
102
RTVSPropertyOp20
 70
     1
102
RTVSPropertyOp21
 70
     1
102
RTVSPropertyOp22
 70
     1
102
RTVSPropertyOp23
 70
     1
102
RTVSPropertyOp24
 70
     1
102
RTVSPropertyOp25
 70
     1
102
RTVSPropertyOp26
 70
     1
102
RTVSPropertyOp27
 70
     1
102
RTVSPropertyOp28
 70
     1
102
RTVSPropertyOp29
 70
     1
102
RTVSPropertyOp30
 70
     1
102
RTVSPropertyOp31
 70
     1
102
RTVSPropertyOp32
 70
     1
102
RTVSPropertyOp33
 70
     1
102
RTVSPropertyOp34
 70
     1
102
RTVSPropertyOp35
 70
     1
102
RTVSPropertyOp36
 70
     1
102
RTVSPropertyOp37
 70
     1
102
RTVSPropertyOp38
 70
     1
102
RTVSPropertyOp39
 70
     1
102
RTVSPropertyOp40
 70
     1
102
RTVSPropertyOp41
 70
     1
102
RTVSPropertyOp42
 70
     1
102
RTVSPropertyOp43
 70
     1
102
RTVSPropertyOp44
 70
     1
102
RTVSPropertyOp45
 70
     1
102
RTVSPropertyOp46
 70
     1
102
RTVSPropertyOp47
 70
     1
102
RTVSPropertyOp48
 70
     1
102
RTVSPropertyOp49
 70
     1
102
RTVSPropertyOp50
 70
     1
102
RTVSPropertyOp51
 70
     0
102
RTVSPropertyOp52
 70
     0
102
RTVSPropertyOp53
 70
     1
102
RTVSPropertyOp54
 70
     1
102
RTVSPropertyOp55
 70
     1
102
RTVSPropertyOp56
 70
     1
102
RTVSPropertyOp57
 70
     1
102
RTVSPost2010Prop28
280
     0
102
RTVSPost2010PropOp28
 70
     1
102
RTVSPost2010Prop29
280
     1
102
RTVSPost2010PropOp29
 70
     1
102
RTVSPost2010Prop30
280
     1
102
RTVSPost2010PropOp30
 70
     1
102
RTVSPost2010Prop31
280
     0
102
RTVSPost2010PropOp31
 70
     1
102
RTVSPost2010Prop32
280
     0
102
RTVSPost2010PropOp32
 70
     1
102
RTVSPost2010Prop33
280
     0
102
RTVSPost2010PropOp33
 70
     1
102
RTVSPost2010Prop34
280
     0
102
RTVSPost2010PropOp34
 70
     1
102
RTVSPost2010Prop35
280
     0
102
RTVSPost2010PropOp35
 70
     1
102
RTVSPost2010Prop36
280
     0
102
RTVSPost2010PropOp36
 70
     1
102
RTVSPost2010Prop37
 90
       50
102
RTVSPost2010PropOp37
 70
     1
102
RTVSPost2010Prop38
140
0.0
102
RTVSPost2010PropOp38
 70
     1
102
RTVSPost2010Prop39
140
1.0
102
RTVSPost2010PropOp39
 70
     1
102
RTVSPost2010Prop40
 90
        0
102
RTVSPost2010PropOp40
 70
     1
102
RTVSPost2010Prop41ColorIndex
 90
       18
102
RTVSPost2010Prop41ColorRGB
 90
        0
102
RTVSPost2010PropOp41
 70
     1
102
RTVSPost2010Prop42
 90
       50
102
RTVSPost2010PropOp42
 70
     1
102
RTVSPost2010Prop43
 90
        3
102
RTVSPost2010PropOp43
 70
     1
102
RTVSPost2010Prop44ColorIndex
 90
        5
102
RTVSPost2010Prop44ColorRGB
 90
      255
102
RTVSPost2010PropOp44
 70
     1
102
RTVSPost2010Prop45
280
     0
102
RTVSPost2010PropOp45
 70
     1
102
RTVSPost2010Prop46
 90
       50
102
RTVSPost2010PropOp46
 70
     1
102
RTVSPost2010Prop47
 90
       50
102
RTVSPost2010PropOp47
 70
     1
102
RTVSPost2010Prop48
 90
       50
102
RTVSPost2010PropOp48
 70
     1
102
RTVSPost2010Prop49
280
     0
102
RTVSPost2010PropOp49
 70
     1
102
RTVSPost2010Prop50
 90
       50
102
RTVSPost2010PropOp50
 70
     1
102
RTVSPost2010Prop51ColorIndex
 90
      256
102
RTVSPost2010Prop51ColorRGB
 90
-16777216
102
RTVSPost2010PropOp51
 70
     0
102
RTVSPost2010Prop52
140
1.0
102
RTVSPost2010PropOp52
 70
     0
102
RTVSPost2010Prop53
 90
        2
102
RTVSPost2010PropOp53
 70
     1
102
RTVSPost2010Prop54
  1
strokes_ogs.tif
102
RTVSPost2010PropOp54
 70
     1
102
RTVSPost2010Prop55
280
     0
102
RTVSPost2010PropOp55
 70
     1
102
RTVSPost2010Prop56
140
1.0
102
RTVSPost2010PropOp56
 70
     1
102
RTVSPost2010Prop57
140
1.0
102
RTVSPost2010PropOp57
 70
     1
  0
XRECORD
  5
387
102
{ACAD_REACTORS
330
386
102
}
330
386
100
AcDbXrecord
280
     1
102
RTVSPropertyOp0
 70
     1
102
RTVSPropertyOp1
 70
     1
102
RTVSPropertyOp2
 70
     1
102
RTVSPropertyOp3
 70
     1
102
RTVSPropertyOp4
 70
     1
102
RTVSPropertyOp5
 70
     1
102
RTVSPropertyOp6
 70
     1
102
RTVSPropertyOp7
 70
     1
102
RTVSPropertyOp8
 70
     1
102
RTVSPropertyOp9
 70
     1
102
RTVSPropertyOp10
 70
     1
102
RTVSPropertyOp11
 70
     1
102
RTVSPropertyOp12
 70
     1
102
RTVSPropertyOp13
 70
     1
102
RTVSPropertyOp14
 70
     1
102
RTVSPropertyOp15
 70
     1
102
RTVSPropertyOp16
 70
     1
102
RTVSPropertyOp17
 70
     1
102
RTVSPropertyOp18
 70
     1
102
RTVSPropertyOp19
 70
     1
102
RTVSPropertyOp20
 70
     1
102
RTVSPropertyOp21
 70
     1
102
RTVSPropertyOp22
 70
     1
102
RTVSPropertyOp23
 70
     1
102
RTVSPropertyOp24
 70
     1
102
RTVSPropertyOp25
 70
     1
102
RTVSPropertyOp26
 70
     1
102
RTVSPropertyOp27
 70
     1
102
RTVSPropertyOp28
 70
     1
102
RTVSPropertyOp29
 70
     1
102
RTVSPropertyOp30
 70
     1
102
RTVSPropertyOp31
 70
     1
102
RTVSPropertyOp32
 70
     1
102
RTVSPropertyOp33
 70
     1
102
RTVSPropertyOp34
 70
     1
102
RTVSPropertyOp35
 70
     1
102
RTVSPropertyOp36
 70
     1
102
RTVSPropertyOp37
 70
     1
102
RTVSPropertyOp38
 70
     1
102
RTVSPropertyOp39
 70
     1
102
RTVSPropertyOp40
 70
     1
102
RTVSPropertyOp41
 70
     1
102
RTVSPropertyOp42
 70
     1
102
RTVSPropertyOp43
 70
     1
102
RTVSPropertyOp44
 70
     1
102
RTVSPropertyOp45
 70
     1
102
RTVSPropertyOp46
 70
     1
102
RTVSPropertyOp47
 70
     1
102
RTVSPropertyOp48
 70
     1
102
RTVSPropertyOp49
 70
     1
102
RTVSPropertyOp50
 70
     1
102
RTVSPropertyOp51
 70
     0
102
RTVSPropertyOp52
 70
     0
102
RTVSPropertyOp53
 70
     1
102
RTVSPropertyOp54
 70
     1
102
RTVSPropertyOp55
 70
     1
102
RTVSPropertyOp56
 70
     1
102
RTVSPropertyOp57
 70
     1
102
RTVSPost2010Prop28
280
     0
102
RTVSPost2010PropOp28
 70
     1
102
RTVSPost2010Prop29
280
     1
102
RTVSPost2010PropOp29
 70
     1
102
RTVSPost2010Prop30
280
     1
102
RTVSPost2010PropOp30
 70
     1
102
RTVSPost2010Prop31
280
     0
102
RTVSPost2010PropOp31
 70
     1
102
RTVSPost2010Prop32
280
     0
102
RTVSPost2010PropOp32
 70
     1
102
RTVSPost2010Prop33
280
     0
102
RTVSPost2010PropOp33
 70
     1
102
RTVSPost2010Prop34
280
     0
102
RTVSPost2010PropOp34
 70
     1
102
RTVSPost2010Prop35
280
     0
102
RTVSPost2010PropOp35
 70
     1
102
RTVSPost2010Prop36
280
     0
102
RTVSPost2010PropOp36
 70
     1
102
RTVSPost2010Prop37
 90
       50
102
RTVSPost2010PropOp37
 70
     1
102
RTVSPost2010Prop38
140
0.0
102
RTVSPost2010PropOp38
 70
     1
102
RTVSPost2010Prop39
140
1.0
102
RTVSPost2010PropOp39
 70
     1
102
RTVSPost2010Prop40
 90
        0
102
RTVSPost2010PropOp40
 70
     1
102
RTVSPost2010Prop41ColorIndex
 90
       18
102
RTVSPost2010Prop41ColorRGB
 90
        0
102
RTVSPost2010PropOp41
 70
     1
102
RTVSPost2010Prop42
 90
       50
102
RTVSPost2010PropOp42
 70
     1
102
RTVSPost2010Prop43
 90
        3
102
RTVSPost2010PropOp43
 70
     1
102
RTVSPost2010Prop44ColorIndex
 90
        5
102
RTVSPost2010Prop44ColorRGB
 90
      255
102
RTVSPost2010PropOp44
 70
     1
102
RTVSPost2010Prop45
280
     0
102
RTVSPost2010PropOp45
 70
     1
102
RTVSPost2010Prop46
 90
       50
102
RTVSPost2010PropOp46
 70
     1
102
RTVSPost2010Prop47
 90
       50
102
RTVSPost2010PropOp47
 70
     1
102
RTVSPost2010Prop48
 90
       50
102
RTVSPost2010PropOp48
 70
     1
102
RTVSPost2010Prop49
280
     0
102
RTVSPost2010PropOp49
 70
     1
102
RTVSPost2010Prop50
 90
       50
102
RTVSPost2010PropOp50
 70
     1
102
RTVSPost2010Prop51ColorIndex
 90
      256
102
RTVSPost2010Prop51ColorRGB
 90
-16777216
102
RTVSPost2010PropOp51
 70
     0
102
RTVSPost2010Prop52
140
1.0
102
RTVSPost2010PropOp52
 70
     0
102
RTVSPost2010Prop53
 90
        2
102
RTVSPost2010PropOp53
 70
     1
102
RTVSPost2010Prop54
  1
strokes_ogs.tif
102
RTVSPost2010PropOp54
 70
     1
102
RTVSPost2010Prop55
280
     0
102
RTVSPost2010PropOp55
 70
     1
102
RTVSPost2010Prop56
140
1.0
102
RTVSPost2010PropOp56
 70
     1
102
RTVSPost2010Prop57
140
1.0
102
RTVSPost2010PropOp57
 70
     1
  0
XRECORD
  5
389
102
{ACAD_REACTORS
330
388
102
}
330
388
100
AcDbXrecord
280
     1
102
RTVSPropertyOp0
 70
     1
102
RTVSPropertyOp1
 70
     1
102
RTVSPropertyOp2
 70
     1
102
RTVSPropertyOp3
 70
     1
102
RTVSPropertyOp4
 70
     1
102
RTVSPropertyOp5
 70
     1
102
RTVSPropertyOp6
 70
     1
102
RTVSPropertyOp7
 70
     1
102
RTVSPropertyOp8
 70
     1
102
RTVSPropertyOp9
 70
     1
102
RTVSPropertyOp10
 70
     1
102
RTVSPropertyOp11
 70
     1
102
RTVSPropertyOp12
 70
     1
102
RTVSPropertyOp13
 70
     1
102
RTVSPropertyOp14
 70
     1
102
RTVSPropertyOp15
 70
     1
102
RTVSPropertyOp16
 70
     1
102
RTVSPropertyOp17
 70
     1
102
RTVSPropertyOp18
 70
     1
102
RTVSPropertyOp19
 70
     1
102
RTVSPropertyOp20
 70
     1
102
RTVSPropertyOp21
 70
     1
102
RTVSPropertyOp22
 70
     1
102
RTVSPropertyOp23
 70
     1
102
RTVSPropertyOp24
 70
     1
102
RTVSPropertyOp25
 70
     1
102
RTVSPropertyOp26
 70
     1
102
RTVSPropertyOp27
 70
     1
102
RTVSPropertyOp28
 70
     1
102
RTVSPropertyOp29
 70
     1
102
RTVSPropertyOp30
 70
     1
102
RTVSPropertyOp31
 70
     1
102
RTVSPropertyOp32
 70
     1
102
RTVSPropertyOp33
 70
     1
102
RTVSPropertyOp34
 70
     1
102
RTVSPropertyOp35
 70
     1
102
RTVSPropertyOp36
 70
     1
102
RTVSPropertyOp37
 70
     1
102
RTVSPropertyOp38
 70
     1
102
RTVSPropertyOp39
 70
     1
102
RTVSPropertyOp40
 70
     1
102
RTVSPropertyOp41
 70
     1
102
RTVSPropertyOp42
 70
     1
102
RTVSPropertyOp43
 70
     1
102
RTVSPropertyOp44
 70
     1
102
RTVSPropertyOp45
 70
     1
102
RTVSPropertyOp46
 70
     1
102
RTVSPropertyOp47
 70
     1
102
RTVSPropertyOp48
 70
     1
102
RTVSPropertyOp49
 70
     1
102
RTVSPropertyOp50
 70
     1
102
RTVSPropertyOp51
 70
     0
102
RTVSPropertyOp52
 70
     0
102
RTVSPropertyOp53
 70
     1
102
RTVSPropertyOp54
 70
     1
102
RTVSPropertyOp55
 70
     1
102
RTVSPropertyOp56
 70
     1
102
RTVSPropertyOp57
 70
     1
102
RTVSPost2010Prop28
280
     0
102
RTVSPost2010PropOp28
 70
     1
102
RTVSPost2010Prop29
280
     1
102
RTVSPost2010PropOp29
 70
     1
102
RTVSPost2010Prop30
280
     1
102
RTVSPost2010PropOp30
 70
     1
102
RTVSPost2010Prop31
280
     0
102
RTVSPost2010PropOp31
 70
     1
102
RTVSPost2010Prop32
280
     0
102
RTVSPost2010PropOp32
 70
     1
102
RTVSPost2010Prop33
280
     0
102
RTVSPost2010PropOp33
 70
     1
102
RTVSPost2010Prop34
280
     0
102
RTVSPost2010PropOp34
 70
     1
102
RTVSPost2010Prop35
280
     0
102
RTVSPost2010PropOp35
 70
     1
102
RTVSPost2010Prop36
280
     0
102
RTVSPost2010PropOp36
 70
     1
102
RTVSPost2010Prop37
 90
       50
102
RTVSPost2010PropOp37
 70
     1
102
RTVSPost2010Prop38
140
0.0
102
RTVSPost2010PropOp38
 70
     1
102
RTVSPost2010Prop39
140
1.0
102
RTVSPost2010PropOp39
 70
     1
102
RTVSPost2010Prop40
 90
        0
102
RTVSPost2010PropOp40
 70
     1
102
RTVSPost2010Prop41ColorIndex
 90
       18
102
RTVSPost2010Prop41ColorRGB
 90
        0
102
RTVSPost2010PropOp41
 70
     1
102
RTVSPost2010Prop42
 90
       50
102
RTVSPost2010PropOp42
 70
     1
102
RTVSPost2010Prop43
 90
        3
102
RTVSPost2010PropOp43
 70
     1
102
RTVSPost2010Prop44ColorIndex
 90
        5
102
RTVSPost2010Prop44ColorRGB
 90
      255
102
RTVSPost2010PropOp44
 70
     1
102
RTVSPost2010Prop45
280
     0
102
RTVSPost2010PropOp45
 70
     1
102
RTVSPost2010Prop46
 90
       50
102
RTVSPost2010PropOp46
 70
     1
102
RTVSPost2010Prop47
 90
       50
102
RTVSPost2010PropOp47
 70
     1
102
RTVSPost2010Prop48
 90
       50
102
RTVSPost2010PropOp48
 70
     1
102
RTVSPost2010Prop49
280
     0
102
RTVSPost2010PropOp49
 70
     1
102
RTVSPost2010Prop50
 90
       50
102
RTVSPost2010PropOp50
 70
     1
102
RTVSPost2010Prop51ColorIndex
 90
      256
102
RTVSPost2010Prop51ColorRGB
 90
-16777216
102
RTVSPost2010PropOp51
 70
     0
102
RTVSPost2010Prop52
140
1.0
102
RTVSPost2010PropOp52
 70
     0
102
RTVSPost2010Prop53
 90
        2
102
RTVSPost2010PropOp53
 70
     1
102
RTVSPost2010Prop54
  1
strokes_ogs.tif
102
RTVSPost2010PropOp54
 70
     1
102
RTVSPost2010Prop55
280
     0
102
RTVSPost2010PropOp55
 70
     1
102
RTVSPost2010Prop56
140
1.0
102
RTVSPost2010PropOp56
 70
     1
102
RTVSPost2010Prop57
140
1.0
102
RTVSPost2010PropOp57
 70
     1
  0
XRECORD
  5
38B
102
{ACAD_REACTORS
330
38A
102
}
330
38A
100
AcDbXrecord
280
     1
102
RTVSPropertyOp0
 70
     1
102
RTVSPropertyOp1
 70
     1
102
RTVSPropertyOp2
 70
     1
102
RTVSPropertyOp3
 70
     1
102
RTVSPropertyOp4
 70
     1
102
RTVSPropertyOp5
 70
     1
102
RTVSPropertyOp6
 70
     1
102
RTVSPropertyOp7
 70
     1
102
RTVSPropertyOp8
 70
     1
102
RTVSPropertyOp9
 70
     1
102
RTVSPropertyOp10
 70
     1
102
RTVSPropertyOp11
 70
     1
102
RTVSPropertyOp12
 70
     1
102
RTVSPropertyOp13
 70
     1
102
RTVSPropertyOp14
 70
     1
102
RTVSPropertyOp15
 70
     1
102
RTVSPropertyOp16
 70
     1
102
RTVSPropertyOp17
 70
     1
102
RTVSPropertyOp18
 70
     1
102
RTVSPropertyOp19
 70
     1
102
RTVSPropertyOp20
 70
     1
102
RTVSPropertyOp21
 70
     1
102
RTVSPropertyOp22
 70
     1
102
RTVSPropertyOp23
 70
     1
102
RTVSPropertyOp24
 70
     1
102
RTVSPropertyOp25
 70
     1
102
RTVSPropertyOp26
 70
     1
102
RTVSPropertyOp27
 70
     1
102
RTVSPropertyOp28
 70
     1
102
RTVSPropertyOp29
 70
     1
102
RTVSPropertyOp30
 70
     1
102
RTVSPropertyOp31
 70
     1
102
RTVSPropertyOp32
 70
     1
102
RTVSPropertyOp33
 70
     1
102
RTVSPropertyOp34
 70
     1
102
RTVSPropertyOp35
 70
     1
102
RTVSPropertyOp36
 70
     1
102
RTVSPropertyOp37
 70
     1
102
RTVSPropertyOp38
 70
     1
102
RTVSPropertyOp39
 70
     1
102
RTVSPropertyOp40
 70
     1
102
RTVSPropertyOp41
 70
     1
102
RTVSPropertyOp42
 70
     1
102
RTVSPropertyOp43
 70
     1
102
RTVSPropertyOp44
 70
     1
102
RTVSPropertyOp45
 70
     1
102
RTVSPropertyOp46
 70
     1
102
RTVSPropertyOp47
 70
     1
102
RTVSPropertyOp48
 70
     1
102
RTVSPropertyOp49
 70
     1
102
RTVSPropertyOp50
 70
     1
102
RTVSPropertyOp51
 70
     0
102
RTVSPropertyOp52
 70
     0
102
RTVSPropertyOp53
 70
     1
102
RTVSPropertyOp54
 70
     1
102
RTVSPropertyOp55
 70
     1
102
RTVSPropertyOp56
 70
     1
102
RTVSPropertyOp57
 70
     1
102
RTVSPost2010Prop28
280
     0
102
RTVSPost2010PropOp28
 70
     1
102
RTVSPost2010Prop29
280
     1
102
RTVSPost2010PropOp29
 70
     1
102
RTVSPost2010Prop30
280
     1
102
RTVSPost2010PropOp30
 70
     1
102
RTVSPost2010Prop31
280
     0
102
RTVSPost2010PropOp31
 70
     1
102
RTVSPost2010Prop32
280
     0
102
RTVSPost2010PropOp32
 70
     1
102
RTVSPost2010Prop33
280
     0
102
RTVSPost2010PropOp33
 70
     1
102
RTVSPost2010Prop34
280
     0
102
RTVSPost2010PropOp34
 70
     1
102
RTVSPost2010Prop35
280
     0
102
RTVSPost2010PropOp35
 70
     1
102
RTVSPost2010Prop36
280
     0
102
RTVSPost2010PropOp36
 70
     1
102
RTVSPost2010Prop37
 90
       50
102
RTVSPost2010PropOp37
 70
     1
102
RTVSPost2010Prop38
140
0.0
102
RTVSPost2010PropOp38
 70
     1
102
RTVSPost2010Prop39
140
1.0
102
RTVSPost2010PropOp39
 70
     1
102
RTVSPost2010Prop40
 90
        0
102
RTVSPost2010PropOp40
 70
     1
102
RTVSPost2010Prop41ColorIndex
 90
       18
102
RTVSPost2010Prop41ColorRGB
 90
        0
102
RTVSPost2010PropOp41
 70
     1
102
RTVSPost2010Prop42
 90
       50
102
RTVSPost2010PropOp42
 70
     1
102
RTVSPost2010Prop43
 90
        3
102
RTVSPost2010PropOp43
 70
     1
102
RTVSPost2010Prop44ColorIndex
 90
        5
102
RTVSPost2010Prop44ColorRGB
 90
      255
102
RTVSPost2010PropOp44
 70
     1
102
RTVSPost2010Prop45
280
     0
102
RTVSPost2010PropOp45
 70
     1
102
RTVSPost2010Prop46
 90
       50
102
RTVSPost2010PropOp46
 70
     1
102
RTVSPost2010Prop47
 90
       50
102
RTVSPost2010PropOp47
 70
     1
102
RTVSPost2010Prop48
 90
       50
102
RTVSPost2010PropOp48
 70
     1
102
RTVSPost2010Prop49
280
     0
102
RTVSPost2010PropOp49
 70
     1
102
RTVSPost2010Prop50
 90
       50
102
RTVSPost2010PropOp50
 70
     1
102
RTVSPost2010Prop51ColorIndex
 90
      256
102
RTVSPost2010Prop51ColorRGB
 90
-16777216
102
RTVSPost2010PropOp51
 70
     0
102
RTVSPost2010Prop52
140
1.0
102
RTVSPost2010PropOp52
 70
     0
102
RTVSPost2010Prop53
 90
        2
102
RTVSPost2010PropOp53
 70
     1
102
RTVSPost2010Prop54
  1
strokes_ogs.tif
102
RTVSPost2010PropOp54
 70
     1
102
RTVSPost2010Prop55
280
     0
102
RTVSPost2010PropOp55
 70
     1
102
RTVSPost2010Prop56
140
1.0
102
RTVSPost2010PropOp56
 70
     1
102
RTVSPost2010Prop57
140
1.0
102
RTVSPost2010PropOp57
 70
     1
  0
XRECORD
  5
391
102
{ACAD_REACTORS
330
390
102
}
330
390
100
AcDbXrecord
280
     1
102
RTVSPropertyOp0
 70
     1
102
RTVSPropertyOp1
 70
     1
102
RTVSPropertyOp2
 70
     1
102
RTVSPropertyOp3
 70
     1
102
RTVSPropertyOp4
 70
     1
102
RTVSPropertyOp5
 70
     1
102
RTVSPropertyOp6
 70
     1
102
RTVSPropertyOp7
 70
     1
102
RTVSPropertyOp8
 70
     1
102
RTVSPropertyOp9
 70
     1
102
RTVSPropertyOp10
 70
     1
102
RTVSPropertyOp11
 70
     1
102
RTVSPropertyOp12
 70
     1
102
RTVSPropertyOp13
 70
     1
102
RTVSPropertyOp14
 70
     1
102
RTVSPropertyOp15
 70
     1
102
RTVSPropertyOp16
 70
     1
102
RTVSPropertyOp17
 70
     1
102
RTVSPropertyOp18
 70
     1
102
RTVSPropertyOp19
 70
     1
102
RTVSPropertyOp20
 70
     1
102
RTVSPropertyOp21
 70
     1
102
RTVSPropertyOp22
 70
     1
102
RTVSPropertyOp23
 70
     1
102
RTVSPropertyOp24
 70
     1
102
RTVSPropertyOp25
 70
     1
102
RTVSPropertyOp26
 70
     1
102
RTVSPropertyOp27
 70
     1
102
RTVSPropertyOp28
 70
     1
102
RTVSPropertyOp29
 70
     1
102
RTVSPropertyOp30
 70
     1
102
RTVSPropertyOp31
 70
     1
102
RTVSPropertyOp32
 70
     1
102
RTVSPropertyOp33
 70
     1
102
RTVSPropertyOp34
 70
     1
102
RTVSPropertyOp35
 70
     1
102
RTVSPropertyOp36
 70
     1
102
RTVSPropertyOp37
 70
     1
102
RTVSPropertyOp38
 70
     1
102
RTVSPropertyOp39
 70
     1
102
RTVSPropertyOp40
 70
     1
102
RTVSPropertyOp41
 70
     1
102
RTVSPropertyOp42
 70
     1
102
RTVSPropertyOp43
 70
     1
102
RTVSPropertyOp44
 70
     1
102
RTVSPropertyOp45
 70
     1
102
RTVSPropertyOp46
 70
     1
102
RTVSPropertyOp47
 70
     1
102
RTVSPropertyOp48
 70
     1
102
RTVSPropertyOp49
 70
     1
102
RTVSPropertyOp50
 70
     1
102
RTVSPropertyOp51
 70
     0
102
RTVSPropertyOp52
 70
     0
102
RTVSPropertyOp53
 70
     1
102
RTVSPropertyOp54
 70
     1
102
RTVSPropertyOp55
 70
     1
102
RTVSPropertyOp56
 70
     1
102
RTVSPropertyOp57
 70
     1
102
RTVSPost2010Prop28
280
     0
102
RTVSPost2010PropOp28
 70
     1
102
RTVSPost2010Prop29
280
     1
102
RTVSPost2010PropOp29
 70
     1
102
RTVSPost2010Prop30
280
     1
102
RTVSPost2010PropOp30
 70
     1
102
RTVSPost2010Prop31
280
     0
102
RTVSPost2010PropOp31
 70
     1
102
RTVSPost2010Prop32
280
     0
102
RTVSPost2010PropOp32
 70
     1
102
RTVSPost2010Prop33
280
     0
102
RTVSPost2010PropOp33
 70
     1
102
RTVSPost2010Prop34
280
     0
102
RTVSPost2010PropOp34
 70
     1
102
RTVSPost2010Prop35
280
     0
102
RTVSPost2010PropOp35
 70
     1
102
RTVSPost2010Prop36
280
     0
102
RTVSPost2010PropOp36
 70
     1
102
RTVSPost2010Prop37
 90
       50
102
RTVSPost2010PropOp37
 70
     1
102
RTVSPost2010Prop38
140
0.0
102
RTVSPost2010PropOp38
 70
     1
102
RTVSPost2010Prop39
140
1.0
102
RTVSPost2010PropOp39
 70
     1
102
RTVSPost2010Prop40
 90
        0
102
RTVSPost2010PropOp40
 70
     1
102
RTVSPost2010Prop41ColorIndex
 90
       18
102
RTVSPost2010Prop41ColorRGB
 90
        0
102
RTVSPost2010PropOp41
 70
     1
102
RTVSPost2010Prop42
 90
       50
102
RTVSPost2010PropOp42
 70
     1
102
RTVSPost2010Prop43
 90
        3
102
RTVSPost2010PropOp43
 70
     1
102
RTVSPost2010Prop44ColorIndex
 90
        5
102
RTVSPost2010Prop44ColorRGB
 90
      255
102
RTVSPost2010PropOp44
 70
     1
102
RTVSPost2010Prop45
280
     0
102
RTVSPost2010PropOp45
 70
     1
102
RTVSPost2010Prop46
 90
       50
102
RTVSPost2010PropOp46
 70
     1
102
RTVSPost2010Prop47
 90
       50
102
RTVSPost2010PropOp47
 70
     1
102
RTVSPost2010Prop48
 90
       50
102
RTVSPost2010PropOp48
 70
     1
102
RTVSPost2010Prop49
280
     0
102
RTVSPost2010PropOp49
 70
     1
102
RTVSPost2010Prop50
 90
       50
102
RTVSPost2010PropOp50
 70
     1
102
RTVSPost2010Prop51ColorIndex
 90
      256
102
RTVSPost2010Prop51ColorRGB
 90
-16777216
102
RTVSPost2010PropOp51
 70
     0
102
RTVSPost2010Prop52
140
1.0
102
RTVSPost2010PropOp52
 70
     0
102
RTVSPost2010Prop53
 90
        2
102
RTVSPost2010PropOp53
 70
     1
102
RTVSPost2010Prop54
  1
strokes_ogs.tif
102
RTVSPost2010PropOp54
 70
     1
102
RTVSPost2010Prop55
280
     0
102
RTVSPost2010PropOp55
 70
     1
102
RTVSPost2010Prop56
140
1.0
102
RTVSPost2010PropOp56
 70
     1
102
RTVSPost2010Prop57
140
1.0
102
RTVSPost2010PropOp57
 70
     1
  0
XRECORD
  5
3A5
102
{ACAD_REACTORS
330
3A4
102
}
330
3A4
100
AcDbXrecord
280
     1
102
RTVSPropertyOp0
 70
     0
102
RTVSPropertyOp1
 70
     0
102
RTVSPropertyOp2
 70
     0
102
RTVSPropertyOp3
 70
     0
102
RTVSPropertyOp4
 70
     0
102
RTVSPropertyOp5
 70
     0
102
RTVSPropertyOp6
 70
     0
102
RTVSPropertyOp7
 70
     0
102
RTVSPropertyOp8
 70
     0
102
RTVSPropertyOp9
 70
     0
102
RTVSPropertyOp10
 70
     0
102
RTVSPropertyOp11
 70
     0
102
RTVSPropertyOp12
 70
     0
102
RTVSPropertyOp13
 70
     0
102
RTVSPropertyOp14
 70
     2
102
RTVSPropertyOp15
 70
     0
102
RTVSPropertyOp16
 70
     0
102
RTVSPropertyOp17
 70
     0
102
RTVSPropertyOp18
 70
     0
102
RTVSPropertyOp19
 70
     0
102
RTVSPropertyOp20
 70
     0
102
RTVSPropertyOp21
 70
     0
102
RTVSPropertyOp22
 70
     0
102
RTVSPropertyOp23
 70
     0
102
RTVSPropertyOp24
 70
     0
102
RTVSPropertyOp25
 70
     0
102
RTVSPropertyOp26
 70
     0
102
RTVSPropertyOp27
 70
     0
102
RTVSPropertyOp28
 70
     0
102
RTVSPropertyOp29
 70
     0
102
RTVSPropertyOp30
 70
     0
102
RTVSPropertyOp31
 70
     0
102
RTVSPropertyOp32
 70
     0
102
RTVSPropertyOp33
 70
     0
102
RTVSPropertyOp34
 70
     0
102
RTVSPropertyOp35
 70
     0
102
RTVSPropertyOp36
 70
     0
102
RTVSPropertyOp37
 70
     0
102
RTVSPropertyOp38
 70
     0
102
RTVSPropertyOp39
 70
     0
102
RTVSPropertyOp40
 70
     0
102
RTVSPropertyOp41
 70
     0
102
RTVSPropertyOp42
 70
     0
102
RTVSPropertyOp43
 70
     0
102
RTVSPropertyOp44
 70
     0
102
RTVSPropertyOp45
 70
     0
102
RTVSPropertyOp46
 70
     0
102
RTVSPropertyOp47
 70
     0
102
RTVSPropertyOp48
 70
     0
102
RTVSPropertyOp49
 70
     0
102
RTVSPropertyOp50
 70
     0
102
RTVSPropertyOp51
 70
     0
102
RTVSPropertyOp52
 70
     0
102
RTVSPropertyOp53
 70
     0
102
RTVSPropertyOp54
 70
     0
102
RTVSPropertyOp55
 70
     0
102
RTVSPropertyOp56
 70
     0
102
RTVSPropertyOp57
 70
     0
102
RTVSPost2010Prop28
280
     0
102
RTVSPost2010PropOp28
 70
     0
102
RTVSPost2010Prop29
280
     1
102
RTVSPost2010PropOp29
 70
     0
102
RTVSPost2010Prop30
280
     1
102
RTVSPost2010PropOp30
 70
     0
102
RTVSPost2010Prop31
280
     0
102
RTVSPost2010PropOp31
 70
     0
102
RTVSPost2010Prop32
280
     0
102
RTVSPost2010PropOp32
 70
     0
102
RTVSPost2010Prop33
280
     0
102
RTVSPost2010PropOp33
 70
     0
102
RTVSPost2010Prop34
280
     0
102
RTVSPost2010PropOp34
 70
     0
102
RTVSPost2010Prop35
280
     0
102
RTVSPost2010PropOp35
 70
     0
102
RTVSPost2010Prop36
280
     0
102
RTVSPost2010PropOp36
 70
     0
102
RTVSPost2010Prop37
 90
       50
102
RTVSPost2010PropOp37
 70
     0
102
RTVSPost2010Prop38
140
0.0
102
RTVSPost2010PropOp38
 70
     0
102
RTVSPost2010Prop39
140
1.0
102
RTVSPost2010PropOp39
 70
     0
102
RTVSPost2010Prop40
 90
        0
102
RTVSPost2010PropOp40
 70
     0
102
RTVSPost2010Prop41ColorIndex
 90
       18
102
RTVSPost2010Prop41ColorRGB
 90
        0
102
RTVSPost2010PropOp41
 70
     0
102
RTVSPost2010Prop42
 90
       50
102
RTVSPost2010PropOp42
 70
     0
102
RTVSPost2010Prop43
 90
        3
102
RTVSPost2010PropOp43
 70
     0
102
RTVSPost2010Prop44ColorIndex
 90
        5
102
RTVSPost2010Prop44ColorRGB
 90
      255
102
RTVSPost2010PropOp44
 70
     0
102
RTVSPost2010Prop45
280
     0
102
RTVSPost2010PropOp45
 70
     0
102
RTVSPost2010Prop46
 90
       50
102
RTVSPost2010PropOp46
 70
     0
102
RTVSPost2010Prop47
 90
       50
102
RTVSPost2010PropOp47
 70
     0
102
RTVSPost2010Prop48
 90
       50
102
RTVSPost2010PropOp48
 70
     0
102
RTVSPost2010Prop49
280
     0
102
RTVSPost2010PropOp49
 70
     0
102
RTVSPost2010Prop50
 90
       50
102
RTVSPost2010PropOp50
 70
     0
102
RTVSPost2010Prop51ColorIndex
 90
      256
102
RTVSPost2010Prop51ColorRGB
 90
-16777216
102
RTVSPost2010PropOp51
 70
     0
102
RTVSPost2010Prop52
140
1.0
102
RTVSPost2010PropOp52
 70
     0
102
RTVSPost2010Prop53
 90
        2
102
RTVSPost2010PropOp53
 70
     0
102
RTVSPost2010Prop54
  1
strokes_ogs.tif
102
RTVSPost2010PropOp54
 70
     0
102
RTVSPost2010Prop55
280
     0
102
RTVSPost2010PropOp55
 70
     0
102
RTVSPost2010Prop56
140
1.0
102
RTVSPost2010PropOp56
 70
     0
102
RTVSPost2010Prop57
140
1.0
102
RTVSPost2010PropOp57
 70
     0
  0
XRECORD
  5
39F
102
{ACAD_REACTORS
330
39E
102
}
330
39E
100
AcDbXrecord
280
     1
102
RTVSPropertyOp0
 70
     1
102
RTVSPropertyOp1
 70
     1
102
RTVSPropertyOp2
 70
     1
102
RTVSPropertyOp3
 70
     1
102
RTVSPropertyOp4
 70
     1
102
RTVSPropertyOp5
 70
     1
102
RTVSPropertyOp6
 70
     1
102
RTVSPropertyOp7
 70
     1
102
RTVSPropertyOp8
 70
     1
102
RTVSPropertyOp9
 70
     1
102
RTVSPropertyOp10
 70
     1
102
RTVSPropertyOp11
 70
     1
102
RTVSPropertyOp12
 70
     1
102
RTVSPropertyOp13
 70
     1
102
RTVSPropertyOp14
 70
     1
102
RTVSPropertyOp15
 70
     1
102
RTVSPropertyOp16
 70
     1
102
RTVSPropertyOp17
 70
     1
102
RTVSPropertyOp18
 70
     1
102
RTVSPropertyOp19
 70
     1
102
RTVSPropertyOp20
 70
     1
102
RTVSPropertyOp21
 70
     1
102
RTVSPropertyOp22
 70
     1
102
RTVSPropertyOp23
 70
     1
102
RTVSPropertyOp24
 70
     1
102
RTVSPropertyOp25
 70
     1
102
RTVSPropertyOp26
 70
     1
102
RTVSPropertyOp27
 70
     1
102
RTVSPropertyOp28
 70
     1
102
RTVSPropertyOp29
 70
     1
102
RTVSPropertyOp30
 70
     1
102
RTVSPropertyOp31
 70
     1
102
RTVSPropertyOp32
 70
     1
102
RTVSPropertyOp33
 70
     1
102
RTVSPropertyOp34
 70
     1
102
RTVSPropertyOp35
 70
     1
102
RTVSPropertyOp36
 70
     1
102
RTVSPropertyOp37
 70
     1
102
RTVSPropertyOp38
 70
     1
102
RTVSPropertyOp39
 70
     1
102
RTVSPropertyOp40
 70
     1
102
RTVSPropertyOp41
 70
     1
102
RTVSPropertyOp42
 70
     1
102
RTVSPropertyOp43
 70
     1
102
RTVSPropertyOp44
 70
     1
102
RTVSPropertyOp45
 70
     1
102
RTVSPropertyOp46
 70
     1
102
RTVSPropertyOp47
 70
     1
102
RTVSPropertyOp48
 70
     1
102
RTVSPropertyOp49
 70
     1
102
RTVSPropertyOp50
 70
     1
102
RTVSPropertyOp51
 70
     0
102
RTVSPropertyOp52
 70
     0
102
RTVSPropertyOp53
 70
     1
102
RTVSPropertyOp54
 70
     1
102
RTVSPropertyOp55
 70
     1
102
RTVSPropertyOp56
 70
     1
102
RTVSPropertyOp57
 70
     1
102
RTVSPost2010Prop28
280
     0
102
RTVSPost2010PropOp28
 70
     1
102
RTVSPost2010Prop29
280
     1
102
RTVSPost2010PropOp29
 70
     1
102
RTVSPost2010Prop30
280
     1
102
RTVSPost2010PropOp30
 70
     1
102
RTVSPost2010Prop31
280
     0
102
RTVSPost2010PropOp31
 70
     1
102
RTVSPost2010Prop32
280
     0
102
RTVSPost2010PropOp32
 70
     1
102
RTVSPost2010Prop33
280
     0
102
RTVSPost2010PropOp33
 70
     1
102
RTVSPost2010Prop34
280
     0
102
RTVSPost2010PropOp34
 70
     1
102
RTVSPost2010Prop35
280
     0
102
RTVSPost2010PropOp35
 70
     1
102
RTVSPost2010Prop36
280
     0
102
RTVSPost2010PropOp36
 70
     1
102
RTVSPost2010Prop37
 90
       50
102
RTVSPost2010PropOp37
 70
     1
102
RTVSPost2010Prop38
140
0.0
102
RTVSPost2010PropOp38
 70
     1
102
RTVSPost2010Prop39
140
1.0
102
RTVSPost2010PropOp39
 70
     1
102
RTVSPost2010Prop40
 90
        0
102
RTVSPost2010PropOp40
 70
     1
102
RTVSPost2010Prop41ColorIndex
 90
       18
102
RTVSPost2010Prop41ColorRGB
 90
        0
102
RTVSPost2010PropOp41
 70
     1
102
RTVSPost2010Prop42
 90
       50
102
RTVSPost2010PropOp42
 70
     1
102
RTVSPost2010Prop43
 90
        3
102
RTVSPost2010PropOp43
 70
     1
102
RTVSPost2010Prop44ColorIndex
 90
        5
102
RTVSPost2010Prop44ColorRGB
 90
      255
102
RTVSPost2010PropOp44
 70
     1
102
RTVSPost2010Prop45
280
     0
102
RTVSPost2010PropOp45
 70
     1
102
RTVSPost2010Prop46
 90
       50
102
RTVSPost2010PropOp46
 70
     1
102
RTVSPost2010Prop47
 90
       50
102
RTVSPost2010PropOp47
 70
     1
102
RTVSPost2010Prop48
 90
       50
102
RTVSPost2010PropOp48
 70
     1
102
RTVSPost2010Prop49
280
     0
102
RTVSPost2010PropOp49
 70
     1
102
RTVSPost2010Prop50
 90
       50
102
RTVSPost2010PropOp50
 70
     1
102
RTVSPost2010Prop51ColorIndex
 90
      256
102
RTVSPost2010Prop51ColorRGB
 90
-16777216
102
RTVSPost2010PropOp51
 70
     0
102
RTVSPost2010Prop52
140
1.0
102
RTVSPost2010PropOp52
 70
     0
102
RTVSPost2010Prop53
 90
        2
102
RTVSPost2010PropOp53
 70
     1
102
RTVSPost2010Prop54
  1
strokes_ogs.tif
102
RTVSPost2010PropOp54
 70
     1
102
RTVSPost2010Prop55
280
     0
102
RTVSPost2010PropOp55
 70
     1
102
RTVSPost2010Prop56
140
1.0
102
RTVSPost2010PropOp56
 70
     1
102
RTVSPost2010Prop57
140
1.0
102
RTVSPost2010PropOp57
 70
     1
  0
XRECORD
  5
3A7
102
{ACAD_REACTORS
330
3A6
102
}
330
3A6
100
AcDbXrecord
280
     1
102
RTVSPropertyOp0
 70
     0
102
RTVSPropertyOp1
 70
     0
102
RTVSPropertyOp2
 70
     0
102
RTVSPropertyOp3
 70
     0
102
RTVSPropertyOp4
 70
     0
102
RTVSPropertyOp5
 70
     0
102
RTVSPropertyOp6
 70
     0
102
RTVSPropertyOp7
 70
     0
102
RTVSPropertyOp8
 70
     0
102
RTVSPropertyOp9
 70
     0
102
RTVSPropertyOp10
 70
     0
102
RTVSPropertyOp11
 70
     0
102
RTVSPropertyOp12
 70
     0
102
RTVSPropertyOp13
 70
     0
102
RTVSPropertyOp14
 70
     2
102
RTVSPropertyOp15
 70
     0
102
RTVSPropertyOp16
 70
     0
102
RTVSPropertyOp17
 70
     0
102
RTVSPropertyOp18
 70
     0
102
RTVSPropertyOp19
 70
     0
102
RTVSPropertyOp20
 70
     0
102
RTVSPropertyOp21
 70
     0
102
RTVSPropertyOp22
 70
     0
102
RTVSPropertyOp23
 70
     0
102
RTVSPropertyOp24
 70
     0
102
RTVSPropertyOp25
 70
     0
102
RTVSPropertyOp26
 70
     0
102
RTVSPropertyOp27
 70
     0
102
RTVSPropertyOp28
 70
     0
102
RTVSPropertyOp29
 70
     0
102
RTVSPropertyOp30
 70
     0
102
RTVSPropertyOp31
 70
     0
102
RTVSPropertyOp32
 70
     0
102
RTVSPropertyOp33
 70
     0
102
RTVSPropertyOp34
 70
     0
102
RTVSPropertyOp35
 70
     0
102
RTVSPropertyOp36
 70
     0
102
RTVSPropertyOp37
 70
     0
102
RTVSPropertyOp38
 70
     0
102
RTVSPropertyOp39
 70
     0
102
RTVSPropertyOp40
 70
     0
102
RTVSPropertyOp41
 70
     0
102
RTVSPropertyOp42
 70
     0
102
RTVSPropertyOp43
 70
     0
102
RTVSPropertyOp44
 70
     0
102
RTVSPropertyOp45
 70
     0
102
RTVSPropertyOp46
 70
     0
102
RTVSPropertyOp47
 70
     0
102
RTVSPropertyOp48
 70
     0
102
RTVSPropertyOp49
 70
     0
102
RTVSPropertyOp50
 70
     0
102
RTVSPropertyOp51
 70
     0
102
RTVSPropertyOp52
 70
     0
102
RTVSPropertyOp53
 70
     0
102
RTVSPropertyOp54
 70
     0
102
RTVSPropertyOp55
 70
     0
102
RTVSPropertyOp56
 70
     0
102
RTVSPropertyOp57
 70
     0
102
RTVSPost2010Prop28
280
     0
102
RTVSPost2010PropOp28
 70
     0
102
RTVSPost2010Prop29
280
     1
102
RTVSPost2010PropOp29
 70
     0
102
RTVSPost2010Prop30
280
     1
102
RTVSPost2010PropOp30
 70
     0
102
RTVSPost2010Prop31
280
     0
102
RTVSPost2010PropOp31
 70
     0
102
RTVSPost2010Prop32
280
     0
102
RTVSPost2010PropOp32
 70
     0
102
RTVSPost2010Prop33
280
     0
102
RTVSPost2010PropOp33
 70
     0
102
RTVSPost2010Prop34
280
     0
102
RTVSPost2010PropOp34
 70
     0
102
RTVSPost2010Prop35
280
     0
102
RTVSPost2010PropOp35
 70
     0
102
RTVSPost2010Prop36
280
     0
102
RTVSPost2010PropOp36
 70
     0
102
RTVSPost2010Prop37
 90
       50
102
RTVSPost2010PropOp37
 70
     0
102
RTVSPost2010Prop38
140
0.0
102
RTVSPost2010PropOp38
 70
     0
102
RTVSPost2010Prop39
140
1.0
102
RTVSPost2010PropOp39
 70
     0
102
RTVSPost2010Prop40
 90
        0
102
RTVSPost2010PropOp40
 70
     0
102
RTVSPost2010Prop41ColorIndex
 90
       18
102
RTVSPost2010Prop41ColorRGB
 90
        0
102
RTVSPost2010PropOp41
 70
     0
102
RTVSPost2010Prop42
 90
       50
102
RTVSPost2010PropOp42
 70
     0
102
RTVSPost2010Prop43
 90
        3
102
RTVSPost2010PropOp43
 70
     0
102
RTVSPost2010Prop44ColorIndex
 90
        5
102
RTVSPost2010Prop44ColorRGB
 90
      255
102
RTVSPost2010PropOp44
 70
     0
102
RTVSPost2010Prop45
280
     0
102
RTVSPost2010PropOp45
 70
     0
102
RTVSPost2010Prop46
 90
       50
102
RTVSPost2010PropOp46
 70
     0
102
RTVSPost2010Prop47
 90
       50
102
RTVSPost2010PropOp47
 70
     0
102
RTVSPost2010Prop48
 90
       50
102
RTVSPost2010PropOp48
 70
     0
102
RTVSPost2010Prop49
280
     0
102
RTVSPost2010PropOp49
 70
     0
102
RTVSPost2010Prop50
 90
       50
102
RTVSPost2010PropOp50
 70
     0
102
RTVSPost2010Prop51ColorIndex
 90
      256
102
RTVSPost2010Prop51ColorRGB
 90
-16777216
102
RTVSPost2010PropOp51
 70
     0
102
RTVSPost2010Prop52
140
1.0
102
RTVSPost2010PropOp52
 70
     0
102
RTVSPost2010Prop53
 90
        2
102
RTVSPost2010PropOp53
 70
     0
102
RTVSPost2010Prop54
  1
strokes_ogs.tif
102
RTVSPost2010PropOp54
 70
     0
102
RTVSPost2010Prop55
280
     0
102
RTVSPost2010PropOp55
 70
     0
102
RTVSPost2010Prop56
140
1.0
102
RTVSPost2010PropOp56
 70
     0
102
RTVSPost2010Prop57
140
1.0
102
RTVSPost2010PropOp57
 70
     0
  0
XRECORD
  5
395
102
{ACAD_REACTORS
330
394
102
}
330
394
100
AcDbXrecord
280
     1
102
RTVSPropertyOp0
 70
     1
102
RTVSPropertyOp1
 70
     1
102
RTVSPropertyOp2
 70
     1
102
RTVSPropertyOp3
 70
     1
102
RTVSPropertyOp4
 70
     1
102
RTVSPropertyOp5
 70
     1
102
RTVSPropertyOp6
 70
     1
102
RTVSPropertyOp7
 70
     1
102
RTVSPropertyOp8
 70
     1
102
RTVSPropertyOp9
 70
     1
102
RTVSPropertyOp10
 70
     1
102
RTVSPropertyOp11
 70
     1
102
RTVSPropertyOp12
 70
     1
102
RTVSPropertyOp13
 70
     1
102
RTVSPropertyOp14
 70
     1
102
RTVSPropertyOp15
 70
     1
102
RTVSPropertyOp16
 70
     1
102
RTVSPropertyOp17
 70
     1
102
RTVSPropertyOp18
 70
     1
102
RTVSPropertyOp19
 70
     1
102
RTVSPropertyOp20
 70
     1
102
RTVSPropertyOp21
 70
     1
102
RTVSPropertyOp22
 70
     1
102
RTVSPropertyOp23
 70
     1
102
RTVSPropertyOp24
 70
     1
102
RTVSPropertyOp25
 70
     1
102
RTVSPropertyOp26
 70
     1
102
RTVSPropertyOp27
 70
     1
102
RTVSPropertyOp28
 70
     1
102
RTVSPropertyOp29
 70
     1
102
RTVSPropertyOp30
 70
     1
102
RTVSPropertyOp31
 70
     1
102
RTVSPropertyOp32
 70
     1
102
RTVSPropertyOp33
 70
     1
102
RTVSPropertyOp34
 70
     1
102
RTVSPropertyOp35
 70
     1
102
RTVSPropertyOp36
 70
     1
102
RTVSPropertyOp37
 70
     1
102
RTVSPropertyOp38
 70
     1
102
RTVSPropertyOp39
 70
     1
102
RTVSPropertyOp40
 70
     1
102
RTVSPropertyOp41
 70
     1
102
RTVSPropertyOp42
 70
     1
102
RTVSPropertyOp43
 70
     1
102
RTVSPropertyOp44
 70
     1
102
RTVSPropertyOp45
 70
     1
102
RTVSPropertyOp46
 70
     1
102
RTVSPropertyOp47
 70
     1
102
RTVSPropertyOp48
 70
     1
102
RTVSPropertyOp49
 70
     1
102
RTVSPropertyOp50
 70
     1
102
RTVSPropertyOp51
 70
     0
102
RTVSPropertyOp52
 70
     0
102
RTVSPropertyOp53
 70
     1
102
RTVSPropertyOp54
 70
     1
102
RTVSPropertyOp55
 70
     1
102
RTVSPropertyOp56
 70
     1
102
RTVSPropertyOp57
 70
     1
102
RTVSPost2010Prop28
280
     0
102
RTVSPost2010PropOp28
 70
     1
102
RTVSPost2010Prop29
280
     1
102
RTVSPost2010PropOp29
 70
     1
102
RTVSPost2010Prop30
280
     1
102
RTVSPost2010PropOp30
 70
     1
102
RTVSPost2010Prop31
280
     0
102
RTVSPost2010PropOp31
 70
     1
102
RTVSPost2010Prop32
280
     0
102
RTVSPost2010PropOp32
 70
     1
102
RTVSPost2010Prop33
280
     0
102
RTVSPost2010PropOp33
 70
     1
102
RTVSPost2010Prop34
280
     0
102
RTVSPost2010PropOp34
 70
     1
102
RTVSPost2010Prop35
280
     0
102
RTVSPost2010PropOp35
 70
     1
102
RTVSPost2010Prop36
280
     0
102
RTVSPost2010PropOp36
 70
     1
102
RTVSPost2010Prop37
 90
       50
102
RTVSPost2010PropOp37
 70
     1
102
RTVSPost2010Prop38
140
0.0
102
RTVSPost2010PropOp38
 70
     1
102
RTVSPost2010Prop39
140
1.0
102
RTVSPost2010PropOp39
 70
     1
102
RTVSPost2010Prop40
 90
        0
102
RTVSPost2010PropOp40
 70
     1
102
RTVSPost2010Prop41ColorIndex
 90
       18
102
RTVSPost2010Prop41ColorRGB
 90
        0
102
RTVSPost2010PropOp41
 70
     1
102
RTVSPost2010Prop42
 90
       50
102
RTVSPost2010PropOp42
 70
     1
102
RTVSPost2010Prop43
 90
        3
102
RTVSPost2010PropOp43
 70
     1
102
RTVSPost2010Prop44ColorIndex
 90
        5
102
RTVSPost2010Prop44ColorRGB
 90
      255
102
RTVSPost2010PropOp44
 70
     1
102
RTVSPost2010Prop45
280
     0
102
RTVSPost2010PropOp45
 70
     1
102
RTVSPost2010Prop46
 90
       50
102
RTVSPost2010PropOp46
 70
     1
102
RTVSPost2010Prop47
 90
       50
102
RTVSPost2010PropOp47
 70
     1
102
RTVSPost2010Prop48
 90
       50
102
RTVSPost2010PropOp48
 70
     1
102
RTVSPost2010Prop49
280
     0
102
RTVSPost2010PropOp49
 70
     1
102
RTVSPost2010Prop50
 90
       50
102
RTVSPost2010PropOp50
 70
     1
102
RTVSPost2010Prop51ColorIndex
 90
      256
102
RTVSPost2010Prop51ColorRGB
 90
-16777216
102
RTVSPost2010PropOp51
 70
     0
102
RTVSPost2010Prop52
140
1.0
102
RTVSPost2010PropOp52
 70
     0
102
RTVSPost2010Prop53
 90
        2
102
RTVSPost2010PropOp53
 70
     1
102
RTVSPost2010Prop54
  1
strokes_ogs.tif
102
RTVSPost2010PropOp54
 70
     1
102
RTVSPost2010Prop55
280
     0
102
RTVSPost2010PropOp55
 70
     1
102
RTVSPost2010Prop56
140
1.0
102
RTVSPost2010PropOp56
 70
     1
102
RTVSPost2010Prop57
140
1.0
102
RTVSPost2010PropOp57
 70
     1
  0
XRECORD
  5
3B3
102
{ACAD_REACTORS
330
3B2
102
}
330
3B2
100
AcDbXrecord
280
     1
102
RTVSPropertyOp0
 70
     1
102
RTVSPropertyOp1
 70
     1
102
RTVSPropertyOp2
 70
     1
102
RTVSPropertyOp3
 70
     1
102
RTVSPropertyOp4
 70
     1
102
RTVSPropertyOp5
 70
     1
102
RTVSPropertyOp6
 70
     1
102
RTVSPropertyOp7
 70
     1
102
RTVSPropertyOp8
 70
     1
102
RTVSPropertyOp9
 70
     1
102
RTVSPropertyOp10
 70
     1
102
RTVSPropertyOp11
 70
     1
102
RTVSPropertyOp12
 70
     1
102
RTVSPropertyOp13
 70
     1
102
RTVSPropertyOp14
 70
     1
102
RTVSPropertyOp15
 70
     1
102
RTVSPropertyOp16
 70
     1
102
RTVSPropertyOp17
 70
     1
102
RTVSPropertyOp18
 70
     1
102
RTVSPropertyOp19
 70
     1
102
RTVSPropertyOp20
 70
     1
102
RTVSPropertyOp21
 70
     1
102
RTVSPropertyOp22
 70
     1
102
RTVSPropertyOp23
 70
     1
102
RTVSPropertyOp24
 70
     1
102
RTVSPropertyOp25
 70
     1
102
RTVSPropertyOp26
 70
     1
102
RTVSPropertyOp27
 70
     1
102
RTVSPropertyOp28
 70
     1
102
RTVSPropertyOp29
 70
     1
102
RTVSPropertyOp30
 70
     1
102
RTVSPropertyOp31
 70
     1
102
RTVSPropertyOp32
 70
     1
102
RTVSPropertyOp33
 70
     1
102
RTVSPropertyOp34
 70
     1
102
RTVSPropertyOp35
 70
     1
102
RTVSPropertyOp36
 70
     1
102
RTVSPropertyOp37
 70
     1
102
RTVSPropertyOp38
 70
     1
102
RTVSPropertyOp39
 70
     1
102
RTVSPropertyOp40
 70
     1
102
RTVSPropertyOp41
 70
     1
102
RTVSPropertyOp42
 70
     1
102
RTVSPropertyOp43
 70
     1
102
RTVSPropertyOp44
 70
     1
102
RTVSPropertyOp45
 70
     1
102
RTVSPropertyOp46
 70
     1
102
RTVSPropertyOp47
 70
     1
102
RTVSPropertyOp48
 70
     1
102
RTVSPropertyOp49
 70
     1
102
RTVSPropertyOp50
 70
     1
102
RTVSPropertyOp51
 70
     0
102
RTVSPropertyOp52
 70
     0
102
RTVSPropertyOp53
 70
     1
102
RTVSPropertyOp54
 70
     1
102
RTVSPropertyOp55
 70
     1
102
RTVSPropertyOp56
 70
     1
102
RTVSPropertyOp57
 70
     1
102
RTVSPost2010Prop28
280
     0
102
RTVSPost2010PropOp28
 70
     1
102
RTVSPost2010Prop29
280
     1
102
RTVSPost2010PropOp29
 70
     1
102
RTVSPost2010Prop30
280
     1
102
RTVSPost2010PropOp30
 70
     1
102
RTVSPost2010Prop31
280
     0
102
RTVSPost2010PropOp31
 70
     1
102
RTVSPost2010Prop32
280
     0
102
RTVSPost2010PropOp32
 70
     1
102
RTVSPost2010Prop33
280
     0
102
RTVSPost2010PropOp33
 70
     1
102
RTVSPost2010Prop34
280
     0
102
RTVSPost2010PropOp34
 70
     1
102
RTVSPost2010Prop35
280
     0
102
RTVSPost2010PropOp35
 70
     1
102
RTVSPost2010Prop36
280
     0
102
RTVSPost2010PropOp36
 70
     1
102
RTVSPost2010Prop37
 90
       50
102
RTVSPost2010PropOp37
 70
     1
102
RTVSPost2010Prop38
140
0.0
102
RTVSPost2010PropOp38
 70
     1
102
RTVSPost2010Prop39
140
1.0
102
RTVSPost2010PropOp39
 70
     1
102
RTVSPost2010Prop40
 90
        0
102
RTVSPost2010PropOp40
 70
     1
102
RTVSPost2010Prop41ColorIndex
 90
       18
102
RTVSPost2010Prop41ColorRGB
 90
        0
102
RTVSPost2010PropOp41
 70
     1
102
RTVSPost2010Prop42
 90
       50
102
RTVSPost2010PropOp42
 70
     1
102
RTVSPost2010Prop43
 90
        3
102
RTVSPost2010PropOp43
 70
     1
102
RTVSPost2010Prop44ColorIndex
 90
        5
102
RTVSPost2010Prop44ColorRGB
 90
      255
102
RTVSPost2010PropOp44
 70
     1
102
RTVSPost2010Prop45
280
     0
102
RTVSPost2010PropOp45
 70
     1
102
RTVSPost2010Prop46
 90
       50
102
RTVSPost2010PropOp46
 70
     1
102
RTVSPost2010Prop47
 90
       50
102
RTVSPost2010PropOp47
 70
     1
102
RTVSPost2010Prop48
 90
       50
102
RTVSPost2010PropOp48
 70
     1
102
RTVSPost2010Prop49
280
     0
102
RTVSPost2010PropOp49
 70
     1
102
RTVSPost2010Prop50
 90
       50
102
RTVSPost2010PropOp50
 70
     1
102
RTVSPost2010Prop51ColorIndex
 90
      256
102
RTVSPost2010Prop51ColorRGB
 90
-16777216
102
RTVSPost2010PropOp51
 70
     0
102
RTVSPost2010Prop52
140
1.0
102
RTVSPost2010PropOp52
 70
     0
102
RTVSPost2010Prop53
 90
        2
102
RTVSPost2010PropOp53
 70
     1
102
RTVSPost2010Prop54
  1
strokes_ogs.tif
102
RTVSPost2010PropOp54
 70
     1
102
RTVSPost2010Prop55
280
     0
102
RTVSPost2010PropOp55
 70
     1
102
RTVSPost2010Prop56
140
1.0
102
RTVSPost2010PropOp56
 70
     1
102
RTVSPost2010Prop57
140
1.0
102
RTVSPost2010PropOp57
 70
     1
  0
XRECORD
  5
3B1
102
{ACAD_REACTORS
330
3B0
102
}
330
3B0
100
AcDbXrecord
280
     1
102
RTVSPropertyOp0
 70
     1
102
RTVSPropertyOp1
 70
     1
102
RTVSPropertyOp2
 70
     1
102
RTVSPropertyOp3
 70
     1
102
RTVSPropertyOp4
 70
     1
102
RTVSPropertyOp5
 70
     1
102
RTVSPropertyOp6
 70
     1
102
RTVSPropertyOp7
 70
     1
102
RTVSPropertyOp8
 70
     1
102
RTVSPropertyOp9
 70
     1
102
RTVSPropertyOp10
 70
     1
102
RTVSPropertyOp11
 70
     1
102
RTVSPropertyOp12
 70
     1
102
RTVSPropertyOp13
 70
     1
102
RTVSPropertyOp14
 70
     1
102
RTVSPropertyOp15
 70
     1
102
RTVSPropertyOp16
 70
     1
102
RTVSPropertyOp17
 70
     1
102
RTVSPropertyOp18
 70
     1
102
RTVSPropertyOp19
 70
     1
102
RTVSPropertyOp20
 70
     1
102
RTVSPropertyOp21
 70
     1
102
RTVSPropertyOp22
 70
     1
102
RTVSPropertyOp23
 70
     1
102
RTVSPropertyOp24
 70
     1
102
RTVSPropertyOp25
 70
     1
102
RTVSPropertyOp26
 70
     1
102
RTVSPropertyOp27
 70
     1
102
RTVSPropertyOp28
 70
     1
102
RTVSPropertyOp29
 70
     1
102
RTVSPropertyOp30
 70
     1
102
RTVSPropertyOp31
 70
     1
102
RTVSPropertyOp32
 70
     1
102
RTVSPropertyOp33
 70
     1
102
RTVSPropertyOp34
 70
     1
102
RTVSPropertyOp35
 70
     1
102
RTVSPropertyOp36
 70
     1
102
RTVSPropertyOp37
 70
     1
102
RTVSPropertyOp38
 70
     1
102
RTVSPropertyOp39
 70
     1
102
RTVSPropertyOp40
 70
     1
102
RTVSPropertyOp41
 70
     1
102
RTVSPropertyOp42
 70
     1
102
RTVSPropertyOp43
 70
     1
102
RTVSPropertyOp44
 70
     1
102
RTVSPropertyOp45
 70
     1
102
RTVSPropertyOp46
 70
     1
102
RTVSPropertyOp47
 70
     1
102
RTVSPropertyOp48
 70
     1
102
RTVSPropertyOp49
 70
     1
102
RTVSPropertyOp50
 70
     1
102
RTVSPropertyOp51
 70
     0
102
RTVSPropertyOp52
 70
     0
102
RTVSPropertyOp53
 70
     1
102
RTVSPropertyOp54
 70
     1
102
RTVSPropertyOp55
 70
     1
102
RTVSPropertyOp56
 70
     1
102
RTVSPropertyOp57
 70
     1
102
RTVSPost2010Prop28
280
     0
102
RTVSPost2010PropOp28
 70
     1
102
RTVSPost2010Prop29
280
     1
102
RTVSPost2010PropOp29
 70
     1
102
RTVSPost2010Prop30
280
     1
102
RTVSPost2010PropOp30
 70
     1
102
RTVSPost2010Prop31
280
     0
102
RTVSPost2010PropOp31
 70
     1
102
RTVSPost2010Prop32
280
     0
102
RTVSPost2010PropOp32
 70
     1
102
RTVSPost2010Prop33
280
     0
102
RTVSPost2010PropOp33
 70
     1
102
RTVSPost2010Prop34
280
     0
102
RTVSPost2010PropOp34
 70
     1
102
RTVSPost2010Prop35
280
     0
102
RTVSPost2010PropOp35
 70
     1
102
RTVSPost2010Prop36
280
     0
102
RTVSPost2010PropOp36
 70
     1
102
RTVSPost2010Prop37
 90
       50
102
RTVSPost2010PropOp37
 70
     1
102
RTVSPost2010Prop38
140
0.0
102
RTVSPost2010PropOp38
 70
     1
102
RTVSPost2010Prop39
140
1.0
102
RTVSPost2010PropOp39
 70
     1
102
RTVSPost2010Prop40
 90
        0
102
RTVSPost2010PropOp40
 70
     1
102
RTVSPost2010Prop41ColorIndex
 90
       18
102
RTVSPost2010Prop41ColorRGB
 90
        0
102
RTVSPost2010PropOp41
 70
     1
102
RTVSPost2010Prop42
 90
       50
102
RTVSPost2010PropOp42
 70
     1
102
RTVSPost2010Prop43
 90
        3
102
RTVSPost2010PropOp43
 70
     1
102
RTVSPost2010Prop44ColorIndex
 90
        5
102
RTVSPost2010Prop44ColorRGB
 90
      255
102
RTVSPost2010PropOp44
 70
     1
102
RTVSPost2010Prop45
280
     0
102
RTVSPost2010PropOp45
 70
     1
102
RTVSPost2010Prop46
 90
       50
102
RTVSPost2010PropOp46
 70
     1
102
RTVSPost2010Prop47
 90
       50
102
RTVSPost2010PropOp47
 70
     1
102
RTVSPost2010Prop48
 90
       50
102
RTVSPost2010PropOp48
 70
     1
102
RTVSPost2010Prop49
280
     0
102
RTVSPost2010PropOp49
 70
     1
102
RTVSPost2010Prop50
 90
       50
102
RTVSPost2010PropOp50
 70
     1
102
RTVSPost2010Prop51ColorIndex
 90
      256
102
RTVSPost2010Prop51ColorRGB
 90
-16777216
102
RTVSPost2010PropOp51
 70
     0
102
RTVSPost2010Prop52
140
1.0
102
RTVSPost2010PropOp52
 70
     0
102
RTVSPost2010Prop53
 90
        2
102
RTVSPost2010PropOp53
 70
     1
102
RTVSPost2010Prop54
  1
strokes_ogs.tif
102
RTVSPost2010PropOp54
 70
     1
102
RTVSPost2010Prop55
280
     0
102
RTVSPost2010PropOp55
 70
     1
102
RTVSPost2010Prop56
140
1.0
102
RTVSPost2010PropOp56
 70
     1
102
RTVSPost2010Prop57
140
1.0
102
RTVSPost2010PropOp57
 70
     1
  0
XRECORD
  5
3AB
102
{ACAD_REACTORS
330
3AA
102
}
330
3AA
100
AcDbXrecord
280
     1
102
RTVSPropertyOp0
 70
     1
102
RTVSPropertyOp1
 70
     1
102
RTVSPropertyOp2
 70
     1
102
RTVSPropertyOp3
 70
     1
102
RTVSPropertyOp4
 70
     1
102
RTVSPropertyOp5
 70
     1
102
RTVSPropertyOp6
 70
     1
102
RTVSPropertyOp7
 70
     1
102
RTVSPropertyOp8
 70
     1
102
RTVSPropertyOp9
 70
     1
102
RTVSPropertyOp10
 70
     1
102
RTVSPropertyOp11
 70
     1
102
RTVSPropertyOp12
 70
     1
102
RTVSPropertyOp13
 70
     1
102
RTVSPropertyOp14
 70
     1
102
RTVSPropertyOp15
 70
     1
102
RTVSPropertyOp16
 70
     1
102
RTVSPropertyOp17
 70
     1
102
RTVSPropertyOp18
 70
     1
102
RTVSPropertyOp19
 70
     1
102
RTVSPropertyOp20
 70
     1
102
RTVSPropertyOp21
 70
     1
102
RTVSPropertyOp22
 70
     1
102
RTVSPropertyOp23
 70
     1
102
RTVSPropertyOp24
 70
     1
102
RTVSPropertyOp25
 70
     1
102
RTVSPropertyOp26
 70
     1
102
RTVSPropertyOp27
 70
     1
102
RTVSPropertyOp28
 70
     1
102
RTVSPropertyOp29
 70
     1
102
RTVSPropertyOp30
 70
     1
102
RTVSPropertyOp31
 70
     1
102
RTVSPropertyOp32
 70
     1
102
RTVSPropertyOp33
 70
     1
102
RTVSPropertyOp34
 70
     1
102
RTVSPropertyOp35
 70
     1
102
RTVSPropertyOp36
 70
     1
102
RTVSPropertyOp37
 70
     1
102
RTVSPropertyOp38
 70
     1
102
RTVSPropertyOp39
 70
     1
102
RTVSPropertyOp40
 70
     1
102
RTVSPropertyOp41
 70
     1
102
RTVSPropertyOp42
 70
     1
102
RTVSPropertyOp43
 70
     1
102
RTVSPropertyOp44
 70
     1
102
RTVSPropertyOp45
 70
     1
102
RTVSPropertyOp46
 70
     1
102
RTVSPropertyOp47
 70
     1
102
RTVSPropertyOp48
 70
     1
102
RTVSPropertyOp49
 70
     1
102
RTVSPropertyOp50
 70
     1
102
RTVSPropertyOp51
 70
     0
102
RTVSPropertyOp52
 70
     0
102
RTVSPropertyOp53
 70
     1
102
RTVSPropertyOp54
 70
     1
102
RTVSPropertyOp55
 70
     1
102
RTVSPropertyOp56
 70
     1
102
RTVSPropertyOp57
 70
     1
102
RTVSPost2010Prop28
280
     0
102
RTVSPost2010PropOp28
 70
     1
102
RTVSPost2010Prop29
280
     1
102
RTVSPost2010PropOp29
 70
     1
102
RTVSPost2010Prop30
280
     1
102
RTVSPost2010PropOp30
 70
     1
102
RTVSPost2010Prop31
280
     0
102
RTVSPost2010PropOp31
 70
     1
102
RTVSPost2010Prop32
280
     0
102
RTVSPost2010PropOp32
 70
     1
102
RTVSPost2010Prop33
280
     0
102
RTVSPost2010PropOp33
 70
     1
102
RTVSPost2010Prop34
280
     0
102
RTVSPost2010PropOp34
 70
     1
102
RTVSPost2010Prop35
280
     0
102
RTVSPost2010PropOp35
 70
     1
102
RTVSPost2010Prop36
280
     0
102
RTVSPost2010PropOp36
 70
     1
102
RTVSPost2010Prop37
 90
       50
102
RTVSPost2010PropOp37
 70
     1
102
RTVSPost2010Prop38
140
0.0
102
RTVSPost2010PropOp38
 70
     1
102
RTVSPost2010Prop39
140
1.0
102
RTVSPost2010PropOp39
 70
     1
102
RTVSPost2010Prop40
 90
        0
102
RTVSPost2010PropOp40
 70
     1
102
RTVSPost2010Prop41ColorIndex
 90
       18
102
RTVSPost2010Prop41ColorRGB
 90
        0
102
RTVSPost2010PropOp41
 70
     1
102
RTVSPost2010Prop42
 90
       50
102
RTVSPost2010PropOp42
 70
     1
102
RTVSPost2010Prop43
 90
        3
102
RTVSPost2010PropOp43
 70
     1
102
RTVSPost2010Prop44ColorIndex
 90
        5
102
RTVSPost2010Prop44ColorRGB
 90
      255
102
RTVSPost2010PropOp44
 70
     1
102
RTVSPost2010Prop45
280
     0
102
RTVSPost2010PropOp45
 70
     1
102
RTVSPost2010Prop46
 90
       50
102
RTVSPost2010PropOp46
 70
     1
102
RTVSPost2010Prop47
 90
       50
102
RTVSPost2010PropOp47
 70
     1
102
RTVSPost2010Prop48
 90
       50
102
RTVSPost2010PropOp48
 70
     1
102
RTVSPost2010Prop49
280
     0
102
RTVSPost2010PropOp49
 70
     1
102
RTVSPost2010Prop50
 90
       50
102
RTVSPost2010PropOp50
 70
     1
102
RTVSPost2010Prop51ColorIndex
 90
      256
102
RTVSPost2010Prop51ColorRGB
 90
-16777216
102
RTVSPost2010PropOp51
 70
     0
102
RTVSPost2010Prop52
140
1.0
102
RTVSPost2010PropOp52
 70
     0
102
RTVSPost2010Prop53
 90
        2
102
RTVSPost2010PropOp53
 70
     1
102
RTVSPost2010Prop54
  1
strokes_ogs.tif
102
RTVSPost2010PropOp54
 70
     1
102
RTVSPost2010Prop55
280
     0
102
RTVSPost2010PropOp55
 70
     1
102
RTVSPost2010Prop56
140
1.0
102
RTVSPost2010PropOp56
 70
     1
102
RTVSPost2010Prop57
140
1.0
102
RTVSPost2010PropOp57
 70
     1
  0
XRECORD
  5
3AD
102
{ACAD_REACTORS
330
3AC
102
}
330
3AC
100
AcDbXrecord
280
     1
102
RTVSPropertyOp0
 70
     1
102
RTVSPropertyOp1
 70
     1
102
RTVSPropertyOp2
 70
     1
102
RTVSPropertyOp3
 70
     1
102
RTVSPropertyOp4
 70
     1
102
RTVSPropertyOp5
 70
     1
102
RTVSPropertyOp6
 70
     1
102
RTVSPropertyOp7
 70
     1
102
RTVSPropertyOp8
 70
     1
102
RTVSPropertyOp9
 70
     1
102
RTVSPropertyOp10
 70
     1
102
RTVSPropertyOp11
 70
     1
102
RTVSPropertyOp12
 70
     1
102
RTVSPropertyOp13
 70
     1
102
RTVSPropertyOp14
 70
     1
102
RTVSPropertyOp15
 70
     1
102
RTVSPropertyOp16
 70
     1
102
RTVSPropertyOp17
 70
     1
102
RTVSPropertyOp18
 70
     1
102
RTVSPropertyOp19
 70
     1
102
RTVSPropertyOp20
 70
     1
102
RTVSPropertyOp21
 70
     1
102
RTVSPropertyOp22
 70
     1
102
RTVSPropertyOp23
 70
     1
102
RTVSPropertyOp24
 70
     1
102
RTVSPropertyOp25
 70
     1
102
RTVSPropertyOp26
 70
     1
102
RTVSPropertyOp27
 70
     1
102
RTVSPropertyOp28
 70
     1
102
RTVSPropertyOp29
 70
     1
102
RTVSPropertyOp30
 70
     1
102
RTVSPropertyOp31
 70
     1
102
RTVSPropertyOp32
 70
     1
102
RTVSPropertyOp33
 70
     1
102
RTVSPropertyOp34
 70
     1
102
RTVSPropertyOp35
 70
     1
102
RTVSPropertyOp36
 70
     1
102
RTVSPropertyOp37
 70
     1
102
RTVSPropertyOp38
 70
     1
102
RTVSPropertyOp39
 70
     1
102
RTVSPropertyOp40
 70
     1
102
RTVSPropertyOp41
 70
     1
102
RTVSPropertyOp42
 70
     1
102
RTVSPropertyOp43
 70
     1
102
RTVSPropertyOp44
 70
     1
102
RTVSPropertyOp45
 70
     1
102
RTVSPropertyOp46
 70
     1
102
RTVSPropertyOp47
 70
     1
102
RTVSPropertyOp48
 70
     1
102
RTVSPropertyOp49
 70
     1
102
RTVSPropertyOp50
 70
     1
102
RTVSPropertyOp51
 70
     0
102
RTVSPropertyOp52
 70
     0
102
RTVSPropertyOp53
 70
     1
102
RTVSPropertyOp54
 70
     1
102
RTVSPropertyOp55
 70
     1
102
RTVSPropertyOp56
 70
     1
102
RTVSPropertyOp57
 70
     1
102
RTVSPost2010Prop28
280
     0
102
RTVSPost2010PropOp28
 70
     1
102
RTVSPost2010Prop29
280
     1
102
RTVSPost2010PropOp29
 70
     1
102
RTVSPost2010Prop30
280
     1
102
RTVSPost2010PropOp30
 70
     1
102
RTVSPost2010Prop31
280
     0
102
RTVSPost2010PropOp31
 70
     1
102
RTVSPost2010Prop32
280
     0
102
RTVSPost2010PropOp32
 70
     1
102
RTVSPost2010Prop33
280
     0
102
RTVSPost2010PropOp33
 70
     1
102
RTVSPost2010Prop34
280
     0
102
RTVSPost2010PropOp34
 70
     1
102
RTVSPost2010Prop35
280
     0
102
RTVSPost2010PropOp35
 70
     1
102
RTVSPost2010Prop36
280
     0
102
RTVSPost2010PropOp36
 70
     1
102
RTVSPost2010Prop37
 90
       50
102
RTVSPost2010PropOp37
 70
     1
102
RTVSPost2010Prop38
140
0.0
102
RTVSPost2010PropOp38
 70
     1
102
RTVSPost2010Prop39
140
1.0
102
RTVSPost2010PropOp39
 70
     1
102
RTVSPost2010Prop40
 90
        0
102
RTVSPost2010PropOp40
 70
     1
102
RTVSPost2010Prop41ColorIndex
 90
       18
102
RTVSPost2010Prop41ColorRGB
 90
        0
102
RTVSPost2010PropOp41
 70
     1
102
RTVSPost2010Prop42
 90
       50
102
RTVSPost2010PropOp42
 70
     1
102
RTVSPost2010Prop43
 90
        3
102
RTVSPost2010PropOp43
 70
     1
102
RTVSPost2010Prop44ColorIndex
 90
        5
102
RTVSPost2010Prop44ColorRGB
 90
      255
102
RTVSPost2010PropOp44
 70
     1
102
RTVSPost2010Prop45
280
     0
102
RTVSPost2010PropOp45
 70
     1
102
RTVSPost2010Prop46
 90
       50
102
RTVSPost2010PropOp46
 70
     1
102
RTVSPost2010Prop47
 90
       50
102
RTVSPost2010PropOp47
 70
     1
102
RTVSPost2010Prop48
 90
       50
102
RTVSPost2010PropOp48
 70
     1
102
RTVSPost2010Prop49
280
     0
102
RTVSPost2010PropOp49
 70
     1
102
RTVSPost2010Prop50
 90
       50
102
RTVSPost2010PropOp50
 70
     1
102
RTVSPost2010Prop51ColorIndex
 90
      256
102
RTVSPost2010Prop51ColorRGB
 90
-16777216
102
RTVSPost2010PropOp51
 70
     0
102
RTVSPost2010Prop52
140
1.0
102
RTVSPost2010PropOp52
 70
     0
102
RTVSPost2010Prop53
 90
        2
102
RTVSPost2010PropOp53
 70
     1
102
RTVSPost2010Prop54
  1
strokes_ogs.tif
102
RTVSPost2010PropOp54
 70
     1
102
RTVSPost2010Prop55
280
     0
102
RTVSPost2010PropOp55
 70
     1
102
RTVSPost2010Prop56
140
1.0
102
RTVSPost2010PropOp56
 70
     1
102
RTVSPost2010Prop57
140
1.0
102
RTVSPost2010PropOp57
 70
     1
  0
XRECORD
  5
39D
102
{ACAD_REACTORS
330
39C
102
}
330
39C
100
AcDbXrecord
280
     1
102
RTVSPropertyOp0
 70
     1
102
RTVSPropertyOp1
 70
     1
102
RTVSPropertyOp2
 70
     1
102
RTVSPropertyOp3
 70
     1
102
RTVSPropertyOp4
 70
     1
102
RTVSPropertyOp5
 70
     1
102
RTVSPropertyOp6
 70
     1
102
RTVSPropertyOp7
 70
     1
102
RTVSPropertyOp8
 70
     1
102
RTVSPropertyOp9
 70
     1
102
RTVSPropertyOp10
 70
     1
102
RTVSPropertyOp11
 70
     1
102
RTVSPropertyOp12
 70
     1
102
RTVSPropertyOp13
 70
     1
102
RTVSPropertyOp14
 70
     1
102
RTVSPropertyOp15
 70
     1
102
RTVSPropertyOp16
 70
     1
102
RTVSPropertyOp17
 70
     1
102
RTVSPropertyOp18
 70
     1
102
RTVSPropertyOp19
 70
     1
102
RTVSPropertyOp20
 70
     1
102
RTVSPropertyOp21
 70
     1
102
RTVSPropertyOp22
 70
     1
102
RTVSPropertyOp23
 70
     1
102
RTVSPropertyOp24
 70
     1
102
RTVSPropertyOp25
 70
     1
102
RTVSPropertyOp26
 70
     1
102
RTVSPropertyOp27
 70
     1
102
RTVSPropertyOp28
 70
     1
102
RTVSPropertyOp29
 70
     1
102
RTVSPropertyOp30
 70
     1
102
RTVSPropertyOp31
 70
     1
102
RTVSPropertyOp32
 70
     1
102
RTVSPropertyOp33
 70
     1
102
RTVSPropertyOp34
 70
     1
102
RTVSPropertyOp35
 70
     1
102
RTVSPropertyOp36
 70
     1
102
RTVSPropertyOp37
 70
     1
102
RTVSPropertyOp38
 70
     1
102
RTVSPropertyOp39
 70
     1
102
RTVSPropertyOp40
 70
     1
102
RTVSPropertyOp41
 70
     1
102
RTVSPropertyOp42
 70
     1
102
RTVSPropertyOp43
 70
     1
102
RTVSPropertyOp44
 70
     1
102
RTVSPropertyOp45
 70
     1
102
RTVSPropertyOp46
 70
     1
102
RTVSPropertyOp47
 70
     1
102
RTVSPropertyOp48
 70
     1
102
RTVSPropertyOp49
 70
     1
102
RTVSPropertyOp50
 70
     1
102
RTVSPropertyOp51
 70
     0
102
RTVSPropertyOp52
 70
     0
102
RTVSPropertyOp53
 70
     1
102
RTVSPropertyOp54
 70
     1
102
RTVSPropertyOp55
 70
     1
102
RTVSPropertyOp56
 70
     1
102
RTVSPropertyOp57
 70
     1
102
RTVSPost2010Prop28
280
     0
102
RTVSPost2010PropOp28
 70
     1
102
RTVSPost2010Prop29
280
     1
102
RTVSPost2010PropOp29
 70
     1
102
RTVSPost2010Prop30
280
     1
102
RTVSPost2010PropOp30
 70
     1
102
RTVSPost2010Prop31
280
     0
102
RTVSPost2010PropOp31
 70
     1
102
RTVSPost2010Prop32
280
     0
102
RTVSPost2010PropOp32
 70
     1
102
RTVSPost2010Prop33
280
     0
102
RTVSPost2010PropOp33
 70
     1
102
RTVSPost2010Prop34
280
     0
102
RTVSPost2010PropOp34
 70
     1
102
RTVSPost2010Prop35
280
     0
102
RTVSPost2010PropOp35
 70
     1
102
RTVSPost2010Prop36
280
     0
102
RTVSPost2010PropOp36
 70
     1
102
RTVSPost2010Prop37
 90
       50
102
RTVSPost2010PropOp37
 70
     1
102
RTVSPost2010Prop38
140
0.0
102
RTVSPost2010PropOp38
 70
     1
102
RTVSPost2010Prop39
140
1.0
102
RTVSPost2010PropOp39
 70
     1
102
RTVSPost2010Prop40
 90
        0
102
RTVSPost2010PropOp40
 70
     1
102
RTVSPost2010Prop41ColorIndex
 90
       18
102
RTVSPost2010Prop41ColorRGB
 90
        0
102
RTVSPost2010PropOp41
 70
     1
102
RTVSPost2010Prop42
 90
       50
102
RTVSPost2010PropOp42
 70
     1
102
RTVSPost2010Prop43
 90
        3
102
RTVSPost2010PropOp43
 70
     1
102
RTVSPost2010Prop44ColorIndex
 90
        5
102
RTVSPost2010Prop44ColorRGB
 90
      255
102
RTVSPost2010PropOp44
 70
     1
102
RTVSPost2010Prop45
280
     0
102
RTVSPost2010PropOp45
 70
     1
102
RTVSPost2010Prop46
 90
       50
102
RTVSPost2010PropOp46
 70
     1
102
RTVSPost2010Prop47
 90
       50
102
RTVSPost2010PropOp47
 70
     1
102
RTVSPost2010Prop48
 90
       50
102
RTVSPost2010PropOp48
 70
     1
102
RTVSPost2010Prop49
280
     0
102
RTVSPost2010PropOp49
 70
     1
102
RTVSPost2010Prop50
 90
       50
102
RTVSPost2010PropOp50
 70
     1
102
RTVSPost2010Prop51ColorIndex
 90
      256
102
RTVSPost2010Prop51ColorRGB
 90
-16777216
102
RTVSPost2010PropOp51
 70
     0
102
RTVSPost2010Prop52
140
1.0
102
RTVSPost2010PropOp52
 70
     0
102
RTVSPost2010Prop53
 90
        2
102
RTVSPost2010PropOp53
 70
     1
102
RTVSPost2010Prop54
  1
strokes_ogs.tif
102
RTVSPost2010PropOp54
 70
     1
102
RTVSPost2010Prop55
280
     0
102
RTVSPost2010PropOp55
 70
     1
102
RTVSPost2010Prop56
140
1.0
102
RTVSPost2010PropOp56
 70
     1
102
RTVSPost2010Prop57
140
1.0
102
RTVSPost2010PropOp57
 70
     1
  0
XRECORD
  5
38F
102
{ACAD_REACTORS
330
38E
102
}
330
38E
100
AcDbXrecord
280
     1
102
RTVSPropertyOp0
 70
     1
102
RTVSPropertyOp1
 70
     1
102
RTVSPropertyOp2
 70
     1
102
RTVSPropertyOp3
 70
     1
102
RTVSPropertyOp4
 70
     1
102
RTVSPropertyOp5
 70
     1
102
RTVSPropertyOp6
 70
     1
102
RTVSPropertyOp7
 70
     1
102
RTVSPropertyOp8
 70
     1
102
RTVSPropertyOp9
 70
     1
102
RTVSPropertyOp10
 70
     1
102
RTVSPropertyOp11
 70
     1
102
RTVSPropertyOp12
 70
     1
102
RTVSPropertyOp13
 70
     1
102
RTVSPropertyOp14
 70
     1
102
RTVSPropertyOp15
 70
     1
102
RTVSPropertyOp16
 70
     1
102
RTVSPropertyOp17
 70
     1
102
RTVSPropertyOp18
 70
     1
102
RTVSPropertyOp19
 70
     1
102
RTVSPropertyOp20
 70
     1
102
RTVSPropertyOp21
 70
     1
102
RTVSPropertyOp22
 70
     1
102
RTVSPropertyOp23
 70
     1
102
RTVSPropertyOp24
 70
     1
102
RTVSPropertyOp25
 70
     1
102
RTVSPropertyOp26
 70
     1
102
RTVSPropertyOp27
 70
     1
102
RTVSPropertyOp28
 70
     1
102
RTVSPropertyOp29
 70
     1
102
RTVSPropertyOp30
 70
     1
102
RTVSPropertyOp31
 70
     1
102
RTVSPropertyOp32
 70
     1
102
RTVSPropertyOp33
 70
     1
102
RTVSPropertyOp34
 70
     1
102
RTVSPropertyOp35
 70
     1
102
RTVSPropertyOp36
 70
     1
102
RTVSPropertyOp37
 70
     1
102
RTVSPropertyOp38
 70
     1
102
RTVSPropertyOp39
 70
     1
102
RTVSPropertyOp40
 70
     1
102
RTVSPropertyOp41
 70
     1
102
RTVSPropertyOp42
 70
     1
102
RTVSPropertyOp43
 70
     1
102
RTVSPropertyOp44
 70
     1
102
RTVSPropertyOp45
 70
     1
102
RTVSPropertyOp46
 70
     1
102
RTVSPropertyOp47
 70
     1
102
RTVSPropertyOp48
 70
     1
102
RTVSPropertyOp49
 70
     1
102
RTVSPropertyOp50
 70
     1
102
RTVSPropertyOp51
 70
     0
102
RTVSPropertyOp52
 70
     0
102
RTVSPropertyOp53
 70
     1
102
RTVSPropertyOp54
 70
     1
102
RTVSPropertyOp55
 70
     1
102
RTVSPropertyOp56
 70
     1
102
RTVSPropertyOp57
 70
     1
102
RTVSPost2010Prop28
280
     0
102
RTVSPost2010PropOp28
 70
     1
102
RTVSPost2010Prop29
280
     1
102
RTVSPost2010PropOp29
 70
     1
102
RTVSPost2010Prop30
280
     1
102
RTVSPost2010PropOp30
 70
     1
102
RTVSPost2010Prop31
280
     0
102
RTVSPost2010PropOp31
 70
     1
102
RTVSPost2010Prop32
280
     0
102
RTVSPost2010PropOp32
 70
     1
102
RTVSPost2010Prop33
280
     0
102
RTVSPost2010PropOp33
 70
     1
102
RTVSPost2010Prop34
280
     0
102
RTVSPost2010PropOp34
 70
     1
102
RTVSPost2010Prop35
280
     0
102
RTVSPost2010PropOp35
 70
     1
102
RTVSPost2010Prop36
280
     0
102
RTVSPost2010PropOp36
 70
     1
102
RTVSPost2010Prop37
 90
       50
102
RTVSPost2010PropOp37
 70
     1
102
RTVSPost2010Prop38
140
0.0
102
RTVSPost2010PropOp38
 70
     1
102
RTVSPost2010Prop39
140
1.0
102
RTVSPost2010PropOp39
 70
     1
102
RTVSPost2010Prop40
 90
        0
102
RTVSPost2010PropOp40
 70
     1
102
RTVSPost2010Prop41ColorIndex
 90
       18
102
RTVSPost2010Prop41ColorRGB
 90
        0
102
RTVSPost2010PropOp41
 70
     1
102
RTVSPost2010Prop42
 90
       50
102
RTVSPost2010PropOp42
 70
     1
102
RTVSPost2010Prop43
 90
        3
102
RTVSPost2010PropOp43
 70
     1
102
RTVSPost2010Prop44ColorIndex
 90
        5
102
RTVSPost2010Prop44ColorRGB
 90
      255
102
RTVSPost2010PropOp44
 70
     1
102
RTVSPost2010Prop45
280
     0
102
RTVSPost2010PropOp45
 70
     1
102
RTVSPost2010Prop46
 90
       50
102
RTVSPost2010PropOp46
 70
     1
102
RTVSPost2010Prop47
 90
       50
102
RTVSPost2010PropOp47
 70
     1
102
RTVSPost2010Prop48
 90
       50
102
RTVSPost2010PropOp48
 70
     1
102
RTVSPost2010Prop49
280
     0
102
RTVSPost2010PropOp49
 70
     1
102
RTVSPost2010Prop50
 90
       50
102
RTVSPost2010PropOp50
 70
     1
102
RTVSPost2010Prop51ColorIndex
 90
      256
102
RTVSPost2010Prop51ColorRGB
 90
-16777216
102
RTVSPost2010PropOp51
 70
     0
102
RTVSPost2010Prop52
140
1.0
102
RTVSPost2010PropOp52
 70
     0
102
RTVSPost2010Prop53
 90
        2
102
RTVSPost2010PropOp53
 70
     1
102
RTVSPost2010Prop54
  1
strokes_ogs.tif
102
RTVSPost2010PropOp54
 70
     1
102
RTVSPost2010Prop55
280
     0
102
RTVSPost2010PropOp55
 70
     1
102
RTVSPost2010Prop56
140
1.0
102
RTVSPost2010PropOp56
 70
     1
102
RTVSPost2010Prop57
140
1.0
102
RTVSPost2010PropOp57
 70
     1
  0
XRECORD
  5
3AF
102
{ACAD_REACTORS
330
3AE
102
}
330
3AE
100
AcDbXrecord
280
     1
102
RTVSPropertyOp0
 70
     1
102
RTVSPropertyOp1
 70
     1
102
RTVSPropertyOp2
 70
     1
102
RTVSPropertyOp3
 70
     1
102
RTVSPropertyOp4
 70
     1
102
RTVSPropertyOp5
 70
     1
102
RTVSPropertyOp6
 70
     1
102
RTVSPropertyOp7
 70
     1
102
RTVSPropertyOp8
 70
     1
102
RTVSPropertyOp9
 70
     1
102
RTVSPropertyOp10
 70
     1
102
RTVSPropertyOp11
 70
     1
102
RTVSPropertyOp12
 70
     1
102
RTVSPropertyOp13
 70
     1
102
RTVSPropertyOp14
 70
     1
102
RTVSPropertyOp15
 70
     1
102
RTVSPropertyOp16
 70
     1
102
RTVSPropertyOp17
 70
     1
102
RTVSPropertyOp18
 70
     1
102
RTVSPropertyOp19
 70
     1
102
RTVSPropertyOp20
 70
     1
102
RTVSPropertyOp21
 70
     1
102
RTVSPropertyOp22
 70
     1
102
RTVSPropertyOp23
 70
     1
102
RTVSPropertyOp24
 70
     1
102
RTVSPropertyOp25
 70
     1
102
RTVSPropertyOp26
 70
     1
102
RTVSPropertyOp27
 70
     1
102
RTVSPropertyOp28
 70
     1
102
RTVSPropertyOp29
 70
     1
102
RTVSPropertyOp30
 70
     1
102
RTVSPropertyOp31
 70
     1
102
RTVSPropertyOp32
 70
     1
102
RTVSPropertyOp33
 70
     1
102
RTVSPropertyOp34
 70
     1
102
RTVSPropertyOp35
 70
     1
102
RTVSPropertyOp36
 70
     1
102
RTVSPropertyOp37
 70
     1
102
RTVSPropertyOp38
 70
     1
102
RTVSPropertyOp39
 70
     1
102
RTVSPropertyOp40
 70
     1
102
RTVSPropertyOp41
 70
     1
102
RTVSPropertyOp42
 70
     1
102
RTVSPropertyOp43
 70
     1
102
RTVSPropertyOp44
 70
     1
102
RTVSPropertyOp45
 70
     1
102
RTVSPropertyOp46
 70
     1
102
RTVSPropertyOp47
 70
     1
102
RTVSPropertyOp48
 70
     1
102
RTVSPropertyOp49
 70
     1
102
RTVSPropertyOp50
 70
     1
102
RTVSPropertyOp51
 70
     0
102
RTVSPropertyOp52
 70
     0
102
RTVSPropertyOp53
 70
     1
102
RTVSPropertyOp54
 70
     1
102
RTVSPropertyOp55
 70
     1
102
RTVSPropertyOp56
 70
     1
102
RTVSPropertyOp57
 70
     1
102
RTVSPost2010Prop28
280
     0
102
RTVSPost2010PropOp28
 70
     1
102
RTVSPost2010Prop29
280
     1
102
RTVSPost2010PropOp29
 70
     1
102
RTVSPost2010Prop30
280
     1
102
RTVSPost2010PropOp30
 70
     1
102
RTVSPost2010Prop31
280
     0
102
RTVSPost2010PropOp31
 70
     1
102
RTVSPost2010Prop32
280
     0
102
RTVSPost2010PropOp32
 70
     1
102
RTVSPost2010Prop33
280
     0
102
RTVSPost2010PropOp33
 70
     1
102
RTVSPost2010Prop34
280
     0
102
RTVSPost2010PropOp34
 70
     1
102
RTVSPost2010Prop35
280
     0
102
RTVSPost2010PropOp35
 70
     1
102
RTVSPost2010Prop36
280
     0
102
RTVSPost2010PropOp36
 70
     1
102
RTVSPost2010Prop37
 90
       50
102
RTVSPost2010PropOp37
 70
     1
102
RTVSPost2010Prop38
140
0.0
102
RTVSPost2010PropOp38
 70
     1
102
RTVSPost2010Prop39
140
1.0
102
RTVSPost2010PropOp39
 70
     1
102
RTVSPost2010Prop40
 90
        0
102
RTVSPost2010PropOp40
 70
     1
102
RTVSPost2010Prop41ColorIndex
 90
       18
102
RTVSPost2010Prop41ColorRGB
 90
        0
102
RTVSPost2010PropOp41
 70
     1
102
RTVSPost2010Prop42
 90
       50
102
RTVSPost2010PropOp42
 70
     1
102
RTVSPost2010Prop43
 90
        3
102
RTVSPost2010PropOp43
 70
     1
102
RTVSPost2010Prop44ColorIndex
 90
        5
102
RTVSPost2010Prop44ColorRGB
 90
      255
102
RTVSPost2010PropOp44
 70
     1
102
RTVSPost2010Prop45
280
     0
102
RTVSPost2010PropOp45
 70
     1
102
RTVSPost2010Prop46
 90
       50
102
RTVSPost2010PropOp46
 70
     1
102
RTVSPost2010Prop47
 90
       50
102
RTVSPost2010PropOp47
 70
     1
102
RTVSPost2010Prop48
 90
       50
102
RTVSPost2010PropOp48
 70
     1
102
RTVSPost2010Prop49
280
     0
102
RTVSPost2010PropOp49
 70
     1
102
RTVSPost2010Prop50
 90
       50
102
RTVSPost2010PropOp50
 70
     1
102
RTVSPost2010Prop51ColorIndex
 90
      256
102
RTVSPost2010Prop51ColorRGB
 90
-16777216
102
RTVSPost2010PropOp51
 70
     0
102
RTVSPost2010Prop52
140
1.0
102
RTVSPost2010PropOp52
 70
     0
102
RTVSPost2010Prop53
 90
        2
102
RTVSPost2010PropOp53
 70
     1
102
RTVSPost2010Prop54
  1
strokes_ogs.tif
102
RTVSPost2010PropOp54
 70
     1
102
RTVSPost2010Prop55
280
     0
102
RTVSPost2010PropOp55
 70
     1
102
RTVSPost2010Prop56
140
1.0
102
RTVSPost2010PropOp56
 70
     1
102
RTVSPost2010Prop57
140
1.0
102
RTVSPost2010PropOp57
 70
     1
  0
ENDSEC
  0
EOF
