  0
SECTION
  2
HEADER
  9
$ACADVER
  1
AC1024
  9
$ACADMAINTVER
 70
     6
  9
$DWGCODEPAGE
  3
ANSI_1252
  9
$COMMENTS
  1
File was created by ARCHline.XP2011
  9
$INSBASE
 10
0.0
 20
0.0
 30
0.0
  9
$EXTMIN
 10
-0.0000000000001705
 20
0.0
 30
0.0
  9
$EXTMAX
 10
297.0
 20
210.0
 30
0.0
  9
$LIMMIN
 10
0.0
 20
0.0
  9
$LIMMAX
 10
12.0
 20
9.0
  9
$ORTHOMODE
 70
     0
  9
$REGENMODE
 70
     1
  9
$FILLMODE
 70
     1
  9
$QTEXTMODE
 70
     0
  9
$MIRRTEXT
 70
     1
  9
$LTSCALE
 40
1.0
  9
$ATTMODE
 70
     1
  9
$TEXTSIZE
 40
0.2
  9
$TRACEWID
 40
0.05
  9
$TEXTSTYLE
  7
Standard
  9
$CLAYER
  8
0
  9
$CELTYPE
  6
ByLayer
  9
$CECOLOR
 62
   256
  9
$CELTSCALE
 40
1.0
  9
$DISPSILH
 70
     0
  9
$DIMSCALE
 40
1.0
  9
$DIMASZ
 40
0.18
  9
$DIMEXO
 40
0.0625
  9
$DIMDLI
 40
0.38
  9
$DIMRND
 40
0.0
  9
$DIMDLE
 40
0.0
  9
$DIMEXE
 40
0.18
  9
$DIMTP
 40
0.0
  9
$DIMTM
 40
0.0
  9
$DIMTXT
 40
0.18
  9
$DIMCEN
 40
0.09
  9
$DIMTSZ
 40
0.0
  9
$DIMTOL
 70
     0
  9
$DIMLIM
 70
     0
  9
$DIMTIH
 70
     1
  9
$DIMTOH
 70
     1
  9
$DIMSE1
 70
     0
  9
$DIMSE2
 70
     0
  9
$DIMTAD
 70
     0
  9
$DIMZIN
 70
     0
  9
$DIMBLK
  1

  9
$DIMASO
 70
     1
  9
$DIMSHO
 70
     1
  9
$DIMPOST
  1

  9
$DIMAPOST
  1

  9
$DIMALT
 70
     0
  9
$DIMALTD
 70
     2
  9
$DIMALTF
 40
25.4
  9
$DIMLFAC
 40
1.0
  9
$DIMTOFL
 70
     0
  9
$DIMTVP
 40
0.0
  9
$DIMTIX
 70
     0
  9
$DIMSOXD
 70
     0
  9
$DIMSAH
 70
     0
  9
$DIMBLK1
  1

  9
$DIMBLK2
  1

  9
$DIMSTYLE
  2
Standard
  9
$DIMCLRD
 70
     0
  9
$DIMCLRE
 70
     0
  9
$DIMCLRT
 70
     0
  9
$DIMTFAC
 40
1.0
  9
$DIMGAP
 40
0.09
  9
$DIMJUST
 70
     0
  9
$DIMSD1
 70
     0
  9
$DIMSD2
 70
     0
  9
$DIMTOLJ
 70
     1
  9
$DIMTZIN
 70
     0
  9
$DIMALTZ
 70
     0
  9
$DIMALTTZ
 70
     0
  9
$DIMUPT
 70
     0
  9
$DIMDEC
 70
     4
  9
$DIMTDEC
 70
     4
  9
$DIMALTU
 70
     2
  9
$DIMALTTD
 70
     2
  9
$DIMTXSTY
  7
Standard
  9
$DIMAUNIT
 70
     0
  9
$DIMADEC
 70
     0
  9
$DIMALTRND
 40
0.0
  9
$DIMAZIN
 70
     0
  9
$DIMDSEP
 70
    46
  9
$DIMATFIT
 70
     3
  9
$DIMFRAC
 70
     0
  9
$DIMLDRBLK
  1

  9
$DIMLUNIT
 70
     2
  9
$DIMLWD
 70
    -2
  9
$DIMLWE
 70
    -2
  9
$DIMTMOVE
 70
     0
  9
$DIMFXL
 40
1.0
  9
$DIMFXLON
 70
     0
  9
$DIMJOGANG
 40
0.7853981633974483
  9
$DIMTFILL
 70
     0
  9
$DIMTFILLCLR
 70
     0
  9
$DIMARCSYM
 70
     0
  9
$DIMLTYPE
  6

  9
$DIMLTEX1
  6

  9
$DIMLTEX2
  6

  9
$DIMTXTDIRECTION
 70
     0
  9
$LUNITS
 70
     2
  9
$LUPREC
 70
     4
  9
$SKETCHINC
 40
0.1
  9
$FILLETRAD
 40
0.5
  9
$AUNITS
 70
     0
  9
$AUPREC
 70
     0
  9
$MENU
  1
.
  9
$ELEVATION
 40
0.0
  9
$PELEVATION
 40
0.0
  9
$THICKNESS
 40
0.0
  9
$LIMCHECK
 70
     0
  9
$CHAMFERA
 40
0.5
  9
$CHAMFERB
 40
0.5
  9
$CHAMFERC
 40
1.0
  9
$CHAMFERD
 40
0.0
  9
$SKPOLY
 70
     0
  9
$TDCREATE
 40
2457528.459385359
  9
$TDUCREATE
 40
2457528.376052025
  9
$TDUPDATE
 40
2457528.459388796
  9
$TDUUPDATE
 40
2457528.376055463
  9
$TDINDWG
 40
0.0000000116
  9
$TDUSRTIMER
 40
0.0000000116
  9
$USRTIMER
 70
     1
  9
$ANGBASE
 50
0.0
  9
$ANGDIR
 70
     0
  9
$PDMODE
 70
     0
  9
$PDSIZE
 40
0.0
  9
$PLINEWID
 40
0.0
  9
$SPLFRAME
 70
     0
  9
$SPLINETYPE
 70
     6
  9
$SPLINESEGS
 70
     8
  9
$HANDSEED
  5
37E
  9
$SURFTAB1
 70
     6
  9
$SURFTAB2
 70
     6
  9
$SURFTYPE
 70
     6
  9
$SURFU
 70
     6
  9
$SURFV
 70
     6
  9
$UCSBASE
  2

  9
$UCSNAME
  2

  9
$UCSORG
 10
0.0
 20
0.0
 30
0.0
  9
$UCSXDIR
 10
1.0
 20
0.0
 30
0.0
  9
$UCSYDIR
 10
0.0
 20
1.0
 30
0.0
  9
$UCSORTHOREF
  2

  9
$UCSORTHOVIEW
 70
     0
  9
$UCSORGTOP
 10
0.0
 20
0.0
 30
0.0
  9
$UCSORGBOTTOM
 10
0.0
 20
0.0
 30
0.0
  9
$UCSORGLEFT
 10
0.0
 20
0.0
 30
0.0
  9
$UCSORGRIGHT
 10
0.0
 20
0.0
 30
0.0
  9
$UCSORGFRONT
 10
0.0
 20
0.0
 30
0.0
  9
$UCSORGBACK
 10
0.0
 20
0.0
 30
0.0
  9
$PUCSBASE
  2

  9
$PUCSNAME
  2

  9
$PUCSORG
 10
0.0
 20
0.0
 30
0.0
  9
$PUCSXDIR
 10
1.0
 20
0.0
 30
0.0
  9
$PUCSYDIR
 10
0.0
 20
1.0
 30
0.0
  9
$PUCSORTHOREF
  2

  9
$PUCSORTHOVIEW
 70
     0
  9
$PUCSORGTOP
 10
0.0
 20
0.0
 30
0.0
  9
$PUCSORGBOTTOM
 10
0.0
 20
0.0
 30
0.0
  9
$PUCSORGLEFT
 10
0.0
 20
0.0
 30
0.0
  9
$PUCSORGRIGHT
 10
0.0
 20
0.0
 30
0.0
  9
$PUCSORGFRONT
 10
0.0
 20
0.0
 30
0.0
  9
$PUCSORGBACK
 10
0.0
 20
0.0
 30
0.0
  9
$USERI1
 70
     0
  9
$USERI2
 70
     0
  9
$USERI3
 70
     0
  9
$USERI4
 70
     0
  9
$USERI5
 70
     0
  9
$USERR1
 40
0.0
  9
$USERR2
 40
0.0
  9
$USERR3
 40
0.0
  9
$USERR4
 40
0.0
  9
$USERR5
 40
0.0
  9
$WORLDVIEW
 70
     1
  9
$SHADEDGE
 70
     3
  9
$SHADEDIF
 70
    70
  9
$TILEMODE
 70
     1
  9
$MAXACTVP
 70
    64
  9
$PINSBASE
 10
0.0
 20
0.0
 30
0.0
  9
$PLIMCHECK
 70
     0
  9
$PEXTMIN
 10
1.000000000000000E+20
 20
1.000000000000000E+20
 30
1.000000000000000E+20
  9
$PEXTMAX
 10
-1.000000000000000E+20
 20
-1.000000000000000E+20
 30
-1.000000000000000E+20
  9
$PLIMMIN
 10
0.0
 20
0.0
  9
$PLIMMAX
 10
12.0
 20
9.0
  9
$UNITMODE
 70
     0
  9
$VISRETAIN
 70
     1
  9
$PLINEGEN
 70
     0
  9
$PSLTSCALE
 70
     1
  9
$TREEDEPTH
 70
  3020
  9
$CMLSTYLE
  2
Standard
  9
$CMLJUST
 70
     0
  9
$CMLSCALE
 40
1.0
  9
$PROXYGRAPHICS
 70
     1
  9
$MEASUREMENT
 70
     0
  9
$CELWEIGHT
370
    -1
  9
$ENDCAPS
280
     0
  9
$JOINSTYLE
280
     0
  9
$LWDISPLAY
290
     0
  9
$INSUNITS
 70
     1
  9
$HYPERLINKBASE
  1

  9
$STYLESHEET
  1

  9
$XEDIT
290
     1
  9
$CEPSNTYPE
380
     0
  9
$PSTYLEMODE
290
     1
  9
$FINGERPRINTGUID
  2
{8F1A4655-934C-4984-B36F-FB66E6C2B182}
  9
$VERSIONGUID
  2
{FAEB1C32-E019-11D5-929B-00C0DF256EC4}
  9
$EXTNAMES
290
     1
  9
$PSVPSCALE
 40
0.0
  9
$OLESTARTUP
290
     0
  9
$SORTENTS
280
   127
  9
$INDEXCTL
280
     0
  9
$HIDETEXT
280
     1
  9
$XCLIPFRAME
280
     2
  9
$HALOGAP
280
     0
  9
$OBSCOLOR
 70
   257
  9
$OBSLTYPE
280
     0
  9
$INTERSECTIONDISPLAY
280
     0
  9
$INTERSECTIONCOLOR
 70
   257
  9
$DIMASSOC
280
     2
  9
$PROJECTNAME
  1

  9
$CAMERADISPLAY
290
     0
  9
$LENSLENGTH
 40
50.0
  9
$CAMERAHEIGHT
 40
0.0
  9
$STEPSPERSEC
 40
2.0
  9
$STEPSIZE
 40
6.0
  9
$3DDWFPREC
 40
2.0
  9
$PSOLWIDTH
 40
0.25
  9
$PSOLHEIGHT
 40
4.0
  9
$LOFTANG1
 40
1.570796326794897
  9
$LOFTANG2
 40
1.570796326794897
  9
$LOFTMAG1
 40
0.0
  9
$LOFTMAG2
 40
0.0
  9
$LOFTPARAM
 70
     7
  9
$LOFTNORMALS
280
     1
  9
$LATITUDE
 40
37.795
  9
$LONGITUDE
 40
-122.394
  9
$NORTHDIRECTION
 40
0.0
  9
$TIMEZONE
 70
 -8000
  9
$LIGHTGLYPHDISPLAY
280
     1
  9
$TILEMODELIGHTSYNCH
280
     1
  9
$SOLIDHIST
280
     1
  9
$SHOWHIST
280
     1
  9
$DWFFRAME
280
     2
  9
$DGNFRAME
280
     2
  9
$REALWORLDSCALE
290
     1
  9
$INTERFERECOLOR
 62
   256
  9
$CSHADOW
280
     0
  9
$SHADOWPLANELOCATION
 40
0.0
  0
ENDSEC
  0
SECTION
  2
CLASSES
  0
CLASS
  1
ACDBDICTIONARYWDFLT
  2
AcDbDictionaryWithDefault
  3
ObjectDBX Classes
 90
        0
 91
        4
280
     0
281
     0
  0
CLASS
  1
VISUALSTYLE
  2
AcDbVisualStyle
  3
ObjectDBX Classes
 90
     4095
 91
        4
280
     0
281
     0
  0
CLASS
  1
MATERIAL
  2
AcDbMaterial
  3
ObjectDBX Classes
 90
     1153
 91
        4
280
     0
281
     0
  0
CLASS
  1
IMAGEDEF
  2
AcDbRasterImageDef
  3
ISM
 90
        0
 91
        4
280
     0
281
     0
  0
CLASS
  1
IMAGE
  2
AcDbRasterImage
  3
ISM
 90
      127
 91
        5
280
     0
281
     1
  0
CLASS
  1
IMAGEDEF_REACTOR
  2
AcDbRasterImageDefReactor
  3
ISM
 90
        1
 91
        4
280
     0
281
     0
  0
ENDSEC
  0
SECTION
  2
TABLES
  0
TABLE
  2
VPORT
  5
8
330
0
100
AcDbSymbolTable
 70
     1
  0
VPORT
  5
29
330
8
100
AcDbSymbolTableRecord
100
AcDbViewportTableRecord
  2
*Active
 70
     0
 10
0.0
 20
0.0
 11
1.0
 21
1.0
 12
10.42990654205607
 22
4.5
 13
0.0
 23
0.0
 14
0.5
 24
0.5
 15
0.5
 25
0.5
 16
0.0
 26
0.0
 36
1.0
 17
0.0
 27
0.0
 37
0.0
 40
9.0
 41
1.972972972850329
 42
50.0
 43
0.0
 44
0.0
 50
0.0
 51
0.0
 71
     0
 72
   100
 73
     1
 74
     3
 75
     0
 76
     0
 77
     0
 78
     0
281
     0
 65
     1
110
0.0
120
0.0
130
0.0
111
1.0
121
0.0
131
0.0
112
0.0
122
1.0
132
0.0
 79
     0
146
0.0
 60
     3
 61
     5
292
     1
282
     1
141
0.0
142
0.0
 63
   250
  0
ENDTAB
  0
TABLE
  2
LTYPE
  5
5
330
0
100
AcDbSymbolTable
 70
    92
  0
LTYPE
  5
14
330
5
100
AcDbSymbolTableRecord
100
AcDbLinetypeTableRecord
  2
ByBlock
 70
     0
  3

 72
    65
 73
     0
 40
0.0
  0
LTYPE
  5
15
330
5
100
AcDbSymbolTableRecord
100
AcDbLinetypeTableRecord
  2
ByLayer
 70
     0
  3

 72
    65
 73
     0
 40
0.0
  0
LTYPE
  5
16
330
5
100
AcDbSymbolTableRecord
100
AcDbLinetypeTableRecord
  2
Continuous
 70
     0
  3
Solid line
 72
    65
 73
     0
 40
0.0
  0
LTYPE
  5
3F
330
5
100
AcDbSymbolTableRecord
100
AcDbLinetypeTableRecord
  2
HIDDEN
 70
     0
  3
_ _ _ _ _ _ _ _ _ _ _ _ _ _ _ _ _ _ _ _ _ _ _
 72
    65
 73
     2
 40
0.375
 49
0.25
 74
     0
 49
-0.125
 74
     0
  0
LTYPE
  5
40
330
5
100
AcDbSymbolTableRecord
100
AcDbLinetypeTableRecord
  2
CENTER
 70
     0
  3
____ _ ____ _ ____ _ ____ _ ____ _ ____ _ ____
 72
    65
 73
     4
 40
2.0
 49
1.25
 74
     0
 49
-0.25
 74
     0
 49
0.25
 74
     0
 49
-0.25
 74
     0
  0
LTYPE
  5
41
330
5
100
AcDbSymbolTableRecord
100
AcDbLinetypeTableRecord
  2
DASHED
 70
     0
  3
__ __ __ __ __ __ __ __ __ __ __ __ __ __ __
 72
    65
 73
     2
 40
1.5
 49
1.25
 74
     0
 49
-0.25
 74
     0
  0
LTYPE
  5
42
330
5
100
AcDbSymbolTableRecord
100
AcDbLinetypeTableRecord
  2
Gepunktete
 70
     0
  3

 72
    65
 73
     2
 40
1.560000061988831
 49
0.3600000143051147
 74
     0
 49
-1.200000047683716
 74
     0
  0
LTYPE
  5
43
330
5
100
AcDbSymbolTableRecord
100
AcDbLinetypeTableRecord
  2
Strichpunktierte
 70
     0
  3

 72
    65
 73
     4
 40
4.920000046491623
 49
3.0
 74
     0
 49
-0.7200000286102295
 74
     0
 49
0.4799999892711639
 74
     0
 49
-0.7200000286102295
 74
     0
  0
LTYPE
  5
44
330
5
100
AcDbSymbolTableRecord
100
AcDbLinetypeTableRecord
  2
Strichellinie
 70
     0
  3

 72
    65
 73
     2
 40
2.399999976158142
 49
1.799999952316284
 74
     0
 49
-0.6000000238418579
 74
     0
  0
LTYPE
  5
45
330
5
100
AcDbSymbolTableRecord
100
AcDbLinetypeTableRecord
  2
2Punkt
 70
     0
  3

 72
    65
 73
     6
 40
6.120000123977661
 49
3.0
 74
     0
 49
-0.7200000286102295
 74
     0
 49
0.4800000190734863
 74
     0
 49
-0.7200000286102295
 74
     0
 49
0.4800000190734863
 74
     0
 49
-0.7200000286102295
 74
     0
  0
LTYPE
  5
46
330
5
100
AcDbSymbolTableRecord
100
AcDbLinetypeTableRecord
  2
2Punkt-2Abstand
 70
     0
  3

 72
    65
 73
     6
 40
8.28000020980835
 49
3.0
 74
     0
 49
-1.440000057220459
 74
     0
 49
0.4800000190734863
 74
     0
 49
-1.440000057220459
 74
     0
 49
0.4800000190734863
 74
     0
 49
-1.440000057220459
 74
     0
  0
LTYPE
  5
47
330
5
100
AcDbSymbolTableRecord
100
AcDbLinetypeTableRecord
  2
2Punkt-3Abstand
 70
     0
  3

 72
    65
 73
     6
 40
11.26800036430359
 49
3.0
 74
     0
 49
-2.436000108718872
 74
     0
 49
0.4800000190734863
 74
     0
 49
-2.436000108718872
 74
     0
 49
0.4800000190734863
 74
     0
 49
-2.436000108718872
 74
     0
  0
LTYPE
  5
48
330
5
100
AcDbSymbolTableRecord
100
AcDbLinetypeTableRecord
  2
Gepunktete Var.2
 70
     0
  3

 72
    65
 73
     2
 40
3.120000004768372
 49
0.3600000143051147
 74
     0
 49
-2.759999990463257
 74
     0
  0
LTYPE
  5
49
330
5
100
AcDbSymbolTableRecord
100
AcDbLinetypeTableRecord
  2
Gepunktete Var.3
 70
     0
  3

 72
    65
 73
     2
 40
4.679999709129333
 49
0.3600000143051147
 74
     0
 49
-4.319999694824219
 74
     0
  0
LTYPE
  5
4A
330
5
100
AcDbSymbolTableRecord
100
AcDbLinetypeTableRecord
  2
Gepunktete Var.4
 70
     0
  3

 72
    65
 73
     4
 40
4.319999814033508
 49
0.3600000143051147
 74
     0
 49
-1.199999928474426
 74
     0
 49
0.3600000143051147
 74
     0
 49
-2.399999856948853
 74
     0
  0
LTYPE
  5
4B
330
5
100
AcDbSymbolTableRecord
100
AcDbLinetypeTableRecord
  2
Gepunktete Var.5
 70
     0
  3

 72
    65
 73
     4
 40
4.319999814033508
 49
0.3600000143051147
 74
     0
 49
-1.199999928474426
 74
     0
 49
0.3600000143051147
 74
     0
 49
-2.399999856948853
 74
     0
  0
LTYPE
  5
4C
330
5
100
AcDbSymbolTableRecord
100
AcDbLinetypeTableRecord
  2
Gepunktete Var.6
 70
     0
  3

 72
    65
 73
     6
 40
7.079999685287476
 49
0.3600000143051147
 74
     0
 49
-1.199999928474426
 74
     0
 49
0.3600000143051147
 74
     0
 49
-2.399999856948853
 74
     0
 49
0.3600000143051147
 74
     0
 49
-2.399999856948853
 74
     0
  0
LTYPE
  5
4D
330
5
100
AcDbSymbolTableRecord
100
AcDbLinetypeTableRecord
  2
Strichlierte Var.2
 70
     0
  3

 72
    65
 73
     2
 40
3.599999904632568
 49
1.799999952316284
 74
     0
 49
-1.799999952316284
 74
     0
  0
LTYPE
  5
4E
330
5
100
AcDbSymbolTableRecord
100
AcDbLinetypeTableRecord
  2
Strichlierte Var.3
 70
     0
  3

 72
    65
 73
     2
 40
5.399999856948853
 49
1.799999952316284
 74
     0
 49
-3.599999904632568
 74
     0
  0
LTYPE
  5
4F
330
5
100
AcDbSymbolTableRecord
100
AcDbLinetypeTableRecord
  2
Strichlierte Var.4
 70
     0
  3

 72
    65
 73
     2
 40
4.199999868869781
 49
3.599999904632568
 74
     0
 49
-0.5999999642372131
 74
     0
  0
LTYPE
  5
50
330
5
100
AcDbSymbolTableRecord
100
AcDbLinetypeTableRecord
  2
Strichlierte Var.5
 70
     0
  3

 72
    65
 73
     2
 40
5.399999856948853
 49
3.599999904632568
 74
     0
 49
-1.799999952316284
 74
     0
  0
LTYPE
  5
51
330
5
100
AcDbSymbolTableRecord
100
AcDbLinetypeTableRecord
  2
Strichlierte Var.6
 70
     0
  3

 72
    65
 73
     2
 40
7.199999809265137
 49
3.599999904632568
 74
     0
 49
-3.599999904632568
 74
     0
  0
LTYPE
  5
52
330
5
100
AcDbSymbolTableRecord
100
AcDbLinetypeTableRecord
  2
Strich-2Abstand
 70
     0
  3

 72
    65
 73
     4
 40
8.999999761581421
 49
1.799999952316284
 74
     0
 49
-1.799999952316284
 74
     0
 49
3.599999904632568
 74
     0
 49
-1.799999952316284
 74
     0
  0
LTYPE
  5
53
330
5
100
AcDbSymbolTableRecord
100
AcDbLinetypeTableRecord
  2
Strich-3Abstand
 70
     0
  3

 72
    65
 73
     6
 40
7.919999837875366
 49
0.3600000143051147
 74
     0
 49
-1.799999952316284
 74
     0
 49
0.3600000143051147
 74
     0
 49
-1.799999952316284
 74
     0
 49
1.799999952316284
 74
     0
 49
-1.799999952316284
 74
     0
  0
LTYPE
  5
54
330
5
100
AcDbSymbolTableRecord
100
AcDbLinetypeTableRecord
  2
Strich-4Abstand
 70
     0
  3

 72
    65
 73
     6
 40
9.359999775886536
 49
1.799999952316284
 74
     0
 49
-1.799999952316284
 74
     0
 49
1.799999952316284
 74
     0
 49
-1.799999952316284
 74
     0
 49
0.3600000143051147
 74
     0
 49
-1.799999952316284
 74
     0
  0
LTYPE
  5
55
330
5
100
AcDbSymbolTableRecord
100
AcDbLinetypeTableRecord
  2
Punktlinie
 70
     0
  3

 72
    65
 73
     6
 40
20.10000000149012
 49
0.0500000007450581
 74
     0
 49
-0.0500000007450581
 74
     0
 49
5.0
 74
     0
 49
-5.0
 74
     0
 49
5.0
 74
     0
 49
-5.0
 74
     0
  0
LTYPE
  5
56
330
5
100
AcDbSymbolTableRecord
100
AcDbLinetypeTableRecord
  2
Punkt-Strichlinie
 70
     0
  3

 72
    65
 73
     6
 40
3.550000000745058
 49
1.0
 74
     0
 49
-0.5
 74
     0
 49
1.0
 74
     0
 49
-0.5
 74
     0
 49
0.0500000007450581
 74
     0
 49
-0.5
 74
     0
  0
LTYPE
  5
57
330
5
100
AcDbSymbolTableRecord
100
AcDbLinetypeTableRecord
  2
Doppelpunkt-Strichlinie
 70
     0
  3

 72
    65
 73
     6
 40
1.350000001490116
 49
0.5
 74
     0
 49
-0.25
 74
     0
 49
0.0500000007450581
 74
     0
 49
-0.25
 74
     0
 49
0.0500000007450581
 74
     0
 49
-0.25
 74
     0
  0
LTYPE
  5
58
330
5
100
AcDbSymbolTableRecord
100
AcDbLinetypeTableRecord
  2
Eigene Linie 27
 70
     0
  3

 72
    65
 73
     6
 40
2.600000001490116
 49
1.0
 74
     0
 49
-0.5
 74
     0
 49
0.0500000007450581
 74
     0
 49
-0.5
 74
     0
 49
0.0500000007450581
 74
     0
 49
-0.5
 74
     0
  0
LTYPE
  5
59
330
5
100
AcDbSymbolTableRecord
100
AcDbLinetypeTableRecord
  2
Eigene Linie 28
 70
     0
  3

 72
    65
 73
     6
 40
1.800000000745058
 49
0.5
 74
     0
 49
-0.25
 74
     0
 49
0.5
 74
     0
 49
-0.25
 74
     0
 49
0.0500000007450581
 74
     0
 49
-0.25
 74
     0
  0
LTYPE
  5
5A
330
5
100
AcDbSymbolTableRecord
100
AcDbLinetypeTableRecord
  2
Eigene Linie 29
 70
     0
  3

 72
    65
 73
     6
 40
0.9250000007450581
 49
0.25
 74
     0
 49
-0.125
 74
     0
 49
0.25
 74
     0
 49
-0.125
 74
     0
 49
0.0500000007450581
 74
     0
 49
-0.125
 74
     0
  0
LTYPE
  5
5B
330
5
100
AcDbSymbolTableRecord
100
AcDbLinetypeTableRecord
  2
Eigene Linie 30
 70
     0
  3

 72
    65
 73
     2
 40
0.3000000007450581
 49
0.0500000007450581
 74
     0
 49
-0.25
 74
     0
  0
LTYPE
  5
5C
330
5
100
AcDbSymbolTableRecord
100
AcDbLinetypeTableRecord
  2
Eigene Linie 31
 70
     0
  3

 72
    65
 73
     2
 40
0.1750000007450581
 49
0.0500000007450581
 74
     0
 49
-0.125
 74
     0
  0
LTYPE
  5
5D
330
5
100
AcDbSymbolTableRecord
100
AcDbLinetypeTableRecord
  2
Eigene Linie 32
 70
     0
  3

 72
    65
 73
     2
 40
0.5500000007450581
 49
0.0500000007450581
 74
     0
 49
-0.5
 74
     0
  0
LTYPE
  5
5E
330
5
100
AcDbSymbolTableRecord
100
AcDbLinetypeTableRecord
  2
Eigene Linie 33
 70
     0
  3

 72
    65
 73
     4
 40
1.050000000745058
 49
0.5
 74
     0
 49
-0.25
 74
     0
 49
0.0500000007450581
 74
     0
 49
-0.25
 74
     0
  0
LTYPE
  5
5F
330
5
100
AcDbSymbolTableRecord
100
AcDbLinetypeTableRecord
  2
Eigene Linie 34
 70
     0
  3

 72
    65
 73
     4
 40
0.5500000007450581
 49
0.25
 74
     0
 49
-0.125
 74
     0
 49
0.0500000007450581
 74
     0
 49
-0.125
 74
     0
  0
LTYPE
  5
60
330
5
100
AcDbSymbolTableRecord
100
AcDbLinetypeTableRecord
  2
Eigene Linie 35
 70
     0
  3

 72
    65
 73
     4
 40
2.050000000745058
 49
1.0
 74
     0
 49
-0.5
 74
     0
 49
0.0500000007450581
 74
     0
 49
-0.5
 74
     0
  0
LTYPE
  5
61
330
5
100
AcDbSymbolTableRecord
100
AcDbLinetypeTableRecord
  2
Eigene Linie 36
 70
     0
  3

 72
    65
 73
     2
 40
0.75
 49
0.5
 74
     0
 49
-0.25
 74
     0
  0
LTYPE
  5
62
330
5
100
AcDbSymbolTableRecord
100
AcDbLinetypeTableRecord
  2
Eigene Linie 37
 70
     0
  3

 72
    65
 73
     2
 40
0.375
 49
0.25
 74
     0
 49
-0.125
 74
     0
  0
LTYPE
  5
63
330
5
100
AcDbSymbolTableRecord
100
AcDbLinetypeTableRecord
  2
Eigene Linie 38
 70
     0
  3

 72
    65
 73
     2
 40
1.5
 49
1.0
 74
     0
 49
-0.5
 74
     0
  0
LTYPE
  5
64
330
5
100
AcDbSymbolTableRecord
100
AcDbLinetypeTableRecord
  2
Eigene Linie 39
 70
     0
  3

 72
    65
 73
     6
 40
2.5
 49
1.25
 74
     0
 49
-0.25
 74
     0
 49
0.25
 74
     0
 49
-0.25
 74
     0
 49
0.25
 74
     0
 49
-0.25
 74
     0
  0
LTYPE
  5
65
330
5
100
AcDbSymbolTableRecord
100
AcDbLinetypeTableRecord
  2
Eigene Linie 40
 70
     0
  3

 72
    65
 73
     6
 40
1.25
 49
0.625
 74
     0
 49
-0.125
 74
     0
 49
0.125
 74
     0
 49
-0.125
 74
     0
 49
0.125
 74
     0
 49
-0.125
 74
     0
  0
LTYPE
  5
66
330
5
100
AcDbSymbolTableRecord
100
AcDbLinetypeTableRecord
  2
Eigene Linie 41
 70
     0
  3

 72
    65
 73
     6
 40
5.0
 49
2.5
 74
     0
 49
-0.5
 74
     0
 49
0.5
 74
     0
 49
-0.5
 74
     0
 49
0.5
 74
     0
 49
-0.5
 74
     0
  0
LTYPE
  5
67
330
5
100
AcDbSymbolTableRecord
100
AcDbLinetypeTableRecord
  2
Eigene Linie 42
 70
     0
  3

 72
    65
 73
     2
 40
0.300000011920929
 49
0.1500000059604645
 74
     0
 49
-0.1500000059604645
 74
     0
  0
LTYPE
  5
68
330
5
100
AcDbSymbolTableRecord
100
AcDbLinetypeTableRecord
  2
Eigene Linie 43
 70
     0
  3

 72
    65
 73
     2
 40
0.1399999968707561
 49
0.0799999982118607
 74
     0
 49
-0.0599999986588955
 74
     0
  0
LTYPE
  5
69
330
5
100
AcDbSymbolTableRecord
100
AcDbLinetypeTableRecord
  2
Eigene Linie 44
 70
     0
  3

 72
    65
 73
     2
 40
0.3000000007450581
 49
0.0500000007450581
 74
     0
 49
-0.25
 74
     0
  0
LTYPE
  5
6A
330
5
100
AcDbSymbolTableRecord
100
AcDbLinetypeTableRecord
  2
Eigene Linie 45
 70
     0
  3

 72
    65
 73
     2
 40
0.5500000007450581
 49
0.0500000007450581
 74
     0
 49
-0.5
 74
     0
  0
LTYPE
  5
6B
330
5
100
AcDbSymbolTableRecord
100
AcDbLinetypeTableRecord
  2
User line type56
 70
     0
  3

 72
    65
 73
     2
 40
5.399999856948853
 49
3.599999904632568
 74
     0
 49
-1.799999952316284
 74
     0
  0
LTYPE
  5
6C
330
5
100
AcDbSymbolTableRecord
100
AcDbLinetypeTableRecord
  2
User line type57
 70
     0
  3

 72
    65
 73
     2
 40
7.199999809265137
 49
3.599999904632568
 74
     0
 49
-3.599999904632568
 74
     0
  0
LTYPE
  5
6D
330
5
100
AcDbSymbolTableRecord
100
AcDbLinetypeTableRecord
  2
User line type58
 70
     0
  3

 72
    65
 73
     4
 40
8.999999761581421
 49
1.799999952316284
 74
     0
 49
-1.799999952316284
 74
     0
 49
3.599999904632568
 74
     0
 49
-1.799999952316284
 74
     0
  0
LTYPE
  5
6E
330
5
100
AcDbSymbolTableRecord
100
AcDbLinetypeTableRecord
  2
User line type59
 70
     0
  3

 72
    65
 73
     6
 40
7.919999837875366
 49
0.3600000143051147
 74
     0
 49
-1.799999952316284
 74
     0
 49
0.3600000143051147
 74
     0
 49
-1.799999952316284
 74
     0
 49
1.799999952316284
 74
     0
 49
-1.799999952316284
 74
     0
  0
LTYPE
  5
6F
330
5
100
AcDbSymbolTableRecord
100
AcDbLinetypeTableRecord
  2
User line type60
 70
     0
  3

 72
    65
 73
     6
 40
9.359999775886536
 49
1.799999952316284
 74
     0
 49
-1.799999952316284
 74
     0
 49
1.799999952316284
 74
     0
 49
-1.799999952316284
 74
     0
 49
0.3600000143051147
 74
     0
 49
-1.799999952316284
 74
     0
  0
LTYPE
  5
70
330
5
100
AcDbSymbolTableRecord
100
AcDbLinetypeTableRecord
  2
User line type61
 70
     0
  3

 72
    65
 73
     6
 40
20.10000000149012
 49
0.0500000007450581
 74
     0
 49
-0.0500000007450581
 74
     0
 49
5.0
 74
     0
 49
-5.0
 74
     0
 49
5.0
 74
     0
 49
-5.0
 74
     0
  0
LTYPE
  5
71
330
5
100
AcDbSymbolTableRecord
100
AcDbLinetypeTableRecord
  2
User line type62
 70
     0
  3

 72
    65
 73
     6
 40
3.550000000745058
 49
1.0
 74
     0
 49
-0.5
 74
     0
 49
1.0
 74
     0
 49
-0.5
 74
     0
 49
0.0500000007450581
 74
     0
 49
-0.5
 74
     0
  0
LTYPE
  5
72
330
5
100
AcDbSymbolTableRecord
100
AcDbLinetypeTableRecord
  2
User line type63
 70
     0
  3

 72
    65
 73
     6
 40
1.350000001490116
 49
0.5
 74
     0
 49
-0.25
 74
     0
 49
0.0500000007450581
 74
     0
 49
-0.25
 74
     0
 49
0.0500000007450581
 74
     0
 49
-0.25
 74
     0
  0
LTYPE
  5
73
330
5
100
AcDbSymbolTableRecord
100
AcDbLinetypeTableRecord
  2
User line type64
 70
     0
  3

 72
    65
 73
     6
 40
2.600000001490116
 49
1.0
 74
     0
 49
-0.5
 74
     0
 49
0.0500000007450581
 74
     0
 49
-0.5
 74
     0
 49
0.0500000007450581
 74
     0
 49
-0.5
 74
     0
  0
LTYPE
  5
74
330
5
100
AcDbSymbolTableRecord
100
AcDbLinetypeTableRecord
  2
User line type65
 70
     0
  3

 72
    65
 73
     6
 40
1.800000000745058
 49
0.5
 74
     0
 49
-0.25
 74
     0
 49
0.5
 74
     0
 49
-0.25
 74
     0
 49
0.0500000007450581
 74
     0
 49
-0.25
 74
     0
  0
LTYPE
  5
75
330
5
100
AcDbSymbolTableRecord
100
AcDbLinetypeTableRecord
  2
User line type66
 70
     0
  3

 72
    65
 73
     6
 40
0.9250000007450581
 49
0.25
 74
     0
 49
-0.125
 74
     0
 49
0.25
 74
     0
 49
-0.125
 74
     0
 49
0.0500000007450581
 74
     0
 49
-0.125
 74
     0
  0
LTYPE
  5
76
330
5
100
AcDbSymbolTableRecord
100
AcDbLinetypeTableRecord
  2
User line type67
 70
     0
  3

 72
    65
 73
     2
 40
0.3000000007450581
 49
0.0500000007450581
 74
     0
 49
-0.25
 74
     0
  0
LTYPE
  5
77
330
5
100
AcDbSymbolTableRecord
100
AcDbLinetypeTableRecord
  2
User line type68
 70
     0
  3

 72
    65
 73
     2
 40
0.1750000007450581
 49
0.0500000007450581
 74
     0
 49
-0.125
 74
     0
  0
LTYPE
  5
78
330
5
100
AcDbSymbolTableRecord
100
AcDbLinetypeTableRecord
  2
User line type69
 70
     0
  3

 72
    65
 73
     2
 40
0.5500000007450581
 49
0.0500000007450581
 74
     0
 49
-0.5
 74
     0
  0
LTYPE
  5
79
330
5
100
AcDbSymbolTableRecord
100
AcDbLinetypeTableRecord
  2
User line type70
 70
     0
  3

 72
    65
 73
     4
 40
1.050000000745058
 49
0.5
 74
     0
 49
-0.25
 74
     0
 49
0.0500000007450581
 74
     0
 49
-0.25
 74
     0
  0
LTYPE
  5
7A
330
5
100
AcDbSymbolTableRecord
100
AcDbLinetypeTableRecord
  2
User line type71
 70
     0
  3

 72
    65
 73
     4
 40
0.5500000007450581
 49
0.25
 74
     0
 49
-0.125
 74
     0
 49
0.0500000007450581
 74
     0
 49
-0.125
 74
     0
  0
LTYPE
  5
7B
330
5
100
AcDbSymbolTableRecord
100
AcDbLinetypeTableRecord
  2
User line type72
 70
     0
  3

 72
    65
 73
     4
 40
2.050000000745058
 49
1.0
 74
     0
 49
-0.5
 74
     0
 49
0.0500000007450581
 74
     0
 49
-0.5
 74
     0
  0
LTYPE
  5
7C
330
5
100
AcDbSymbolTableRecord
100
AcDbLinetypeTableRecord
  2
User line type73
 70
     0
  3

 72
    65
 73
     2
 40
0.75
 49
0.5
 74
     0
 49
-0.25
 74
     0
  0
LTYPE
  5
7D
330
5
100
AcDbSymbolTableRecord
100
AcDbLinetypeTableRecord
  2
User line type74
 70
     0
  3

 72
    65
 73
     2
 40
0.375
 49
0.25
 74
     0
 49
-0.125
 74
     0
  0
LTYPE
  5
7E
330
5
100
AcDbSymbolTableRecord
100
AcDbLinetypeTableRecord
  2
User line type75
 70
     0
  3

 72
    65
 73
     2
 40
1.5
 49
1.0
 74
     0
 49
-0.5
 74
     0
  0
LTYPE
  5
7F
330
5
100
AcDbSymbolTableRecord
100
AcDbLinetypeTableRecord
  2
User line type76
 70
     0
  3

 72
    65
 73
     6
 40
2.5
 49
1.25
 74
     0
 49
-0.25
 74
     0
 49
0.25
 74
     0
 49
-0.25
 74
     0
 49
0.25
 74
     0
 49
-0.25
 74
     0
  0
LTYPE
  5
80
330
5
100
AcDbSymbolTableRecord
100
AcDbLinetypeTableRecord
  2
User line type77
 70
     0
  3

 72
    65
 73
     6
 40
1.25
 49
0.625
 74
     0
 49
-0.125
 74
     0
 49
0.125
 74
     0
 49
-0.125
 74
     0
 49
0.125
 74
     0
 49
-0.125
 74
     0
  0
LTYPE
  5
81
330
5
100
AcDbSymbolTableRecord
100
AcDbLinetypeTableRecord
  2
User line type78
 70
     0
  3

 72
    65
 73
     6
 40
5.0
 49
2.5
 74
     0
 49
-0.5
 74
     0
 49
0.5
 74
     0
 49
-0.5
 74
     0
 49
0.5
 74
     0
 49
-0.5
 74
     0
  0
LTYPE
  5
82
330
5
100
AcDbSymbolTableRecord
100
AcDbLinetypeTableRecord
  2
User line type79
 70
     0
  3

 72
    65
 73
     2
 40
0.300000011920929
 49
0.1500000059604645
 74
     0
 49
-0.1500000059604645
 74
     0
  0
LTYPE
  5
83
330
5
100
AcDbSymbolTableRecord
100
AcDbLinetypeTableRecord
  2
User line type80
 70
     0
  3

 72
    65
 73
     2
 40
0.1399999968707561
 49
0.0799999982118607
 74
     0
 49
-0.0599999986588955
 74
     0
  0
LTYPE
  5
84
330
5
100
AcDbSymbolTableRecord
100
AcDbLinetypeTableRecord
  2
User line type81
 70
     0
  3

 72
    65
 73
     2
 40
0.3000000007450581
 49
0.0500000007450581
 74
     0
 49
-0.25
 74
     0
  0
LTYPE
  5
85
330
5
100
AcDbSymbolTableRecord
100
AcDbLinetypeTableRecord
  2
User line type82
 70
     0
  3

 72
    65
 73
     2
 40
0.5500000007450581
 49
0.0500000007450581
 74
     0
 49
-0.5
 74
     0
  0
LTYPE
  5
86
330
5
100
AcDbSymbolTableRecord
100
AcDbLinetypeTableRecord
  2
User line type83
 70
     0
  3

 72
    65
 73
     6
 40
31.84999952465296
 49
12.69999980926514
 74
     0
 49
-6.349999904632568
 74
     0
 49
0.0500000007450581
 74
     0
 49
-6.349999904632568
 74
     0
 49
0.0500000007450581
 74
     0
 49
-6.349999904632568
 74
     0
  0
LTYPE
  5
87
330
5
100
AcDbSymbolTableRecord
100
AcDbLinetypeTableRecord
  2
User line type84
 70
     0
  3

 72
    65
 73
     4
 40
50.79999971389771
 49
31.75
 74
     0
 49
-6.349999904632568
 74
     0
 49
6.349999904632568
 74
     0
 49
-6.349999904632568
 74
     0
  0
LTYPE
  5
88
330
5
100
AcDbSymbolTableRecord
100
AcDbLinetypeTableRecord
  2
User line type85
 70
     0
  3

 72
    65
 73
     2
 40
6.399999905377626
 49
0.0500000007450581
 74
     0
 49
-6.349999904632568
 74
     0
  0
LTYPE
  5
89
330
5
100
AcDbSymbolTableRecord
100
AcDbLinetypeTableRecord
  2
User line type86
 70
     0
  3

 72
    65
 73
     4
 40
25.44999961927533
 49
12.69999980926514
 74
     0
 49
-6.349999904632568
 74
     0
 49
0.0500000007450581
 74
     0
 49
-6.349999904632568
 74
     0
  0
LTYPE
  5
8A
330
5
100
AcDbSymbolTableRecord
100
AcDbLinetypeTableRecord
  2
User line type87
 70
     0
  3

 72
    65
 73
     2
 40
9.524999856948853
 49
6.349999904632568
 74
     0
 49
-3.174999952316284
 74
     0
  0
LTYPE
  5
8B
330
5
100
AcDbSymbolTableRecord
100
AcDbLinetypeTableRecord
  2
User line type88
 70
     0
  3

 72
    65
 73
     2
 40
0.0050000002374873
 49
0.0040000001899898
 74
     0
 49
-0.0010000000474975
 74
     0
  0
LTYPE
  5
8C
330
5
100
AcDbSymbolTableRecord
100
AcDbLinetypeTableRecord
  2
User line type89
 70
     0
  3

 72
    65
 73
     4
 40
0.0550000009825453
 49
0.0040000001899898
 74
     0
 49
-0.0005000000237487
 74
     0
 49
0.0500000007450581
 74
     0
 49
-0.0005000000237487
 74
     0
  0
LTYPE
  5
8D
330
5
100
AcDbSymbolTableRecord
100
AcDbLinetypeTableRecord
  2
DOT
 70
     0
  3

 72
    65
 73
     3
 40
0.5499949939548969
 49
0.0500000007450581
 74
     0
 49
-0.25
 74
     0
 49
0.2499949932098389
 74
     0
  0
LTYPE
  5
8E
330
5
100
AcDbSymbolTableRecord
100
AcDbLinetypeTableRecord
  2
User line type91
 70
     0
  3

 72
    65
 73
     2
 40
4.0
 49
2.0
 74
     0
 49
-2.0
 74
     0
  0
LTYPE
  5
8F
330
5
100
AcDbSymbolTableRecord
100
AcDbLinetypeTableRecord
  2
User line type92
 70
     0
  3

 72
    65
 73
     2
 40
4.0
 49
2.0
 74
     0
 49
-2.0
 74
     0
  0
LTYPE
  5
90
330
5
100
AcDbSymbolTableRecord
100
AcDbLinetypeTableRecord
  2
User line type93
 70
     0
  3

 72
    65
 73
     4
 40
1.050000000745058
 49
0.5
 74
     0
 49
-0.25
 74
     0
 49
0.0500000007450581
 74
     0
 49
-0.25
 74
     0
  0
LTYPE
  5
91
330
5
100
AcDbSymbolTableRecord
100
AcDbLinetypeTableRecord
  2
User line type94
 70
     0
  3

 72
    65
 73
     2
 40
0.75
 49
0.5
 74
     0
 49
-0.25
 74
     0
  0
LTYPE
  5
92
330
5
100
AcDbSymbolTableRecord
100
AcDbLinetypeTableRecord
  2
User line type95
 70
     0
  3

 72
    65
 73
     6
 40
17.60000000149012
 49
10.0
 74
     0
 49
-2.5
 74
     0
 49
0.0500000007450581
 74
     0
 49
-2.5
 74
     0
 49
0.0500000007450581
 74
     0
 49
-2.5
 74
     0
  0
LTYPE
  5
93
330
5
100
AcDbSymbolTableRecord
100
AcDbLinetypeTableRecord
  2
User line type96
 70
     0
  3

 72
    65
 73
     2
 40
0.375
 49
0.25
 74
     0
 49
-0.125
 74
     0
  0
LTYPE
  5
94
330
5
100
AcDbSymbolTableRecord
100
AcDbLinetypeTableRecord
  2
User line type97
 70
     0
  3

 72
    65
 73
     4
 40
1.100000001490116
 49
0.5
 74
     0
 49
-0.25
 74
     0
 49
0.1000000014901161
 74
     0
 49
-0.25
 74
     0
  0
LTYPE
  5
95
330
5
100
AcDbSymbolTableRecord
100
AcDbLinetypeTableRecord
  2
User line type98
 70
     0
  3

 72
    65
 73
     2
 40
0.75
 49
0.5
 74
     0
 49
-0.25
 74
     0
  0
LTYPE
  5
96
330
5
100
AcDbSymbolTableRecord
100
AcDbLinetypeTableRecord
  2
User line type99
 70
     0
  3

 72
    65
 73
     4
 40
1.050000000745058
 49
0.5
 74
     0
 49
-0.25
 74
     0
 49
0.0500000007450581
 74
     0
 49
-0.25
 74
     0
  0
LTYPE
  5
97
330
5
100
AcDbSymbolTableRecord
100
AcDbLinetypeTableRecord
  2
User line type100
 70
     0
  3

 72
    65
 73
     6
 40
1.350000001490116
 49
0.5
 74
     0
 49
-0.25
 74
     0
 49
0.0500000007450581
 74
     0
 49
-0.25
 74
     0
 49
0.0500000007450581
 74
     0
 49
-0.25
 74
     0
  0
LTYPE
  5
98
330
5
100
AcDbSymbolTableRecord
100
AcDbLinetypeTableRecord
  2
User line type101
 70
     0
  3

 72
    65
 73
     4
 40
1.050000000745058
 49
0.5
 74
     0
 49
-0.25
 74
     0
 49
0.0500000007450581
 74
     0
 49
-0.25
 74
     0
  0
LTYPE
  5
99
330
5
100
AcDbSymbolTableRecord
100
AcDbLinetypeTableRecord
  2
User line type102
 70
     0
  3

 72
    65
 73
     2
 40
0.375
 49
0.25
 74
     0
 49
-0.125
 74
     0
  0
ENDTAB
  0
TABLE
  2
LAYER
  5
2
330
0
100
AcDbSymbolTable
 70
    10
  0
LAYER
  5
10
330
2
100
AcDbSymbolTableRecord
100
AcDbLayerTableRecord
  2
0
 70
     0
 62
     7
  6
Continuous
370
    -3
390
F
347
3E
  0
LAYER
  5
9A
330
2
100
AcDbSymbolTableRecord
100
AcDbLayerTableRecord
  2
00_Allgemein
 70
     0
 62
     7
  6
Continuous
370
     0
390
F
347
3E
  0
LAYER
  5
9B
330
2
100
AcDbSymbolTableRecord
100
AcDbLayerTableRecord
  2
37_Bilder
 70
     0
 62
     7
  6
Continuous
370
     0
390
F
347
3E
  0
LAYER
  5
9C
330
2
100
AcDbSymbolTableRecord
100
AcDbLayerTableRecord
  2
34_Gruppe
 70
     0
 62
     7
  6
Continuous
370
     0
390
F
347
3E
  0
LAYER
  5
9D
330
2
100
AcDbSymbolTableRecord
100
AcDbLayerTableRecord
  2
12_Linie
 70
     0
 62
     7
  6
Continuous
370
     0
390
F
347
3E
  0
LAYER
  5
9E
330
2
100
AcDbSymbolTableRecord
100
AcDbLayerTableRecord
  2
14_Kreis
 70
     0
 62
     7
  6
Continuous
370
     0
390
F
347
3E
  0
LAYER
  5
9F
330
2
100
AcDbSymbolTableRecord
100
AcDbLayerTableRecord
  2
18_Schraffur
 70
     0
 62
     7
  6
Continuous
370
     0
390
F
347
3E
  0
LAYER
  5
A0
330
2
100
AcDbSymbolTableRecord
100
AcDbLayerTableRecord
  2
Folie _ 3
 70
     0
 62
     7
  6
Continuous
370
     0
390
F
347
3E
  0
LAYER
  5
A1
330
2
100
AcDbSymbolTableRecord
100
AcDbLayerTableRecord
  2
Schraff_Dämmung
 70
     0
 62
     7
  6
Continuous
370
     0
390
F
347
3E
  0
LAYER
  5
A2
330
2
100
AcDbSymbolTableRecord
100
AcDbLayerTableRecord
  2
STANDARD
 70
     0
 62
     7
  6
Continuous
370
     0
390
F
347
3E
  0
ENDTAB
  0
TABLE
  2
STYLE
  5
3
330
0
100
AcDbSymbolTable
 70
     3
  0
STYLE
  5
11
330
3
100
AcDbSymbolTableRecord
100
AcDbTextStyleTableRecord
  2
Standard
 70
     0
 40
0.0
 41
1.0
 50
0.0
 71
     0
 42
0.2
  3
txt
  4

  0
STYLE
  5
B5
330
3
100
AcDbSymbolTableRecord
100
AcDbTextStyleTableRecord
  2
Style0
 70
     0
 40
0.0
 41
1.0
 50
0.0
 71
     0
 42
0.2
  3
arial.ttf
  4

1001
ACAD
1000
Arial
1071
        0
  0
STYLE
  5
B6
330
3
100
AcDbSymbolTableRecord
100
AcDbTextStyleTableRecord
  2
Style1
 70
     0
 40
0.0
 41
1.0
 50
0.0
 71
     0
 42
0.2
  3
ariblk.ttf
  4

1001
ACAD
1000
Arial Black
1071
        0
  0
ENDTAB
  0
TABLE
  2
VIEW
  5
6
330
0
100
AcDbSymbolTable
 70
     0
  0
ENDTAB
  0
TABLE
  2
UCS
  5
7
330
0
100
AcDbSymbolTable
 70
     0
  0
ENDTAB
  0
TABLE
  2
APPID
  5
9
330
0
100
AcDbSymbolTable
 70
     1
  0
APPID
  5
12
330
9
100
AcDbSymbolTableRecord
100
AcDbRegAppTableRecord
  2
ACAD
 70
     0
  0
ENDTAB
  0
TABLE
  2
DIMSTYLE
  5
A
330
0
100
AcDbSymbolTable
 70
     1
100
AcDbDimStyleTable
  0
DIMSTYLE
105
27
330
A
100
AcDbSymbolTableRecord
100
AcDbDimStyleTableRecord
  2
Standard
 70
     0
178
     0
340
11
  0
ENDTAB
  0
TABLE
  2
BLOCK_RECORD
  5
1
330
0
100
AcDbSymbolTable
 70
     3
  0
BLOCK_RECORD
  5
1F
330
1
100
AcDbSymbolTableRecord
100
AcDbBlockTableRecord
  2
*Model_Space
340
22
 70
     0
280
     1
281
     0
  0
BLOCK_RECORD
  5
1B
330
1
100
AcDbSymbolTableRecord
100
AcDbBlockTableRecord
  2
*Paper_Space
340
1E
 70
     0
280
     1
281
     0
  0
BLOCK_RECORD
  5
23
330
1
100
AcDbSymbolTableRecord
100
AcDbBlockTableRecord
  2
*Paper_Space0
340
26
 70
     0
280
     1
281
     0
  0
BLOCK_RECORD
  5
A3
330
1
100
AcDbSymbolTableRecord
100
AcDbBlockTableRecord
  2
printlayout(id_1)
340
0
102
{BLKREFS
331
B0
102
}
 70
     0
280
     1
281
     0
  0
BLOCK_RECORD
  5
B7
330
1
100
AcDbSymbolTableRecord
100
AcDbBlockTableRecord
  2
dokument alle 2d details_asc(id_4)
340
0
102
{BLKREFS
331
376
102
}
 70
     0
280
     1
281
     0
  0
ENDTAB
  0
ENDSEC
  0
SECTION
  2
BLOCKS
  0
BLOCK
  5
20
330
1F
100
AcDbEntity
  8
0
100
AcDbBlockBegin
  2
*Model_Space
 70
     0
 10
0.0
 20
0.0
 30
0.0
  3
*Model_Space
  1

  0
ENDBLK
  5
21
330
1F
100
AcDbEntity
  8
0
100
AcDbBlockEnd
  0
BLOCK
  5
1C
330
1B
100
AcDbEntity
 67
     1
  8
0
100
AcDbBlockBegin
  2
*Paper_Space
 70
     0
 10
0.0
 20
0.0
 30
0.0
  3
*Paper_Space
  1

  0
ENDBLK
  5
1D
330
1B
100
AcDbEntity
 67
     1
  8
0
100
AcDbBlockEnd
  0
BLOCK
  5
24
330
23
100
AcDbEntity
  8
0
100
AcDbBlockBegin
  2
*Paper_Space0
 70
     0
 10
0.0
 20
0.0
 30
0.0
  3
*Paper_Space0
  1

  0
ENDBLK
  5
25
330
23
100
AcDbEntity
  8
0
100
AcDbBlockEnd
  0
BLOCK
  5
B1
330
A3
100
AcDbEntity
  8
0
100
AcDbBlockBegin
  2
printlayout(id_1)
 70
     0
 10
0.0
 20
0.0
 30
0.0
  3
printlayout(id_1)
  1

  0
POLYLINE
  5
A4
330
A3
100
AcDbEntity
  8
00_Allgemein
  6
Continuous
 62
     7
370
     0
100
AcDb2dPolyline
 66
     1
 10
0.0
 20
0.0
 30
0.0
 70
     1
  0
VERTEX
  5
A5
330
A4
100
AcDbEntity
  8
00_Allgemein
  6
Continuous
 62
     7
370
     0
100
AcDbVertex
100
AcDb2dVertex
 10
0.0
 20
0.0
 30
0.0
  0
VERTEX
  5
A6
330
A4
100
AcDbEntity
  8
00_Allgemein
  6
Continuous
 62
     7
370
     0
100
AcDbVertex
100
AcDb2dVertex
 10
297.0
 20
0.0
 30
0.0
  0
VERTEX
  5
A7
330
A4
100
AcDbEntity
  8
00_Allgemein
  6
Continuous
 62
     7
370
     0
100
AcDbVertex
100
AcDb2dVertex
 10
297.0
 20
210.0
 30
0.0
  0
VERTEX
  5
A8
330
A4
100
AcDbEntity
  8
00_Allgemein
  6
Continuous
 62
     7
370
     0
100
AcDbVertex
100
AcDb2dVertex
 10
0.0
 20
210.0
 30
0.0
  0
SEQEND
  5
A9
330
A4
100
AcDbEntity
  8
00_Allgemein
  6
Continuous
 62
     7
370
     0
  0
POLYLINE
  5
AA
330
A3
100
AcDbEntity
  8
00_Allgemein
  6
Strichpunktierte
 62
     5
420
      255
 48
5.0
370
     0
100
AcDb2dPolyline
 66
     1
 10
0.0
 20
0.0
 30
0.0
 70
     1
  0
VERTEX
  5
AB
330
AA
100
AcDbEntity
  8
00_Allgemein
  6
Strichpunktierte
 62
     5
420
      255
370
     0
100
AcDbVertex
100
AcDb2dVertex
 10
3.0
 20
3.0
 30
0.0
  0
VERTEX
  5
AC
330
AA
100
AcDbEntity
  8
00_Allgemein
  6
Strichpunktierte
 62
     5
420
      255
370
     0
100
AcDbVertex
100
AcDb2dVertex
 10
294.0
 20
3.0
 30
0.0
  0
VERTEX
  5
AD
330
AA
100
AcDbEntity
  8
00_Allgemein
  6
Strichpunktierte
 62
     5
420
      255
370
     0
100
AcDbVertex
100
AcDb2dVertex
 10
294.0
 20
207.0
 30
0.0
  0
VERTEX
  5
AE
330
AA
100
AcDbEntity
  8
00_Allgemein
  6
Strichpunktierte
 62
     5
420
      255
370
     0
100
AcDbVertex
100
AcDb2dVertex
 10
3.0
 20
207.0
 30
0.0
  0
SEQEND
  5
AF
330
AA
100
AcDbEntity
  8
00_Allgemein
  6
Strichpunktierte
 62
     5
420
      255
 48
5.0
370
     0
  0
ENDBLK
  5
B2
330
A3
100
AcDbEntity
  8
0
100
AcDbBlockEnd
  0
BLOCK
  5
377
330
B7
100
AcDbEntity
  8
0
100
AcDbBlockBegin
  2
dokument alle 2d details_asc(id_4)
 70
     0
 10
0.0
 20
0.0
 30
0.0
  3
dokument alle 2d details_asc(id_4)
  1

  0
LINE
  5
B8
330
B7
100
AcDbEntity
  8
12_Linie
 62
     7
370
    40
100
AcDbLine
 10
84.9146855334202
 20
161.1568142665385
 30
0.0
 11
83.91468553342003
 21
161.1568142665385
 31
0.0
  0
LINE
  5
B9
330
B7
100
AcDbEntity
  8
12_Linie
 62
     7
370
    20
100
AcDbLine
 10
158.1187737829323
 20
114.7568001367332
 30
0.0
 11
234.91468553342
 21
114.7568001367332
 31
0.0
  0
LINE
  5
BA
330
B7
100
AcDbEntity
  8
34_Gruppe
  6
Continuous
 62
     7
370
    20
100
AcDbLine
 10
101.4146855334202
 20
131.7568001367332
 30
0.0
 11
101.4146855334202
 21
135.7568001367332
 31
0.0
  0
LINE
  5
BB
330
B7
100
AcDbEntity
  8
34_Gruppe
  6
Continuous
 62
     7
370
    20
100
AcDbLine
 10
141.4146855334202
 20
131.7568001367332
 30
0.0
 11
141.4146855334202
 21
135.7568001367332
 31
0.0
  0
LINE
  5
BC
330
B7
100
AcDbEntity
  8
34_Gruppe
  6
Continuous
 62
     7
370
    20
100
AcDbLine
 10
141.9146855334202
 20
131.7568001367332
 30
0.0
 11
141.9146855334202
 21
135.7568001367332
 31
0.0
  0
LINE
  5
BD
330
B7
100
AcDbEntity
  8
34_Gruppe
  6
Continuous
 62
     7
370
    20
100
AcDbLine
 10
101.4146855334202
 20
135.7568001367332
 30
0.0
 11
141.4146855334202
 21
135.7568001367332
 31
0.0
  0
LINE
  5
BE
330
B7
100
AcDbEntity
  8
34_Gruppe
  6
Continuous
 62
     7
370
    20
100
AcDbLine
 10
101.4146855334202
 20
131.7568001367332
 30
0.0
 11
141.4146855334202
 21
131.7568001367332
 31
0.0
  0
LINE
  5
BF
330
B7
100
AcDbEntity
  8
34_Gruppe
  6
Continuous
 62
     7
370
    20
100
AcDbLine
 10
101.4146855334202
 20
131.7568001367332
 30
0.0
 11
101.4146855334202
 21
130.7568001367332
 31
0.0
  0
LINE
  5
C0
330
B7
100
AcDbEntity
  8
34_Gruppe
  6
Continuous
 62
     7
370
    20
100
AcDbLine
 10
111.4146855334202
 20
131.7568001367332
 30
0.0
 11
111.4146855334202
 21
130.7568001367332
 31
0.0
  0
HATCH
  5
C1
330
B7
100
AcDbEntity
  8
Schraff_Dämmung
 62
   253
100
AcDbHatch
 10
0.0
 20
0.0
 30
0.0
210
0.0
220
0.0
230
1.0
  2
SOLID
 70
     1
 71
     0
 91
        1
 92
        0
 93
        4
 72
     1
 10
111.4146855334202
 20
131.7568001367332
 11
101.4146855334202
 21
131.7568001367332
 72
     1
 10
101.4146855334202
 20
131.7568001367332
 11
101.4146855334202
 21
130.7568001367332
 72
     1
 10
101.4146855334202
 20
130.7568001367332
 11
111.4146855334202
 21
130.7568001367332
 72
     1
 10
111.4146855334202
 20
130.7568001367332
 11
111.4146855334202
 21
131.7568001367332
 97
        0
 75
     0
 76
     1
 98
        0
  0
LINE
  5
C2
330
B7
100
AcDbEntity
  8
34_Gruppe
  6
Continuous
 62
     7
370
    20
100
AcDbLine
 10
136.6646855334202
 20
131.7568001367332
 30
0.0
 11
136.6646855334202
 21
130.7568001367332
 31
0.0
  0
LINE
  5
C3
330
B7
100
AcDbEntity
  8
34_Gruppe
  6
Continuous
 62
     7
370
    20
100
AcDbLine
 10
146.6646855334202
 20
131.7568001367332
 30
0.0
 11
146.6646855334202
 21
130.7568001367332
 31
0.0
  0
IMAGE
  5
C4
330
B7
100
AcDbEntity
  8
37_Bilder
  6
Continuous
 62
     7
370
     0
160
               140
310
8C00000001000000840000000600000005000000663F38DD7DC76E40807D7E0819A431400000000000000000B31F9CDEEF237240807D7E0819A431400000000000000000B31F9CDEEF237240C03E3F74D92D40400000000000000000663F38DD7DC76E40C03E3F74D92D40400000000000000000663F38DD7DC76E40807D7E
310
0819A431400000000000000000
100
AcDbRasterImage
 90
        0
 10
246.2341142748439
 20
17.64100697601452
 30
0.0
 11
0.0279263627105558
 21
0.0
 31
0.0
 12
0.0
 22
0.02792635995477608
 32
0.0
 13
1576.0
 23
527.0
340
B4
 70
     3
280
     0
281
    50
282
    50
283
     0
360
0
 71
     1
 91
        2
 14
-0.5
 24
-0.5
 14
1575.5
 24
526.5
290
     0
  0
HATCH
  5
C5
330
B7
100
AcDbEntity
  8
Folie _ 3
  6
Continuous
 62
     7
370
    20
100
AcDbHatch
 10
0.0
 20
0.0
 30
0.0
210
0.0
220
0.0
230
1.0
  2
ANSI33
 70
     0
 71
     0
 91
        1
 92
        0
 93
        6
 72
     1
 10
83.91468553341984
 20
74.75680013673318
 11
63.91468553342002
 21
74.75680013673318
 72
     1
 10
63.91468553342002
 20
74.75680013673318
 11
63.91468553342002
 21
59.96824933023973
 72
     1
 10
63.91468553342002
 20
59.96824933023973
 11
73.32969891536469
 21
57.24288521599138
 72
     1
 10
73.32969891536469
 20
57.24288521599138
 11
81.70046012341373
 21
59.48157716698114
 72
     1
 10
81.70046012341373
 20
59.48157716698114
 11
83.91468553342003
 21
62.45808860619272
 72
     1
 10
83.91468553342003
 20
62.45808860619272
 11
83.91468553342003
 21
74.75680013673312
 97
        0
 75
     0
 76
     1
 52
0.0
 41
25.0
 77
     0
 78
     2
 53
45.0
 43
-83.83930577895136
 44
-166.6452538461608
 45
-4.419417382415922
 46
4.419417382415921
 79
     0
 53
45.0
 43
-79.41988840395136
 44
-166.6452538461608
 45
-4.419417382415922
 46
4.419417382415921
 79
     2
 49
3.125
 49
-1.5625
 98
        0
  0
HATCH
  5
C6
330
B7
100
AcDbEntity
  8
18_Schraffur
 62
   251
100
AcDbHatch
 10
0.0
 20
0.0
 30
0.0
210
0.0
220
0.0
230
1.0
  2
SOLID
 70
     1
 71
     0
 91
        1
 92
        0
 93
        4
 72
     1
 10
228.91468553342
 20
100.7568001367333
 11
218.91468553342
 21
100.7568001367333
 72
     1
 10
218.91468553342
 20
100.7568001367333
 11
218.91468553342
 21
99.75680013673318
 72
     1
 10
218.91468553342
 20
99.75680013673318
 11
228.91468553342
 21
99.75680013673318
 72
     1
 10
228.91468553342
 20
99.75680013673318
 11
228.91468553342
 21
100.7568001367333
 97
        0
 75
     0
 76
     1
 98
        0
  0
LINE
  5
C7
330
B7
100
AcDbEntity
  8
12_Linie
 62
     7
370
    20
100
AcDbLine
 10
84.91468553342003
 20
128.7568001367333
 30
0.0
 11
84.91468553342003
 21
100.7568001367333
 31
0.0
  0
HATCH
  5
C8
330
B7
100
AcDbEntity
  8
Schraff_Dämmung
 62
   253
100
AcDbHatch
 10
0.0
 20
0.0
 30
0.0
210
0.0
220
0.0
230
1.0
  2
SOLID
 70
     1
 71
     0
 91
        1
 92
        0
 93
        4
 72
     1
 10
146.6646855334202
 20
131.7568001367332
 11
136.6646855334202
 21
131.7568001367332
 72
     1
 10
136.6646855334202
 20
131.7568001367332
 11
136.6646855334202
 21
130.7568001367332
 72
     1
 10
136.6646855334202
 20
130.7568001367332
 11
146.6646855334202
 21
130.7568001367332
 72
     1
 10
146.6646855334202
 20
130.7568001367332
 11
146.6646855334202
 21
131.7568001367332
 97
        0
 75
     0
 76
     1
 98
        0
  0
TEXT
  5
C9
330
B7
100
AcDbEntity
  8
Folie _ 3
  6
Continuous
 62
     7
100
AcDbText
 10
158.2682329170477
 20
36.83554262205061
 30
0.0
 40
3.177854776382446
  1
Plane lose verlegt
 41
1.021345735900753
  7
Style0
100
AcDbText
  0
LINE
  5
CA
330
B7
100
AcDbEntity
  8
12_Linie
 62
     7
370
    20
100
AcDbLine
 10
83.91468553342003
 20
174.1211126693055
 30
0.0
 11
100.4146855334202
 21
179.5487565966469
 31
0.0
  0
LINE
  5
CB
330
B7
100
AcDbEntity
  8
34_Gruppe
  6
Continuous
 62
     7
370
    20
100
AcDbLine
 10
141.9146855334202
 20
135.7568001367332
 30
0.0
 11
157.1187737829323
 21
135.7568001367332
 31
0.0
  0
LINE
  5
CC
330
B7
100
AcDbEntity
  8
12_Linie
 62
     7
370
    20
100
AcDbLine
 10
158.1187737829323
 20
100.7568001367333
 30
0.0
 11
234.91468553342
 21
100.7568001367333
 31
0.0
  0
LINE
  5
CD
330
B7
100
AcDbEntity
  8
12_Linie
 62
     7
370
    40
100
AcDbLine
 10
158.1187737829323
 20
129.7568001367332
 30
0.0
 11
234.91468553342
 21
129.7568001367332
 31
0.0
  0
LINE
  5
CE
330
B7
100
AcDbEntity
  8
12_Linie
 62
     7
370
    40
100
AcDbLine
 10
158.1187737829323
 20
128.7568001367333
 30
0.0
 11
234.91468553342
 21
128.7568001367333
 31
0.0
  0
LINE
  5
CF
330
B7
100
AcDbEntity
  8
12_Linie
 62
     7
370
    20
100
AcDbLine
 10
83.91468553342003
 20
163.2658248146227
 30
0.0
 11
100.4146855334202
 21
168.6934687419641
 31
0.0
  0
LINE
  5
D0
330
B7
100
AcDbEntity
  8
STANDARD
  6
Continuous
 62
     7
370
    60
100
AcDbLine
 10
158.1187737829323
 20
74.75680013673318
 30
0.0
 11
234.91468553342
 21
74.75680013673318
 31
0.0
  0
LINE
  5
D1
330
B7
100
AcDbEntity
  8
STANDARD
  6
Continuous
 62
     7
370
    60
100
AcDbLine
 10
158.1187737829323
 20
99.75680013673318
 30
0.0
 11
234.91468553342
 21
99.75680013673318
 31
0.0
  0
LINE
  5
D2
330
B7
100
AcDbEntity
  8
Folie _ 3
  6
Continuous
 62
     7
100
AcDbLine
 10
158.1187737829323
 20
99.75680013673318
 30
0.0
 11
234.91468553342
 21
99.75680013673318
 31
0.0
  0
HATCH
  5
D3
330
B7
100
AcDbEntity
  8
Folie _ 3
  6
Continuous
 62
    30
100
AcDbHatch
 10
0.0
 20
0.0
 30
0.0
210
0.0
220
0.0
230
1.0
  2
SOLID
 70
     1
 71
     0
 91
        1
 92
        0
 93
        4
 72
     1
 10
157.1187737829323
 20
129.7568001367332
 11
85.11468553342002
 21
129.7568001367332
 72
     1
 10
85.11468553342002
 20
129.7568001367332
 11
85.11468553342002
 21
128.7568001367333
 72
     1
 10
85.11468553342002
 20
128.7568001367333
 11
157.1187737829323
 21
128.7568001367333
 72
     1
 10
157.1187737829323
 20
128.7568001367333
 11
157.1187737829323
 21
129.7568001367332
 97
        0
 75
     0
 76
     1
 98
        0
  0
LINE
  5
D4
330
B7
100
AcDbEntity
  8
12_Linie
 62
     7
370
    20
100
AcDbLine
 10
100.9146855334202
 20
197.3424637773825
 30
0.0
 11
100.9146855334202
 21
131.7568001367332
 31
0.0
  0
LINE
  5
D5
330
B7
100
AcDbEntity
  8
Folie _ 3
  6
Continuous
 62
     7
370
    20
100
AcDbLine
 10
84.9146855334202
 20
130.7568001367332
 30
0.0
 11
157.1187737829323
 21
130.7568001367332
 31
0.0
  0
LINE
  5
D6
330
B7
100
AcDbEntity
  8
12_Linie
 62
     7
370
    20
100
AcDbLine
 10
100.4146855334202
 20
197.3424637773825
 30
0.0
 11
100.4146855334202
 21
132.4368080510908
 31
0.0
  0
LINE
  5
D7
330
B7
100
AcDbEntity
  8
STANDARD
  6
Continuous
 62
     7
370
    20
100
AcDbLine
 10
85.1946877944667
 20
132.4368080510908
 30
0.0
 11
85.1946877944667
 21
137.1231286680221
 31
0.0
  0
LINE
  5
D8
330
B7
100
AcDbEntity
  8
STANDARD
  6
Continuous
 62
     7
370
    20
100
AcDbLine
 10
84.91468553342003
 20
137.3831718360863
 30
0.0
 11
85.1946877944667
 21
137.1231201915278
 31
0.0
  0
ARC
  5
D9
330
B7
100
AcDbEntity
  8
12_Linie
 62
     7
370
    40
100
AcDbCircle
 10
85.11468553342002
 20
129.9568001367332
 30
0.0
 40
0.2
100
AcDbArc
 50
179.9999999999967
 51
270.0
  0
LINE
  5
DA
330
B7
100
AcDbEntity
  8
12_Linie
 62
     7
370
    20
100
AcDbLine
 10
100.6146855334202
 20
131.7568001367332
 30
0.0
 11
100.9146855334202
 21
131.7568001367332
 31
0.0
  0
LINE
  5
DB
330
B7
100
AcDbEntity
  8
STANDARD
  6
Continuous
 62
     7
370
    60
100
AcDbLine
 10
83.91468553342003
 20
74.75680013673318
 30
0.0
 11
83.91468553342003
 21
62.45808860619272
 31
0.0
  0
TEXT
  5
DC
330
B7
100
AcDbEntity
  8
34_Gruppe
  6
Continuous
 62
     7
100
AcDbText
 10
33.25164199587871
 20
41.34734781664301
 30
0.0
 40
3.177854776382446
  1
(*2) Wärmedämmung entsprechend druckfest,
 41
0.9804659138007177
  7
Style0
100
AcDbText
  0
TEXT
  5
DD
330
B7
100
AcDbEntity
  8
34_Gruppe
  6
Continuous
 62
     7
100
AcDbText
 10
33.25164199587871
 20
35.88679418342508
 30
0.0
 40
3.177854776382446
  1
2-lagig lt. ÖNORM B 3691
 41
0.9804659138007177
  7
Style0
100
AcDbText
  0
TEXT
  5
DE
330
B7
100
AcDbEntity
  8
34_Gruppe
  6
Continuous
 62
     7
100
AcDbText
 10
33.25164199587871
 20
30.6908708527364
 30
0.0
 40
3.177854776382446
  1
(*3) Ohne vorhandene bauphysikalische
 41
0.9804659138007177
  7
Style0
100
AcDbText
  0
TEXT
  5
DF
330
B7
100
AcDbEntity
  8
34_Gruppe
  6
Continuous
 62
     7
100
AcDbText
 10
33.25164199587871
 20
25.23031721951847
 30
0.0
 40
3.177854776382446
  1
Berechnung, Dampfsperre >1000m sd-Wert
 41
0.9804659138007177
  7
Style0
100
AcDbText
  0
TEXT
  5
E0
330
B7
100
AcDbEntity
  8
34_Gruppe
  6
Continuous
 62
     7
100
AcDbText
 10
33.25164199587871
 20
19.76976358630054
 30
0.0
 40
3.177854776382446
  1
lt. ÖNORM B 3691 erforderlich
 41
0.9804659138007177
  7
Style0
100
AcDbText
  0
TEXT
  5
E1
330
B7
100
AcDbEntity
  8
34_Gruppe
  6
Continuous
 62
     7
100
AcDbText
 10
33.25164199587871
 20
46.87403652082574
 30
0.0
 40
3.177854776382446
  1
(*1) Schutzlage lt. ÖNORM B 3691 erforderlich
 41
0.9804659138007177
  7
Style0
100
AcDbText
  0
TEXT
  5
E2
330
B7
100
AcDbEntity
  8
Folie _ 3
  6
Continuous
 62
     7
100
AcDbText
 10
158.2682329170477
 20
41.32345008928257
 30
0.0
 40
3.177854776382446
  1
Wandanschluss hinter dem Wärmedämm- Verbundsystem
 41
1.021345735900753
  7
Style0
100
AcDbText
  0
LINE
  5
E3
330
B7
100
AcDbEntity
  8
34_Gruppe
  6
Continuous
 62
     7
370
    20
100
AcDbLine
 10
158.1187737829323
 20
135.7568001367332
 30
0.0
 11
232.6187737829323
 21
135.7568001367332
 31
0.0
  0
LINE
  5
E4
330
B7
100
AcDbEntity
  8
Folie _ 3
  6
Continuous
 62
    30
420
 16741120
100
AcDbLine
 10
85.11468553342002
 20
129.7568001367332
 30
0.0
 11
85.11468553342002
 21
128.7568001367333
 31
0.0
  0
LINE
  5
E5
330
B7
100
AcDbEntity
  8
STANDARD
  6
Continuous
 62
     7
370
    20
100
AcDbLine
 10
100.5346860983345
 20
132.4368080510908
 30
0.0
 11
85.1946877944667
 21
132.4368080510908
 31
0.0
  0
LINE
  5
E6
330
B7
100
AcDbEntity
  8
STANDARD
  6
Continuous
 62
     7
370
    20
100
AcDbLine
 10
84.99468496850568
 20
136.8636243021484
 30
0.0
 11
84.9146855334202
 21
136.8636243021484
 31
0.0
  0
LINE
  5
E7
330
B7
100
AcDbEntity
  8
34_Gruppe
100
AcDbLine
 10
83.91467705692577
 20
165.8636327800317
 30
0.0
 11
83.91467705692577
 21
161.2568114405775
 31
0.0
  0
LINE
  5
E8
330
B7
100
AcDbEntity
  8
STANDARD
  6
Continuous
 62
     7
370
    20
100
AcDbLine
 10
85.01467423096474
 20
132.1568142665385
 30
0.0
 11
100.2646784685176
 21
132.1568142665385
 31
0.0
  0
LINE
  5
E9
330
B7
100
AcDbEntity
  8
STANDARD
  6
Continuous
 62
     7
370
    20
100
AcDbLine
 10
100.3146855334202
 20
132.1068156795191
 30
0.0
 11
100.3146855334202
 21
131.7568086146164
 31
0.0
  0
ARC
  5
EA
330
B7
100
AcDbEntity
  8
STANDARD
  6
Continuous
 62
     7
370
    20
100
AcDbCircle
 10
100.2646784685176
 20
132.1068156795191
 30
0.0
 40
0.0500006231558964
100
AcDbArc
 50
0.0
 51
89.99999237000002
  0
LINE
  5
EB
330
B7
100
AcDbEntity
  8
STANDARD
  6
Continuous
 62
     7
370
    20
100
AcDbLine
 10
100.4146827074592
 20
131.6568029626943
 30
0.0
 11
100.514679881498
 21
131.6568029626943
 31
0.0
  0
ARC
  5
EC
330
B7
100
AcDbEntity
  8
STANDARD
  6
Continuous
 62
     7
370
    20
100
AcDbCircle
 10
100.4146827074592
 20
131.7568001367332
 30
0.0
 40
0.100001247700699
100
AcDbArc
 50
180.0
 51
270.0
  0
LINE
  5
ED
330
B7
100
AcDbEntity
  8
STANDARD
  6
Continuous
 62
     7
370
    20
100
AcDbLine
 10
100.6146855334202
 20
131.7568001367332
 30
0.0
 11
100.6146855334202
 21
132.6568170938884
 31
0.0
  0
ARC
  5
EE
330
B7
100
AcDbEntity
  8
STANDARD
  6
Continuous
 62
     7
370
    20
100
AcDbCircle
 10
100.514679881498
 20
131.7568001367332
 30
0.0
 40
0.100001247700699
100
AcDbArc
 50
270.0
 51
0.0
  0
ARC
  5
EF
330
B7
100
AcDbEntity
  8
STANDARD
  6
Continuous
 62
     7
370
    20
100
AcDbCircle
 10
85.01467423096474
 20
132.2568114405775
 30
0.0
 40
0.100001247700699
100
AcDbArc
 50
180.0
 51
270.0
  0
LINE
  5
F0
330
B7
100
AcDbEntity
  8
STANDARD
  6
Continuous
 62
     7
370
    20
100
AcDbLine
 10
100.5346860983345
 20
132.6568170938884
 30
0.0
 11
100.6146855334202
 21
132.6568170938884
 31
0.0
  0
ARC
  5
F1
330
B7
100
AcDbEntity
  8
STANDARD
  6
Continuous
 62
     7
370
    20
100
AcDbCircle
 10
85.014682707459
 20
132.2568199184607
 30
0.0
 40
0.0200002473178899
100
AcDbArc
 50
180.0
 51
270.0
  0
LINE
  5
F2
330
B7
100
AcDbEntity
  8
STANDARD
  6
Continuous
 62
     7
370
    20
100
AcDbLine
 10
100.5346860983345
 20
132.6568170938884
 30
0.0
 11
100.5346860983345
 21
131.7568086146164
 31
0.0
  0
ARC
  5
F3
330
B7
100
AcDbEntity
  8
STANDARD
  6
Continuous
 62
     7
370
    20
100
AcDbCircle
 10
100.5146883593812
 20
131.7568086146164
 30
0.0
 40
0.0200002473178899
100
AcDbArc
 50
270.0
 51
0.0
  0
LINE
  5
F4
330
B7
100
AcDbEntity
  8
STANDARD
  6
Continuous
 62
     7
370
    20
100
AcDbLine
 10
100.5146883593812
 20
131.7368108742741
 30
0.0
 11
100.4146911853422
 21
131.7368108742741
 31
0.0
  0
ARC
  5
F5
330
B7
100
AcDbEntity
  8
STANDARD
  6
Continuous
 62
     7
370
    20
100
AcDbCircle
 10
100.4146827074592
 20
131.7568086146164
 30
0.0
 40
0.0200002473178899
100
AcDbArc
 50
180.0
 51
270.0
  0
LINE
  5
F6
330
B7
100
AcDbEntity
  8
STANDARD
  6
Continuous
 62
     7
370
    20
100
AcDbLine
 10
100.3946934450001
 20
131.7568086146164
 30
0.0
 11
100.3946934450001
 21
132.1068156795191
 31
0.0
  0
ARC
  5
F7
330
B7
100
AcDbEntity
  8
STANDARD
  6
Continuous
 62
     7
370
    20
100
AcDbCircle
 10
100.2646869464006
 20
132.1068156795191
 30
0.0
 40
0.1300016152052685
100
AcDbArc
 50
0.0
 51
89.99999237000002
  0
LINE
  5
F8
330
B7
100
AcDbEntity
  8
STANDARD
  6
Continuous
 62
     7
370
    20
100
AcDbLine
 10
100.2646869464008
 20
132.2368137016241
 30
0.0
 11
85.01468270745919
 21
132.2368137016241
 31
0.0
  0
LINE
  5
F9
330
B7
100
AcDbEntity
  8
STANDARD
  6
Continuous
 62
     7
370
    20
100
AcDbLine
 10
84.99468496850568
 20
132.2568199184607
 30
0.0
 11
84.99468496850568
 21
136.8636412565259
 31
0.0
  0
LINE
  5
FA
330
B7
100
AcDbEntity
  8
12_Linie
 62
     7
370
    20
100
AcDbLine
 10
85.1946877944667
 20
132.4368080510908
 30
0.0
 11
100.4146855334202
 21
137.4433976451502
 31
0.0
  0
LINE
  5
FB
330
B7
100
AcDbEntity
  8
34_Gruppe
  6
Continuous
 62
     7
370
    20
100
AcDbLine
 10
158.1187737829323
 20
139.2568001367317
 30
0.0
 11
232.6187737829323
 21
139.2568001367317
 31
0.0
  0
LINE
  5
FC
330
B7
100
AcDbEntity
  8
12_Linie
 62
     7
370
    20
100
AcDbLine
 10
84.9146855334202
 20
142.542093455683
 30
0.0
 11
100.4146855334202
 21
137.4433976451502
 31
0.0
  0
HATCH
  5
FD
330
B7
100
AcDbEntity
  8
Folie _ 3
  6
Continuous
 62
    30
100
AcDbHatch
 10
0.0
 20
0.0
 30
0.0
210
0.0
220
0.0
230
1.0
  2
SOLID
 70
     1
 71
     0
 91
        1
 92
        0
 93
       19
 72
     2
 10
84.96469892861224
 20
155.1332532469152
 40
0.0750186787748503
 50
131.8112808464538
 51
228.1887191535465
 73
     1
 72
     1
 10
84.9146855334202
 20
155.0773384683098
 11
84.9146855334202
 21
129.9568001367332
 72
     2
 10
85.11468553342002
 20
129.9568001367332
 40
0.2
 50
180.0
 51
270.0
 73
     1
 72
     1
 10
85.11468553342002
 20
129.7568001367332
 11
85.11468553342002
 21
128.7568001367333
 72
     1
 10
85.11468553342002
 20
128.7568001367333
 11
84.01468553342002
 21
128.7568001367333
 72
     2
 10
84.01468553342002
 20
128.8568001367333
 40
0.1
 50
90.0
 51
180.0
 73
     0
 72
     1
 10
83.91468553342003
 20
128.8568001367333
 11
83.91468553342003
 21
161.1568142665385
 72
     1
 10
83.91468553342003
 20
161.1568142665385
 11
84.9146855334202
 21
161.1568142665385
 72
     1
 10
84.9146855334202
 20
161.1568142665385
 11
84.9146855334202
 21
158.3392603121658
 72
     2
 10
84.96464892861223
 20
158.2832949764619
 40
0.0750230608516824
 50
131.7570784278772
 51
228.242921572123
 73
     1
 72
     1
 10
84.9146855334202
 20
158.2273296407581
 11
84.9146855334202
 21
157.9791737580684
 72
     2
 10
84.96468538342015
 20
157.9232719244672
 40
0.075
 50
131.8101611552479
 51
228.1898388447522
 73
     1
 72
     1
 10
84.9146855334202
 20
157.867370090866
 11
84.9146855334202
 21
157.6191737396776
 72
     2
 10
84.96466631539552
 20
157.5633218991883
 40
0.0749500277044701
 50
131.8247745480847
 51
228.1753793296903
 73
     1
 72
     1
 10
84.91468568342007
 20
157.5074699244672
 11
84.91468538342015
 21
155.9090719244672
 72
     2
 10
84.96468488159735
 20
155.8531710070406
 40
0.0749990825750912
 50
131.8104274290661
 51
228.1897263136228
 73
     1
 72
     1
 10
84.9146855334202
 20
155.7972699554497
 11
84.9146855334202
 21
155.5491737580685
 72
     2
 10
84.96468538342015
 20
155.4932719244673
 40
0.075
 50
131.810161155253
 51
228.189838844747
 73
     1
 72
     1
 10
84.9146855334202
 20
155.4373700908661
 11
84.9146855334202
 21
155.1891680255206
 97
        0
 75
     0
 76
     1
 98
        0
  0
LINE
  5
FE
330
B7
100
AcDbEntity
  8
12_Linie
 62
     7
370
    20
100
AcDbLine
 10
84.9146855334202
 20
142.542093455683
 30
0.0
 11
100.4146855334202
 21
147.6407892662158
 31
0.0
  0
LINE
  5
FF
330
B7
100
AcDbEntity
  8
12_Linie
 62
     7
370
    20
100
AcDbLine
 10
84.9146855334202
 20
152.7394850767485
 30
0.0
 11
100.4146855334202
 21
157.8381808872813
 31
0.0
  0
HATCH
  5
100
330
B7
100
AcDbEntity
  8
Folie _ 3
  6
Continuous
 62
    50
100
AcDbHatch
 10
0.0
 20
0.0
 30
0.0
210
0.0
220
0.0
230
1.0
  2
SOLID
 70
     1
 71
     0
 91
        1
 92
        0
 93
        4
 72
     1
 10
84.91468553342003
 20
128.7568001367333
 11
157.1187737829323
 21
128.7568001367333
 72
     1
 10
157.1187737829323
 20
128.7568001367333
 11
157.1187737829323
 21
114.7568001367332
 72
     1
 10
157.1187737829323
 20
114.7568001367332
 11
84.91468553342003
 21
114.7568001367332
 72
     1
 10
84.91468553342003
 20
114.7568001367332
 11
84.91468553342003
 21
128.7568001367333
 97
        0
 75
     0
 76
     1
 98
        0
  0
LINE
  5
101
330
B7
100
AcDbEntity
  8
12_Linie
 62
     7
370
    20
100
AcDbLine
 10
84.9146855334202
 20
152.7394850767485
 30
0.0
 11
100.4146855334202
 21
147.6407892662158
 31
0.0
  0
LINE
  5
102
330
B7
100
AcDbEntity
  8
12_Linie
 62
     7
370
    20
100
AcDbLine
 10
83.91468553342003
 20
163.2658248146227
 30
0.0
 11
100.4146855334202
 21
157.8381808872813
 31
0.0
  0
LINE
  5
103
330
B7
100
AcDbEntity
  8
Folie _ 3
  6
Continuous
 62
     7
370
    30
100
AcDbLine
 10
105.3578079776478
 20
169.8484629994777
 30
0.0
 11
84.9146855334202
 21
155.7972699554497
 31
0.0
  0
LINE
  5
104
330
B7
100
AcDbEntity
  8
34_Gruppe
  6
Continuous
 62
     7
370
    20
100
AcDbLine
 10
189.1187737829323
 20
135.7568001367332
 30
0.0
 11
189.1187737829323
 21
130.7568001367332
 31
0.0
  0
TEXT
  5
105
330
B7
100
AcDbEntity
  8
Folie _ 3
  6
Continuous
 62
     7
100
AcDbText
 10
171.6913298446629
 20
152.5427425682025
 30
0.0
 40
3.177854776382446
  1
- Stahlbetondecke
 41
1.071865229477616
  7
Style0
100
AcDbText
  0
TEXT
  5
106
330
B7
100
AcDbEntity
  8
Folie _ 3
  6
Continuous
 62
     7
100
AcDbText
 10
171.6913298446629
 20
158.0032962014205
 30
0.0
 40
3.177854776382446
  1
- Voranstrich
 41
1.071865229477616
  7
Style0
100
AcDbText
  0
TEXT
  5
107
330
B7
100
AcDbEntity
  8
Folie _ 3
  6
Continuous
 62
     7
100
AcDbText
 10
171.6913298446629
 20
163.4638498346384
 30
0.0
 40
3.177854776382446
  1
- Dampfsperre (*3)
 41
1.071865229477616
  7
Style0
100
AcDbText
  0
TEXT
  5
108
330
B7
100
AcDbEntity
  8
Folie _ 3
  6
Continuous
 62
     7
100
AcDbText
 10
171.6913298446629
 20
168.9244034678565
 30
0.0
 40
3.177854776382446
  1
- Wärmedämmung (*2)
 41
1.071865229477616
  7
Style0
100
AcDbText
  0
TEXT
  5
109
330
B7
100
AcDbEntity
  8
Folie _ 3
  6
Continuous
 62
    30
100
AcDbText
 10
171.6913298446629
 20
174.3849571010745
 30
0.0
 40
3.177854776382446
  1
- COVERiT NOVOtan EPDM Plane 1,3/ 1,5 mm
 41
0.966666678754029
  7
Style0
100
AcDbText
  0
TEXT
  5
10A
330
B7
100
AcDbEntity
  8
Folie _ 3
  6
Continuous
 62
     7
100
AcDbText
 10
171.6913298446629
 20
179.8455107342924
 30
0.0
 40
3.177854776382446
  1
- Schutzlage (*1)
 41
1.071865229477616
  7
Style0
100
AcDbText
  0
TEXT
  5
10B
330
B7
100
AcDbEntity
  8
Folie _ 3
  6
Continuous
 62
     7
100
AcDbText
 10
171.6913298446629
 20
185.3060643675105
 30
0.0
 40
3.177854776382446
  1
- Plattenbelag / Lattenrost
 41
1.071865229477616
  7
Style0
100
AcDbText
  0
LINE
  5
10C
330
B7
100
AcDbEntity
  8
Folie _ 3
  6
Continuous
 62
     7
370
    30
100
AcDbLine
 10
171.6913298446629
 20
83.07439625500137
 30
0.0
 11
171.6913298446629
 21
186.700045349767
 31
0.0
  0
HATCH
  5
10D
330
B7
100
AcDbEntity
  8
18_Schraffur
 62
   251
100
AcDbHatch
 10
0.0
 20
0.0
 30
0.0
210
0.0
220
0.0
230
1.0
  2
SOLID
 70
     1
 71
     0
 91
        1
 92
        0
 93
        6
 72
     1
 10
88.91468553342003
 20
100.7568001367333
 11
84.91468553342003
 21
100.7568001367333
 72
     1
 10
84.91468553342003
 20
100.7568001367333
 11
84.91468553342003
 21
104.7568001367332
 72
     1
 10
84.91468553342003
 20
104.7568001367332
 11
83.91468553342003
 21
104.7568001367332
 72
     1
 10
83.91468553342003
 20
104.7568001367332
 11
83.91468553342003
 21
99.75680013673318
 72
     1
 10
83.91468553342003
 20
99.75680013673318
 11
88.91468553342003
 21
99.75680013673318
 72
     1
 10
88.91468553342003
 20
99.75680013673318
 11
88.91468553342003
 21
100.7568001367333
 97
        0
 75
     0
 76
     1
 98
        0
  0
HATCH
  5
10E
330
B7
100
AcDbEntity
  8
18_Schraffur
 62
   251
100
AcDbHatch
 10
0.0
 20
0.0
 30
0.0
210
0.0
220
0.0
230
1.0
  2
SOLID
 70
     1
 71
     0
 91
        1
 92
        0
 93
        4
 72
     1
 10
108.91468553342
 20
100.7568001367333
 11
98.91468553342003
 21
100.7568001367333
 72
     1
 10
98.91468553342003
 20
100.7568001367333
 11
98.91468553342003
 21
99.75680013673318
 72
     1
 10
98.91468553342003
 20
99.75680013673318
 11
108.91468553342
 21
99.75680013673318
 72
     1
 10
108.91468553342
 20
99.75680013673318
 11
108.91468553342
 21
100.7568001367333
 97
        0
 75
     0
 76
     1
 98
        0
  0
HATCH
  5
10F
330
B7
100
AcDbEntity
  8
18_Schraffur
 62
   251
100
AcDbHatch
 10
0.0
 20
0.0
 30
0.0
210
0.0
220
0.0
230
1.0
  2
SOLID
 70
     1
 71
     0
 91
        1
 92
        0
 93
        4
 72
     1
 10
128.91468553342
 20
100.7568001367333
 11
118.91468553342
 21
100.7568001367333
 72
     1
 10
118.91468553342
 20
100.7568001367333
 11
118.91468553342
 21
99.75680013673318
 72
     1
 10
118.91468553342
 20
99.75680013673318
 11
128.91468553342
 21
99.75680013673318
 72
     1
 10
128.91468553342
 20
99.75680013673318
 11
128.91468553342
 21
100.7568001367333
 97
        0
 75
     0
 76
     1
 98
        0
  0
HATCH
  5
110
330
B7
100
AcDbEntity
  8
18_Schraffur
 62
   251
100
AcDbHatch
 10
0.0
 20
0.0
 30
0.0
210
0.0
220
0.0
230
1.0
  2
SOLID
 70
     1
 71
     0
 91
        1
 92
        0
 93
        4
 72
     1
 10
148.91468553342
 20
100.7568001367333
 11
138.91468553342
 21
100.7568001367333
 72
     1
 10
138.91468553342
 20
100.7568001367333
 11
138.91468553342
 21
99.75680013673318
 72
     1
 10
138.91468553342
 20
99.75680013673318
 11
148.91468553342
 21
99.75680013673318
 72
     1
 10
148.91468553342
 20
99.75680013673318
 11
148.91468553342
 21
100.7568001367333
 97
        0
 75
     0
 76
     1
 98
        0
  0
LINE
  5
111
330
B7
100
AcDbEntity
  8
34_Gruppe
  6
Continuous
 62
     7
370
    20
100
AcDbLine
 10
197.1187737829323
 20
135.7568001367332
 30
0.0
 11
197.1187737829323
 21
130.7568001367332
 31
0.0
  0
LINE
  5
112
330
B7
100
AcDbEntity
  8
12_Linie
 62
     7
370
    20
100
AcDbLine
 10
84.91468553342003
 20
100.7568001367333
 30
0.0
 11
157.1187737829323
 21
100.7568001367333
 31
0.0
  0
LINE
  5
113
330
B7
100
AcDbEntity
  8
STANDARD
  6
Continuous
 62
     7
370
    60
100
AcDbLine
 10
63.91468553342002
 20
99.75680013673318
 30
0.0
 11
157.1187737829323
 21
99.75680013673318
 31
0.0
  0
LINE
  5
114
330
B7
100
AcDbEntity
  8
STANDARD
  6
Continuous
 62
     7
370
    60
100
AcDbLine
 10
63.91468553342002
 20
74.75680013673318
 30
0.0
 11
157.1187737829323
 21
74.75680013673318
 31
0.0
  0
HATCH
  5
115
330
B7
100
AcDbEntity
  8
Folie _ 3
  6
Continuous
 62
     7
370
    20
100
AcDbHatch
 10
0.0
 20
0.0
 30
0.0
210
0.0
220
0.0
230
1.0
  2
ANSI33
 70
     0
 71
     0
 91
        1
 92
        0
 93
        4
 72
     1
 10
83.91468553342003
 20
198.0224716917401
 11
63.91468553342002
 21
198.0224716917401
 72
     1
 10
63.91468553342002
 20
198.0224716917401
 11
63.91468553342002
 21
99.75680013673318
 72
     1
 10
63.91468553342002
 20
99.75680013673318
 11
83.91468553342003
 21
99.75680013673318
 72
     1
 10
83.91468553342003
 20
99.75680013673318
 11
83.91468553342003
 21
198.0224716917401
 97
        0
 75
     0
 76
     1
 52
0.0
 41
25.0
 77
     0
 78
     2
 53
45.0
 43
-83.83930577895136
 44
-43.37958229115395
 45
-4.419417382415922
 46
4.419417382415921
 79
     0
 53
45.0
 43
-79.41988840395136
 44
-43.37958229115395
 45
-4.419417382415922
 46
4.419417382415921
 79
     2
 49
3.125
 49
-1.5625
 98
        0
  0
ARC
  5
116
330
B7
100
AcDbEntity
  8
14_Kreis
  6
Continuous
 62
     7
370
     0
100
AcDbCircle
 10
84.01468553342002
 20
128.8568001367333
 30
0.0
 40
0.1
100
AcDbArc
 50
180.0
 51
270.0
  0
LINE
  5
117
330
B7
100
AcDbEntity
  8
12_Linie
 62
     7
370
    40
100
AcDbLine
 10
83.91468553342003
 20
128.7568001367333
 30
0.0
 11
157.1187737829323
 21
128.7568001367333
 31
0.0
  0
POLYLINE
  5
118
330
B7
100
AcDbEntity
  8
Folie _ 3
  6
Continuous
 62
     7
370
    50
100
AcDb2dPolyline
 66
     1
 10
0.0
 20
0.0
 30
0.0
  0
VERTEX
  5
119
330
118
100
AcDbEntity
  8
Folie _ 3
  6
Continuous
 62
     7
370
    50
100
AcDbVertex
100
AcDb2dVertex
 10
0.0
 20
210.0
 30
0.0
  0
VERTEX
  5
11A
330
118
100
AcDbEntity
  8
Folie _ 3
  6
Continuous
 62
     7
370
    50
100
AcDbVertex
100
AcDb2dVertex
 10
0.0
 20
0.0
 30
0.0
  0
SEQEND
  5
11B
330
118
100
AcDbEntity
  8
Folie _ 3
  6
Continuous
 62
     7
370
    50
  0
POLYLINE
  5
11C
330
B7
100
AcDbEntity
  8
Folie _ 3
  6
Continuous
 62
     7
370
    50
100
AcDb2dPolyline
 66
     1
 10
0.0
 20
0.0
 30
0.0
  0
VERTEX
  5
11D
330
11C
100
AcDbEntity
  8
Folie _ 3
  6
Continuous
 62
     7
370
    50
100
AcDbVertex
100
AcDb2dVertex
 10
0.0
 20
0.0
 30
0.0
  0
VERTEX
  5
11E
330
11C
100
AcDbEntity
  8
Folie _ 3
  6
Continuous
 62
     7
370
    50
100
AcDbVertex
100
AcDb2dVertex
 10
296.9999999999998
 20
0.0
 30
0.0
  0
SEQEND
  5
11F
330
11C
100
AcDbEntity
  8
Folie _ 3
  6
Continuous
 62
     7
370
    50
  0
POLYLINE
  5
120
330
B7
100
AcDbEntity
  8
Folie _ 3
  6
Continuous
 62
     7
370
    50
100
AcDb2dPolyline
 66
     1
 10
0.0
 20
0.0
 30
0.0
  0
VERTEX
  5
121
330
120
100
AcDbEntity
  8
Folie _ 3
  6
Continuous
 62
     7
370
    50
100
AcDbVertex
100
AcDb2dVertex
 10
296.9999999999998
 20
0.0
 30
0.0
  0
VERTEX
  5
122
330
120
100
AcDbEntity
  8
Folie _ 3
  6
Continuous
 62
     7
370
    50
100
AcDbVertex
100
AcDb2dVertex
 10
296.9999999999998
 20
210.0
 30
0.0
  0
SEQEND
  5
123
330
120
100
AcDbEntity
  8
Folie _ 3
  6
Continuous
 62
     7
370
    50
  0
POLYLINE
  5
124
330
B7
100
AcDbEntity
  8
Folie _ 3
  6
Continuous
 62
     7
370
    50
100
AcDb2dPolyline
 66
     1
 10
0.0
 20
0.0
 30
0.0
  0
VERTEX
  5
125
330
124
100
AcDbEntity
  8
Folie _ 3
  6
Continuous
 62
     7
370
    50
100
AcDbVertex
100
AcDb2dVertex
 10
296.9999999999998
 20
210.0
 30
0.0
  0
VERTEX
  5
126
330
124
100
AcDbEntity
  8
Folie _ 3
  6
Continuous
 62
     7
370
    50
100
AcDbVertex
100
AcDb2dVertex
 10
0.0
 20
210.0
 30
0.0
  0
SEQEND
  5
127
330
124
100
AcDbEntity
  8
Folie _ 3
  6
Continuous
 62
     7
370
    50
  0
POLYLINE
  5
128
330
B7
100
AcDbEntity
  8
Folie _ 3
  6
Continuous
 62
     7
370
    50
100
AcDb2dPolyline
 66
     1
 10
0.0
 20
0.0
 30
0.0
 70
     1
  0
VERTEX
  5
129
330
128
100
AcDbEntity
  8
Folie _ 3
  6
Continuous
 62
     7
370
    50
100
AcDbVertex
100
AcDb2dVertex
 10
25.0
 20
205.0
 30
0.0
  0
VERTEX
  5
12A
330
128
100
AcDbEntity
  8
Folie _ 3
  6
Continuous
 62
     7
370
    50
100
AcDbVertex
100
AcDb2dVertex
 10
291.9999999999998
 20
205.0
 30
0.0
  0
VERTEX
  5
12B
330
128
100
AcDbEntity
  8
Folie _ 3
  6
Continuous
 62
     7
370
    50
100
AcDbVertex
100
AcDb2dVertex
 10
291.9999999999998
 20
5.0
 30
0.0
  0
VERTEX
  5
12C
330
128
100
AcDbEntity
  8
Folie _ 3
  6
Continuous
 62
     7
370
    50
100
AcDbVertex
100
AcDb2dVertex
 10
25.0
 20
5.0
 30
0.0
  0
SEQEND
  5
12D
330
128
100
AcDbEntity
  8
Folie _ 3
  6
Continuous
 62
     7
370
    50
  0
POLYLINE
  5
12E
330
B7
100
AcDbEntity
  8
Folie _ 3
  6
Continuous
 62
     7
370
    50
100
AcDb2dPolyline
 66
     1
 10
0.0
 20
0.0
 30
0.0
  0
VERTEX
  5
12F
330
12E
100
AcDbEntity
  8
Folie _ 3
  6
Continuous
 62
     7
370
    50
100
AcDbVertex
100
AcDb2dVertex
 10
157.0
 20
5.0
 30
0.0
  0
VERTEX
  5
130
330
12E
100
AcDbEntity
  8
Folie _ 3
  6
Continuous
 62
     7
370
    50
100
AcDbVertex
100
AcDb2dVertex
 10
157.0
 20
50.0
 30
0.0
  0
VERTEX
  5
131
330
12E
100
AcDbEntity
  8
Folie _ 3
  6
Continuous
 62
     7
370
    50
100
AcDbVertex
100
AcDb2dVertex
 10
291.9999999999998
 20
50.0
 30
0.0
  0
SEQEND
  5
132
330
12E
100
AcDbEntity
  8
Folie _ 3
  6
Continuous
 62
     7
370
    50
  0
LINE
  5
133
330
B7
100
AcDbEntity
  8
Folie _ 3
  6
Continuous
 62
     7
100
AcDbLine
 10
157.0
 20
15.0
 30
0.0
 11
291.9999999999998
 21
15.0
 31
0.0
  0
LINE
  5
134
330
B7
100
AcDbEntity
  8
Folie _ 3
  6
Continuous
 62
     7
100
AcDbLine
 10
157.0
 20
35.0
 30
0.0
 11
291.9999999999998
 21
35.0
 31
0.0
  0
LINE
  5
135
330
B7
100
AcDbEntity
  8
Folie _ 3
  6
Continuous
 62
     7
100
AcDbLine
 10
184.0
 20
15.0
 30
0.0
 11
184.0
 21
5.0
 31
0.0
  0
LINE
  5
136
330
B7
100
AcDbEntity
  8
Folie _ 3
  6
Continuous
 62
     7
100
AcDbLine
 10
211.0
 20
15.0
 30
0.0
 11
211.0
 21
5.0
 31
0.0
  0
LINE
  5
137
330
B7
100
AcDbEntity
  8
Folie _ 3
  6
Continuous
 62
     7
100
AcDbLine
 10
238.0
 20
15.0
 30
0.0
 11
238.0
 21
5.0
 31
0.0
  0
LINE
  5
138
330
B7
100
AcDbEntity
  8
Folie _ 3
  6
Continuous
 62
     7
100
AcDbLine
 10
265.0
 20
15.0
 30
0.0
 11
265.0
 21
5.0
 31
0.0
  0
TEXT
  5
139
330
B7
100
AcDbEntity
  8
Folie _ 3
  6
Continuous
 62
     7
100
AcDbText
 10
159.0
 20
47.0
 30
0.0
 40
2.269896030426025
  1
PLANINHALT:
 41
0.9569915226000473
  7
Style0
100
AcDbText
  0
TEXT
  5
13A
330
B7
100
AcDbEntity
  8
Folie _ 3
  6
Continuous
 62
     7
100
AcDbText
 10
159.0
 20
12.0
 30
0.0
 40
2.269896030426025
  1
MASSSTAB:
 41
1.016258694886636
  7
Style0
100
AcDbText
  0
TEXT
  5
13B
330
B7
100
AcDbEntity
  8
Folie _ 3
  6
Continuous
 62
     7
100
AcDbText
 10
186.0
 20
12.0
 30
0.0
 40
2.269896030426025
  1
ERSTELLT:
 41
1.016258694886636
  7
Style0
100
AcDbText
  0
TEXT
  5
13C
330
B7
100
AcDbEntity
  8
Folie _ 3
  6
Continuous
 62
     7
100
AcDbText
 10
213.0
 20
12.0
 30
0.0
 40
2.269896030426025
  1
BLATT NR.:
 41
1.016258694886636
  7
Style0
100
AcDbText
  0
TEXT
  5
13D
330
B7
100
AcDbEntity
  8
Folie _ 3
  6
Continuous
 62
     7
100
AcDbText
 10
240.0
 20
12.0
 30
0.0
 40
2.269896030426025
  1
DETAIL NR.:
 41
1.016258694886636
  7
Style0
100
AcDbText
  0
TEXT
  5
13E
330
B7
100
AcDbEntity
  8
Folie _ 3
  6
Continuous
 62
     7
100
AcDbText
 10
267.0
 20
12.0
 30
0.0
 40
2.269896030426025
  1
GEZEICHNET:
 41
1.016258694886636
  7
Style0
100
AcDbText
  0
TEXT
  5
13F
330
B7
100
AcDbEntity
  8
Folie _ 3
  6
Continuous
 62
     7
100
AcDbText
 10
159.1274604630973
 20
32.40944652925617
 30
0.0
 40
0.9079585075378418
  1
Die oben dargestellte Detailzeichnung bezieht sich auf eine Regelkonstruktion, d.h. sie ist zu überprüfen,
 41
0.9399217426440335
  7
Style0
100
AcDbText
  0
TEXT
  5
140
330
B7
100
AcDbEntity
  8
Folie _ 3
  6
Continuous
 62
     7
100
AcDbText
 10
159.1274604630973
 20
30.49214549119395
 30
0.0
 40
0.9079585075378418
  1
objektgebunden anzupassen, abzustimmen und gegebenfalls zu ergänzen.
 41
0.9399217426440335
  7
Style0
100
AcDbText
  0
TEXT
  5
141
330
B7
100
AcDbEntity
  8
Folie _ 3
  6
Continuous
 62
     7
100
AcDbText
 10
159.1274604630973
 20
28.57484445313173
 30
0.0
 40
0.9079585075378418
  1
Die empfohlenen Anwendungsbereiche sind auf Grund der Erfahrungen und Normen ausgearbeitet.
 41
0.9399217426440335
  7
Style0
100
AcDbText
  0
TEXT
  5
142
330
B7
100
AcDbEntity
  8
Folie _ 3
  6
Continuous
 62
     7
100
AcDbText
 10
159.1274604630973
 20
26.65754341506934
 30
0.0
 40
0.9079585075378418
  1
Eine Verbindlichkeit kann hieraus nicht abgeleitet werden. Technische Änderungen sind vorbehalten.
 41
0.9399217426440335
  7
Style0
100
AcDbText
  0
TEXT
  5
143
330
B7
100
AcDbEntity
  8
Folie _ 3
  6
Continuous
 62
     7
100
AcDbText
 10
159.1274604630973
 20
24.74024237700704
 30
0.0
 40
0.9079585075378418
  1
Die vorliegende Detailzeichnung verliert bei Erscheinen einer Neuausgabe ihre Gültigkeit.
 41
0.9399217426440335
  7
Style0
100
AcDbText
  0
TEXT
  5
144
330
B7
100
AcDbEntity
  8
Folie _ 3
  6
Continuous
 62
     7
100
AcDbText
 10
159.1274604630973
 20
22.82294133894493
 30
0.0
 40
0.9079585075378418
  1
Jede Haftung von COVERiT bei leichter Fahrlässigkeit sowie für Beratung ohne nachfolgende Warenlieferung
 41
0.9399217426440335
  7
Style0
100
AcDbText
  0
TEXT
  5
145
330
B7
100
AcDbEntity
  8
Folie _ 3
  6
Continuous
 62
     7
100
AcDbText
 10
159.1274604630973
 20
20.90564030088262
 30
0.0
 40
0.9079585075378418
  1
von COVERiT und gegenüber Dritten (andere als COVERiT-Vertragspartner) ist ausgeschlossen.
 41
0.9399217426440335
  7
Style0
100
AcDbText
  0
TEXT
  5
146
330
B7
100
AcDbEntity
  8
Folie _ 3
  6
Continuous
 62
     7
100
AcDbText
 10
159.1274604630973
 20
18.9883392628202
 30
0.0
 40
0.9079585075378418
  1
Verkauf und Lieferung von COVERiT erfolgt ausschließlich zu den allgemeinen Liefer-, Zahlungs- und Gewährleistungsbedingungen von COVERiT.
 41
0.9399217426440335
  7
Style0
100
AcDbText
  0
TEXT
  5
147
330
B7
100
AcDbEntity
  8
Folie _ 3
  6
Continuous
 62
     7
100
AcDbText
 10
159.1274604630973
 20
17.07103822475801
 30
0.0
 40
0.9079585075378418
  1
Es gilt österreichisches Recht (ohne UN Kaufrecht). Gerichtsstand ist Wels.
 41
0.9399217426440335
  7
Style0
100
AcDbText
  0
TEXT
  5
148
330
B7
100
AcDbEntity
  8
Folie _ 3
  6
Continuous
 62
     7
100
AcDbText
 10
159.0
 20
6.000000000000085
 30
0.0
 40
3.177854776382446
  1
1:1
 41
0.647972360387026
  7
Style1
100
AcDbText
  0
TEXT
  5
149
330
B7
100
AcDbEntity
  8
Folie _ 3
  6
Continuous
 62
     7
100
AcDbText
 10
186.0
 20
6.000000000000085
 30
0.0
 40
3.177854776382446
  1
07/15
 41
0.647972360387026
  7
Style1
100
AcDbText
  0
TEXT
  5
14A
330
B7
100
AcDbEntity
  8
Folie _ 3
  6
Continuous
 62
     7
100
AcDbText
 10
213.0
 20
6.000000000000085
 30
0.0
 40
3.177854776382446
  1
12
 41
0.647972360387026
  7
Style1
100
AcDbText
  0
TEXT
  5
14B
330
B7
100
AcDbEntity
  8
Folie _ 3
  6
Continuous
 62
     7
100
AcDbText
 10
240.0
 20
6.000000000000085
 30
0.0
 40
3.177854776382446
  1
12
 41
0.647972360387026
  7
Style1
100
AcDbText
  0
TEXT
  5
14C
330
B7
100
AcDbEntity
  8
Folie _ 3
  6
Continuous
 62
     7
100
AcDbText
 10
267.0
 20
6.000000000000085
 30
0.0
 40
3.177854776382446
  1
TR/AP
 41
1.081452562675454
  7
Style0
100
AcDbText
  0
LINE
  5
14D
330
B7
100
AcDbEntity
  8
Folie _ 3
  6
Continuous
 62
     7
100
AcDbLine
 10
244.4801761815237
 20
35.0
 30
0.0
 11
244.4801761815237
 21
15.0
 31
0.0
  0
LINE
  5
14E
330
B7
100
AcDbEntity
  8
12_Linie
 62
     7
370
    20
100
AcDbLine
 10
83.91468553342003
 20
104.7568001367332
 30
0.0
 11
84.91468553342003
 21
104.7568001367332
 31
0.0
  0
HATCH
  5
14F
330
B7
100
AcDbEntity
  8
18_Schraffur
 62
   251
100
AcDbHatch
 10
0.0
 20
0.0
 30
0.0
210
0.0
220
0.0
230
1.0
  2
SOLID
 70
     1
 71
     0
 91
        1
 92
        0
 93
        4
 72
     1
 10
168.91468553342
 20
100.7568001367333
 11
158.91468553342
 21
100.7568001367333
 72
     1
 10
158.91468553342
 20
100.7568001367333
 11
158.91468553342
 21
99.75680013673318
 72
     1
 10
158.91468553342
 20
99.75680013673318
 11
168.91468553342
 21
99.75680013673318
 72
     1
 10
168.91468553342
 20
99.75680013673318
 11
168.91468553342
 21
100.7568001367333
 97
        0
 75
     0
 76
     1
 98
        0
  0
LINE
  5
150
330
B7
100
AcDbEntity
  8
12_Linie
 62
     7
370
    20
100
AcDbLine
 10
88.91468553342003
 20
99.75680013673318
 30
0.0
 11
88.91468553342003
 21
100.7568001367333
 31
0.0
  0
HATCH
  5
151
330
B7
100
AcDbEntity
  8
18_Schraffur
 62
   251
100
AcDbHatch
 10
0.0
 20
0.0
 30
0.0
210
0.0
220
0.0
230
1.0
  2
SOLID
 70
     1
 71
     0
 91
        1
 92
        0
 93
        4
 72
     1
 10
188.91468553342
 20
100.7568001367333
 11
178.91468553342
 21
100.7568001367333
 72
     1
 10
178.91468553342
 20
100.7568001367333
 11
178.91468553342
 21
99.75680013673318
 72
     1
 10
178.91468553342
 20
99.75680013673318
 11
188.91468553342
 21
99.75680013673318
 72
     1
 10
188.91468553342
 20
99.75680013673318
 11
188.91468553342
 21
100.7568001367333
 97
        0
 75
     0
 76
     1
 98
        0
  0
LINE
  5
152
330
B7
100
AcDbEntity
  8
12_Linie
 62
     7
370
    20
100
AcDbLine
 10
98.91468553342003
 20
99.75680013673318
 30
0.0
 11
98.91468553342003
 21
100.7568001367333
 31
0.0
  0
HATCH
  5
153
330
B7
100
AcDbEntity
  8
18_Schraffur
 62
   251
100
AcDbHatch
 10
0.0
 20
0.0
 30
0.0
210
0.0
220
0.0
230
1.0
  2
SOLID
 70
     1
 71
     0
 91
        1
 92
        0
 93
        4
 72
     1
 10
208.91468553342
 20
100.7568001367333
 11
198.91468553342
 21
100.7568001367333
 72
     1
 10
198.91468553342
 20
100.7568001367333
 11
198.91468553342
 21
99.75680013673318
 72
     1
 10
198.91468553342
 20
99.75680013673318
 11
208.91468553342
 21
99.75680013673318
 72
     1
 10
208.91468553342
 20
99.75680013673318
 11
208.91468553342
 21
100.7568001367333
 97
        0
 75
     0
 76
     1
 98
        0
  0
HATCH
  5
154
330
B7
100
AcDbEntity
  8
18_Schraffur
 62
   251
100
AcDbHatch
 10
0.0
 20
0.0
 30
0.0
210
0.0
220
0.0
230
1.0
  2
SOLID
 70
     1
 71
     0
 91
        1
 92
        0
 93
        4
 72
     1
 10
84.91468553342003
 20
124.7568001367332
 11
83.91468553342003
 21
124.7568001367332
 72
     1
 10
83.91468553342003
 20
124.7568001367332
 11
83.91468553342003
 21
114.7568001367332
 72
     1
 10
83.91468553342003
 20
114.7568001367332
 11
84.91468553342003
 21
114.7568001367332
 72
     1
 10
84.91468553342003
 20
114.7568001367332
 11
84.91468553342003
 21
124.7568001367332
 97
        0
 75
     0
 76
     1
 98
        0
  0
POLYLINE
  5
155
330
B7
100
AcDbEntity
  8
34_Gruppe
  6
Continuous
 62
     7
370
    20
100
AcDb2dPolyline
 66
     1
 10
0.0
 20
0.0
 30
0.0
  0
VERTEX
  5
156
330
155
100
AcDbEntity
  8
34_Gruppe
  6
Continuous
 62
     7
370
    20
100
AcDbVertex
100
AcDb2dVertex
 10
158.1187737829323
 20
138.6146036489872
 30
0.0
  0
VERTEX
  5
157
330
155
100
AcDbEntity
  8
34_Gruppe
  6
Continuous
 62
     7
370
    20
100
AcDbVertex
100
AcDb2dVertex
 10
163.813359716422
 20
138.8401318047681
 30
0.0
  0
VERTEX
  5
158
330
155
100
AcDbEntity
  8
34_Gruppe
  6
Continuous
 62
     7
370
    20
100
AcDbVertex
100
AcDb2dVertex
 10
167.8945382997665
 20
137.9898862665714
 30
0.0
  0
VERTEX
  5
159
330
155
100
AcDbEntity
  8
34_Gruppe
  6
Continuous
 62
     7
370
    20
100
AcDbVertex
100
AcDb2dVertex
 10
172.3724981342946
 20
138.5567166253697
 30
0.0
  0
VERTEX
  5
15A
330
155
100
AcDbEntity
  8
34_Gruppe
  6
Continuous
 62
     7
370
    20
100
AcDbVertex
100
AcDb2dVertex
 10
180.1380740498231
 20
138.1599353742107
 30
0.0
  0
VERTEX
  5
15B
330
155
100
AcDbEntity
  8
34_Gruppe
  6
Continuous
 62
     7
370
    20
100
AcDbVertex
100
AcDb2dVertex
 10
183.5957392384802
 20
138.726765733009
 30
0.0
  0
VERTEX
  5
15C
330
155
100
AcDbEntity
  8
34_Gruppe
  6
Continuous
 62
     7
370
    20
100
AcDbVertex
100
AcDb2dVertex
 10
188.7538955035425
 20
137.9898862665714
 30
0.0
  0
VERTEX
  5
15D
330
155
100
AcDbEntity
  8
34_Gruppe
  6
Continuous
 62
     7
370
    20
100
AcDbVertex
100
AcDb2dVertex
 10
193.6286365892311
 20
138.726765733009
 30
0.0
  0
VERTEX
  5
15E
330
155
100
AcDbEntity
  8
34_Gruppe
  6
Continuous
 62
     7
370
    20
100
AcDbVertex
100
AcDb2dVertex
 10
197.1996678496284
 20
138.726765733009
 30
0.0
  0
VERTEX
  5
15F
330
155
100
AcDbEntity
  8
34_Gruppe
  6
Continuous
 62
     7
370
    20
100
AcDbVertex
100
AcDb2dVertex
 10
200.5439669665453
 20
138.216618410091
 30
0.0
  0
VERTEX
  5
160
330
155
100
AcDbEntity
  8
34_Gruppe
  6
Continuous
 62
     7
370
    20
100
AcDbVertex
100
AcDb2dVertex
 10
205.7021232316309
 20
138.726765733009
 30
0.0
  0
VERTEX
  5
161
330
155
100
AcDbEntity
  8
34_Gruppe
  6
Continuous
 62
     7
370
    20
100
AcDbVertex
100
AcDb2dVertex
 10
211.0303286043267
 20
138.4433505536106
 30
0.0
  0
VERTEX
  5
162
330
155
100
AcDbEntity
  8
34_Gruppe
  6
Continuous
 62
     7
370
    20
100
AcDbVertex
100
AcDb2dVertex
 10
215.338239331198
 20
138.5000335894894
 30
0.0
  0
VERTEX
  5
163
330
155
100
AcDbEntity
  8
34_Gruppe
  6
Continuous
 62
     7
370
    20
100
AcDbVertex
100
AcDb2dVertex
 10
219.872882201573
 20
138.9534978765287
 30
0.0
  0
VERTEX
  5
164
330
155
100
AcDbEntity
  8
34_Gruppe
  6
Continuous
 62
     7
370
    20
100
AcDbVertex
100
AcDb2dVertex
 10
224.6909402513682
 20
138.4433505536106
 30
0.0
  0
VERTEX
  5
165
330
155
100
AcDbEntity
  8
34_Gruppe
  6
Continuous
 62
     7
370
    20
100
AcDbVertex
100
AcDb2dVertex
 10
228.3753375835522
 20
138.5000335894894
 30
0.0
  0
VERTEX
  5
166
330
155
100
AcDbEntity
  8
34_Gruppe
  6
Continuous
 62
     7
370
    20
100
AcDbVertex
100
AcDb2dVertex
 10
231.6629536645758
 20
138.1032523383304
 30
0.0
  0
VERTEX
  5
167
330
155
100
AcDbEntity
  8
34_Gruppe
  6
Continuous
 62
     7
370
    20
100
AcDbVertex
100
AcDb2dVertex
 10
232.6187737829323
 20
138.2431284532131
 30
0.0
  0
SEQEND
  5
168
330
155
100
AcDbEntity
  8
34_Gruppe
  6
Continuous
 62
     7
370
    20
  0
LINE
  5
169
330
B7
100
AcDbEntity
  8
12_Linie
 62
     7
370
    20
100
AcDbLine
 10
108.91468553342
 20
99.75680013673318
 30
0.0
 11
108.91468553342
 21
100.7568001367333
 31
0.0
  0
LINE
  5
16A
330
B7
100
AcDbEntity
  8
12_Linie
 62
     7
370
    20
100
AcDbLine
 10
118.91468553342
 20
99.75680013673318
 30
0.0
 11
118.91468553342
 21
100.7568001367333
 31
0.0
  0
LINE
  5
16B
330
B7
100
AcDbEntity
  8
12_Linie
 62
     7
370
    20
100
AcDbLine
 10
128.91468553342
 20
99.75680013673318
 30
0.0
 11
128.91468553342
 21
100.7568001367333
 31
0.0
  0
LINE
  5
16C
330
B7
100
AcDbEntity
  8
12_Linie
 62
     7
370
    20
100
AcDbLine
 10
138.91468553342
 20
99.75680013673318
 30
0.0
 11
138.91468553342
 21
100.7568001367333
 31
0.0
  0
LINE
  5
16D
330
B7
100
AcDbEntity
  8
12_Linie
 62
     7
370
    20
100
AcDbLine
 10
148.91468553342
 20
99.75680013673318
 30
0.0
 11
148.91468553342
 21
100.7568001367333
 31
0.0
  0
LINE
  5
16E
330
B7
100
AcDbEntity
  8
12_Linie
 62
     7
370
    20
100
AcDbLine
 10
158.91468553342
 20
99.75680013673318
 30
0.0
 11
158.91468553342
 21
100.7568001367333
 31
0.0
  0
LINE
  5
16F
330
B7
100
AcDbEntity
  8
12_Linie
 62
     7
370
    20
100
AcDbLine
 10
168.91468553342
 20
99.75680013673318
 30
0.0
 11
168.91468553342
 21
100.7568001367333
 31
0.0
  0
LINE
  5
170
330
B7
100
AcDbEntity
  8
12_Linie
 62
     7
370
    20
100
AcDbLine
 10
178.91468553342
 20
99.75680013673318
 30
0.0
 11
178.91468553342
 21
100.7568001367333
 31
0.0
  0
LINE
  5
171
330
B7
100
AcDbEntity
  8
12_Linie
 62
     7
370
    20
100
AcDbLine
 10
188.91468553342
 20
99.75680013673318
 30
0.0
 11
188.91468553342
 21
100.7568001367333
 31
0.0
  0
LINE
  5
172
330
B7
100
AcDbEntity
  8
12_Linie
 62
     7
370
    20
100
AcDbLine
 10
198.91468553342
 20
99.75680013673318
 30
0.0
 11
198.91468553342
 21
100.7568001367333
 31
0.0
  0
LINE
  5
173
330
B7
100
AcDbEntity
  8
12_Linie
 62
     7
370
    20
100
AcDbLine
 10
208.91468553342
 20
99.75680013673318
 30
0.0
 11
208.91468553342
 21
100.7568001367333
 31
0.0
  0
LINE
  5
174
330
B7
100
AcDbEntity
  8
12_Linie
 62
     7
370
    20
100
AcDbLine
 10
218.91468553342
 20
99.75680013673318
 30
0.0
 11
218.91468553342
 21
100.7568001367333
 31
0.0
  0
LINE
  5
175
330
B7
100
AcDbEntity
  8
12_Linie
 62
     7
370
    20
100
AcDbLine
 10
228.91468553342
 20
99.75680013673318
 30
0.0
 11
228.91468553342
 21
100.7568001367333
 31
0.0
  0
LINE
  5
176
330
B7
100
AcDbEntity
  8
12_Linie
 62
     7
370
    20
100
AcDbLine
 10
83.91468553342003
 20
114.7568001367332
 30
0.0
 11
84.91468553342003
 21
114.7568001367332
 31
0.0
  0
LINE
  5
177
330
B7
100
AcDbEntity
  8
12_Linie
 62
     7
370
    20
100
AcDbLine
 10
83.91468553342003
 20
124.7568001367332
 30
0.0
 11
84.91468553342003
 21
124.7568001367332
 31
0.0
  0
LINE
  5
178
330
B7
100
AcDbEntity
  8
12_Linie
 62
     7
370
    20
100
AcDbLine
 10
83.91468553342003
 20
174.1211126693055
 30
0.0
 11
100.4146855334202
 21
168.6934687419641
 31
0.0
  0
HATCH
  5
179
330
B7
100
AcDbEntity
  8
34_Gruppe
  6
Continuous
 62
     7
370
    20
100
AcDbHatch
 10
0.0
 20
0.0
 30
0.0
210
0.0
220
0.0
230
1.0
  2
ANSI32
 70
     0
 71
     0
 91
        1
 92
        0
 93
        4
 72
     1
 10
141.4146855334202
 20
135.7568001367332
 11
101.4146855334202
 21
135.7568001367332
 72
     1
 10
101.4146855334202
 20
135.7568001367332
 11
101.4146855334202
 21
131.7568001367332
 72
     1
 10
101.4146855334202
 20
131.7568001367332
 11
141.4146855334202
 21
131.7568001367332
 72
     1
 10
141.4146855334202
 20
131.7568001367332
 11
141.4146855334202
 21
135.7568001367332
 97
        0
 75
     0
 76
     1
 52
0.0
 41
10.5
 77
     0
 78
     2
 53
45.0
 43
-695.7164518783106
 44
472.3772400225142
 45
-2.784232950922031
 46
2.784232950922032
 79
     0
 53
45.0
 43
-693.8602965808107
 44
472.3772400225142
 45
-2.784232950922031
 46
2.784232950922032
 79
     0
 98
        0
  0
LINE
  5
17A
330
B7
100
AcDbEntity
  8
STANDARD
  6
Continuous
 62
     7
370
    60
100
AcDbLine
 10
83.91468553342003
 20
198.0224716917401
 30
0.0
 11
83.91468553342003
 21
99.75680013673318
 31
0.0
  0
TEXT
  5
17B
330
B7
100
AcDbEntity
  8
Folie _ 3
  6
Continuous
 62
     7
100
AcDbText
 10
105.3578079776478
 20
166.6706082707789
 30
0.0
 40
3.177854776382446
  1
hinter der Wärmedämmung
 41
1.071865229477616
  7
Style0
100
AcDbText
  0
LINE
  5
17C
330
B7
100
AcDbEntity
  8
12_Linie
 62
     7
370
    20
100
AcDbLine
 10
83.91468553342003
 20
184.9764005239884
 30
0.0
 11
100.4146855334202
 21
179.548756596647
 31
0.0
  0
LINE
  5
17D
330
B7
100
AcDbEntity
  8
12_Linie
 62
     7
370
    20
100
AcDbLine
 10
83.91468553342003
 20
195.8316883786711
 30
0.0
 11
100.4146855334202
 21
190.4040444513298
 31
0.0
  0
LINE
  5
17E
330
B7
100
AcDbEntity
  8
12_Linie
 62
     7
370
    40
100
AcDbLine
 10
85.11468553342002
 20
129.7568001367332
 30
0.0
 11
157.1187737829323
 21
129.7568001367332
 31
0.0
  0
LINE
  5
17F
330
B7
100
AcDbEntity
  8
12_Linie
 62
     7
100
AcDbLine
 10
83.91468553342003
 20
161.1568142665385
 30
0.0
 11
83.91468553342003
 21
128.8568001367333
 31
0.0
  0
LINE
  5
180
330
B7
100
AcDbEntity
  8
12_Linie
 62
     7
370
    40
100
AcDbLine
 10
84.9146855334202
 20
161.1568142665385
 30
0.0
 11
84.9146855334202
 21
129.9568001367332
 31
0.0
  0
LINE
  5
181
330
B7
100
AcDbEntity
  8
Folie _ 3
  6
Continuous
 62
    30
420
 16741120
100
AcDbLine
 10
234.91468553342
 20
129.7568001367332
 30
0.0
 11
234.91468553342
 21
128.7568001367333
 31
0.0
  0
LINE
  5
182
330
B7
100
AcDbEntity
  8
12_Linie
 62
     7
370
    20
100
AcDbLine
 10
83.91468553342003
 20
184.9764005239884
 30
0.0
 11
100.4146855334202
 21
190.4040444513297
 31
0.0
  0
HATCH
  5
183
330
B7
100
AcDbEntity
  8
Folie _ 3
  6
Continuous
 62
     7
370
    20
100
AcDbHatch
 10
0.0
 20
0.0
 30
0.0
210
0.0
220
0.0
230
1.0
  2
ANSI33
 70
     0
 71
     0
 91
        1
 92
        0
 93
        4
 72
     1
 10
63.91468553342002
 20
99.75680013673318
 11
157.1187737829323
 21
99.75680013673318
 72
     1
 10
157.1187737829323
 20
99.75680013673318
 11
157.1187737829323
 21
74.75680013673318
 72
     1
 10
157.1187737829323
 20
74.75680013673318
 11
63.91468553342003
 21
74.75680013673318
 72
     1
 10
63.91468553342002
 20
74.75680013673318
 11
63.91468553342002
 21
99.75680013673318
 97
        0
 75
     0
 76
     1
 52
0.0
 41
25.0
 77
     0
 78
     2
 53
45.0
 43
-3.427712270716984
 44
-432.0799590045274
 45
-4.419417382415922
 46
4.419417382415921
 79
     0
 53
45.0
 43
0.9917051042830161
 44
-432.0799590045274
 45
-4.419417382415922
 46
4.419417382415921
 79
     2
 49
3.125
 49
-1.5625
 98
        0
  0
HATCH
  5
184
330
B7
100
AcDbEntity
  8
Folie _ 3
  6
Continuous
 62
    50
100
AcDbHatch
 10
0.0
 20
0.0
 30
0.0
210
0.0
220
0.0
230
1.0
  2
SOLID
 70
     1
 71
     0
 91
        1
 92
        0
 93
        4
 72
     1
 10
158.1187737829323
 20
114.7568001367332
 11
234.91468553342
 21
114.7568001367332
 72
     1
 10
234.91468553342
 20
114.7568001367332
 11
234.91468553342
 21
128.7568001367333
 72
     1
 10
234.91468553342
 20
128.7568001367333
 11
158.1187737829323
 21
128.7568001367333
 72
     1
 10
158.1187737829323
 20
128.7568001367333
 11
158.1187737829323
 21
114.7568001367332
 97
        0
 75
     0
 76
     1
 98
        0
  0
HATCH
  5
185
330
B7
100
AcDbEntity
  8
Folie _ 3
  6
Continuous
 62
    50
100
AcDbHatch
 10
0.0
 20
0.0
 30
0.0
210
0.0
220
0.0
230
1.0
  2
SOLID
 70
     1
 71
     0
 91
        1
 92
        0
 93
        4
 72
     1
 10
84.91468553342003
 20
114.7568001367332
 11
157.1187737829323
 21
114.7568001367332
 72
     1
 10
157.1187737829323
 20
114.7568001367332
 11
157.1187737829323
 21
100.7568001367334
 72
     1
 10
157.1187737829323
 20
100.7568001367334
 11
84.91468553342003
 21
100.7568001367334
 72
     1
 10
84.91468553342003
 20
100.7568001367334
 11
84.91468553342003
 21
114.7568001367332
 97
        0
 75
     0
 76
     1
 98
        0
  0
HATCH
  5
186
330
B7
100
AcDbEntity
  8
Folie _ 3
  6
Continuous
 62
    50
100
AcDbHatch
 10
0.0
 20
0.0
 30
0.0
210
0.0
220
0.0
230
1.0
  2
SOLID
 70
     1
 71
     0
 91
        1
 92
        0
 93
        4
 72
     1
 10
158.1187737829323
 20
100.7568001367333
 11
234.91468553342
 21
100.7568001367333
 72
     1
 10
234.91468553342
 20
100.7568001367333
 11
234.91468553342
 21
114.7568001367332
 72
     1
 10
234.91468553342
 20
114.7568001367332
 11
158.1187737829323
 21
114.7568001367332
 72
     1
 10
158.1187737829323
 20
114.7568001367332
 11
158.1187737829323
 21
100.7568001367333
 97
        0
 75
     0
 76
     1
 98
        0
  0
LINE
  5
187
330
B7
100
AcDbEntity
  8
Folie _ 3
  6
Continuous
 62
     7
100
AcDbLine
 10
84.91468553342003
 20
99.75680013673318
 30
0.0
 11
157.1187737829323
 21
99.75680013673318
 31
0.0
  0
LINE
  5
188
330
B7
100
AcDbEntity
  8
12_Linie
 62
     7
370
    20
100
AcDbLine
 10
84.91468553342003
 20
114.7568001367332
 30
0.0
 11
157.1187737829323
 21
114.7568001367332
 31
0.0
  0
LINE
  5
189
330
B7
100
AcDbEntity
  8
12_Linie
 62
     7
370
    20
100
AcDbLine
 10
134.9146855334198
 20
128.7568001367333
 30
0.0
 11
134.9146855334198
 21
114.7568001367332
 31
0.0
  0
LINE
  5
18A
330
B7
100
AcDbEntity
  8
12_Linie
 62
     7
370
    20
100
AcDbLine
 10
184.91468553342
 20
114.7568001367332
 30
0.0
 11
184.91468553342
 21
100.7568001367333
 31
0.0
  0
HATCH
  5
18B
330
B7
100
AcDbEntity
  8
Folie _ 3
  6
Continuous
 62
    30
100
AcDbHatch
 10
0.0
 20
0.0
 30
0.0
210
0.0
220
0.0
230
1.0
  2
SOLID
 70
     1
 71
     0
 91
        1
 92
        0
 93
        4
 72
     1
 10
234.91468553342
 20
129.7568001367332
 11
158.1187737829323
 21
129.7568001367332
 72
     1
 10
158.1187737829323
 20
129.7568001367332
 11
158.1187737829323
 21
128.7568001367333
 72
     1
 10
158.1187737829323
 20
128.7568001367333
 11
234.91468553342
 21
128.7568001367333
 72
     1
 10
234.91468553342
 20
128.7568001367333
 11
234.91468553342
 21
129.7568001367332
 97
        0
 75
     0
 76
     1
 98
        0
  0
HATCH
  5
18C
330
B7
100
AcDbEntity
  8
Schraff_Dämmung
 62
     7
370
    20
100
AcDbHatch
 10
0.0
 20
0.0
 30
0.0
210
0.0
220
0.0
230
1.0
  2
AR-CONC
 70
     0
 71
     0
 91
        1
 92
        0
 93
        8
 72
     1
 10
100.9146855334202
 20
197.3424637773825
 11
100.4146855334202
 21
197.3424637773825
 72
     1
 10
100.4146855334202
 20
197.3424637773825
 11
100.4146855334202
 21
132.4368080510908
 72
     1
 10
100.4146855334202
 20
132.4368080510908
 11
100.5346860983345
 21
132.4368080510908
 72
     1
 10
100.5346860983345
 20
132.4368080510908
 11
100.5346860983345
 21
132.6568170938884
 72
     1
 10
100.5346860983345
 20
132.6568170938884
 11
100.6146855334202
 21
132.6568170938884
 72
     1
 10
100.6146855334202
 20
132.6568170938884
 11
100.6146855334202
 21
131.7568001367332
 72
     1
 10
100.6146855334202
 20
131.7568001367332
 11
100.9146855334202
 21
131.7568001367332
 72
     1
 10
100.9146855334202
 20
131.7568001367332
 11
100.9146855334202
 21
197.3424637773825
 97
        0
 75
     0
 76
     1
 52
0.0
 41
0.6000000000000001
 77
     0
 78
    13
 53
50.0
 43
-695.7164518783106
 44
472.3772400225142
 45
4.303561095604522
 46
-0.3765128098955705
 79
     2
 49
0.4500000000000001
 49
-4.950000000000001
 53
355.0
 43
-695.7164518783106
 44
472.3772400225142
 45
-0.8325080016780004
 46
4.513152802200072
 79
     2
 49
0.36
 49
-3.96
 53
100.4514
 43
-695.3578217983106
 44
472.3458639825142
 45
3.47105629028413
 46
4.136637252365722
 79
     2
 49
0.3824411400000001
 49
-4.206852672
 53
46.1842
 43
-695.7164518783106
 44
473.5772400225142
 45
6.403446291753869
 46
-0.9931140859741081
 79
     2
 49
0.675
 49
-7.425000000000001
 53
96.63560000000001
 43
-695.1828314083107
 44
473.4944801805142
 45
5.607976233292222
 46
5.844707225402652
 79
     2
 49
0.573661728
 49
-6.310278000000001
 53
351.1842
 43
-695.7164518783106
 44
473.5772400225142
 45
5.607971670801764
 46
5.844711605551948
 79
     2
 49
0.5400000000000001
 49
-5.940000000000001
 53
21.0
 43
-695.1164518783106
 44
473.2772400225141
 45
3.58144231271077
 46
-2.415713343992033
 79
     2
 49
0.4500000000000001
 49
-4.950000000000001
 53
326.0000000000001
 43
-695.1164518783106
 44
473.2772400225141
 45
1.45989199152949
 46
4.350900270281119
 79
     2
 49
0.36
 49
-3.96
 53
71.4514
 43
-694.8179984803106
 44
473.0759303865142
 45
5.04133577148894
 46
1.935182980259715
 79
     2
 49
0.3824411400000001
 49
-4.206852672
 53
37.5
 43
-695.7164518783106
 44
472.3772400225142
 45
0.072959131903744
 46
1.997363122987869
 79
     6
 49
0.0
 49
-3.912
 49
0.0
 49
-4.02
 49
0.0
 49
-3.975000000000001
 53
7.5
 43
-695.7164518783106
 44
472.3772400225142
 45
1.578417224652892
 46
2.366470271294162
 79
     6
 49
0.0
 49
-2.292
 49
0.0
 49
-3.822000000000001
 49
0.0
 49
-1.515
 53
327.5
 43
-697.0544518783106
 44
472.3772400225142
 45
3.202934617034455
 46
-0.1353292304062788
 79
     6
 49
0.0
 49
-1.5
 49
0.0
 49
-4.680000000000001
 49
0.0
 49
-6.210000000000001
 53
317.5
 43
-697.6544518783106
 44
472.3772400225142
 45
3.499117016054318
 46
0.6006298939939059
 79
     6
 49
0.0
 49
-1.95
 49
0.0
 49
-3.108
 49
0.0
 49
-4.41
 98
        0
  0
TEXT
  5
18D
330
B7
100
AcDbEntity
  8
Folie _ 3
  6
Continuous
 62
     7
100
AcDbText
 10
105.3578079776478
 20
171.7947215016674
 30
0.0
 40
3.177854776382446
  1
EPDM Hochzug
 41
1.071865229477616
  7
Style0
100
AcDbText
  0
LINE
  5
18E
330
B7
100
AcDbEntity
  8
34_Gruppe
  6
Continuous
 62
     7
370
    20
100
AcDbLine
 10
157.1187737829323
 20
69.75680013673318
 30
0.0
 11
157.1187737829323
 21
149.2568001367332
 31
0.0
  0
LINE
  5
18F
330
B7
100
AcDbEntity
  8
34_Gruppe
  6
Continuous
 62
     7
370
    20
100
AcDbLine
 10
158.1187737829323
 20
69.75680013673318
 30
0.0
 11
158.1187737829323
 21
149.2568001367332
 31
0.0
  0
LINE
  5
190
330
B7
100
AcDbEntity
  8
12_Linie
 62
     7
100
AcDbLine
 10
157.1187737829323
 20
149.2568001367332
 30
0.0
 11
157.1187737829323
 21
128.7568001367333
 31
0.0
  0
LINE
  5
191
330
B7
100
AcDbEntity
  8
34_Gruppe
  6
Continuous
 62
     7
370
    20
100
AcDbLine
 10
141.4146855334202
 20
131.7568001367332
 30
0.0
 11
157.1187737829323
 21
131.7568001367332
 31
0.0
  0
HATCH
  5
192
330
B7
100
AcDbEntity
  8
34_Gruppe
  6
Continuous
 62
     7
370
    20
100
AcDbHatch
 10
0.0
 20
0.0
 30
0.0
210
0.0
220
0.0
230
1.0
  2
ANSI32
 70
     0
 71
     0
 91
        1
 92
        0
 93
        4
 72
     1
 10
157.1187737829323
 20
135.7568001367332
 11
141.9146855334202
 21
135.7568001367332
 72
     1
 10
141.9146855334202
 20
135.7568001367332
 11
141.9146855334202
 21
131.7568001367332
 72
     1
 10
141.9146855334202
 20
131.7568001367332
 11
157.1187737829323
 21
131.7568001367332
 72
     1
 10
157.1187737829323
 20
131.7568001367332
 11
157.1187737829323
 21
135.7568001367332
 97
        0
 75
     0
 76
     1
 52
0.0
 41
10.5
 77
     0
 78
     2
 53
45.0
 43
-695.7164518783106
 44
472.3772400225142
 45
-2.784232950922031
 46
2.784232950922032
 79
     0
 53
45.0
 43
-693.8602965808107
 44
472.3772400225142
 45
-2.784232950922031
 46
2.784232950922032
 79
     0
 98
        0
  0
HATCH
  5
193
330
B7
100
AcDbEntity
  8
Folie _ 3
  6
Continuous
 62
     7
370
    20
100
AcDbHatch
 10
0.0
 20
0.0
 30
0.0
210
0.0
220
0.0
230
1.0
  2
ANSI33
 70
     0
 71
     0
 91
        1
 92
        0
 93
        4
 72
     1
 10
158.1187737829323
 20
74.75680013673318
 11
158.1187737829323
 21
99.75680013673318
 72
     1
 10
158.1187737829323
 20
99.75680013673318
 11
234.91468553342
 21
99.75680013673318
 72
     1
 10
234.91468553342
 20
99.75680013673318
 11
234.91468553342
 21
74.75680013673318
 72
     1
 10
234.91468553342
 20
74.75680013673318
 11
158.1187737829323
 21
74.75680013673318
 97
        0
 75
     0
 76
     1
 52
0.0
 41
25.0
 77
     0
 78
     2
 53
45.0
 43
-695.7164518783106
 44
472.3772400225142
 45
-4.419417382415922
 46
4.419417382415921
 79
     0
 53
45.0
 43
-691.2970345033107
 44
472.3772400225142
 45
-4.419417382415922
 46
4.419417382415921
 79
     2
 49
3.125
 49
-1.5625
 98
        0
  0
POLYLINE
  5
194
330
B7
100
AcDbEntity
  8
34_Gruppe
  6
Continuous
 62
     7
370
    20
100
AcDb2dPolyline
 66
     1
 10
0.0
 20
0.0
 30
0.0
  0
VERTEX
  5
195
330
194
100
AcDbEntity
  8
34_Gruppe
  6
Continuous
 62
     7
370
    20
100
AcDbVertex
100
AcDb2dVertex
 10
158.1187737829323
 20
137.3626182511076
 30
0.0
  0
VERTEX
  5
196
330
194
100
AcDbEntity
  8
34_Gruppe
  6
Continuous
 62
     7
370
    20
100
AcDbVertex
100
AcDb2dVertex
 10
162.1128686400401
 20
137.9332032306911
 30
0.0
  0
VERTEX
  5
197
330
194
100
AcDbEntity
  8
34_Gruppe
  6
Continuous
 62
     7
370
    20
100
AcDbVertex
100
AcDb2dVertex
 10
166.5341454386516
 20
137.2530068001337
 30
0.0
  0
VERTEX
  5
198
330
194
100
AcDbEntity
  8
34_Gruppe
  6
Continuous
 62
     7
370
    20
100
AcDbVertex
100
AcDb2dVertex
 10
173.3927927801191
 20
136.8562255489747
 30
0.0
  0
VERTEX
  5
199
330
194
100
AcDbEntity
  8
34_Gruppe
  6
Continuous
 62
     7
370
    20
100
AcDbVertex
100
AcDb2dVertex
 10
177.0205070764098
 20
137.6497880512927
 30
0.0
  0
VERTEX
  5
19A
330
194
100
AcDbEntity
  8
34_Gruppe
  6
Continuous
 62
     7
370
    20
100
AcDbVertex
100
AcDb2dVertex
 10
183.5390562026101
 20
137.6497880512927
 30
0.0
  0
VERTEX
  5
19B
330
194
100
AcDbEntity
  8
34_Gruppe
  6
Continuous
 62
     7
370
    20
100
AcDbVertex
100
AcDb2dVertex
 10
187.3935026424277
 20
137.3096898360139
 30
0.0
  0
VERTEX
  5
19C
330
194
100
AcDbEntity
  8
34_Gruppe
  6
Continuous
 62
     7
370
    20
100
AcDbVertex
100
AcDb2dVertex
 10
192.4382928357498
 20
137.5931050154124
 30
0.0
  0
VERTEX
  5
19D
330
194
100
AcDbEntity
  8
34_Gruppe
  6
Continuous
 62
     7
370
    20
100
AcDbVertex
100
AcDb2dVertex
 10
196.1793732038039
 20
138.1032523383304
 30
0.0
  0
VERTEX
  5
19E
330
194
100
AcDbEntity
  8
34_Gruppe
  6
Continuous
 62
     7
370
    20
100
AcDbVertex
100
AcDb2dVertex
 10
202.131091971187
 20
137.1396407283746
 30
0.0
  0
VERTEX
  5
19F
330
194
100
AcDbEntity
  8
34_Gruppe
  6
Continuous
 62
     7
370
    20
100
AcDbVertex
100
AcDb2dVertex
 10
207.0625160927457
 20
137.5364219795336
 30
0.0
  0
VERTEX
  5
1A0
330
194
100
AcDbEntity
  8
34_Gruppe
  6
Continuous
 62
     7
370
    20
100
AcDbVertex
100
AcDb2dVertex
 10
211.7672080707542
 20
137.4797389436533
 30
0.0
  0
VERTEX
  5
1A1
330
194
100
AcDbEntity
  8
34_Gruppe
  6
Continuous
 62
     7
370
    20
100
AcDbVertex
100
AcDb2dVertex
 10
215.7350205823352
 20
137.1963237642549
 30
0.0
  0
VERTEX
  5
1A2
330
194
100
AcDbEntity
  8
34_Gruppe
  6
Continuous
 62
     7
370
    20
100
AcDbVertex
100
AcDb2dVertex
 10
218.2857571969313
 20
138.0465693024516
 30
0.0
  0
VERTEX
  5
1A3
330
194
100
AcDbEntity
  8
34_Gruppe
  6
Continuous
 62
     7
370
    20
100
AcDbVertex
100
AcDb2dVertex
 10
224.4075250719712
 20
137.819837158932
 30
0.0
  0
VERTEX
  5
1A4
330
194
100
AcDbEntity
  8
34_Gruppe
  6
Continuous
 62
     7
370
    20
100
AcDbVertex
100
AcDb2dVertex
 10
228.5453866911857
 20
137.4230559077731
 30
0.0
  0
VERTEX
  5
1A5
330
194
100
AcDbEntity
  8
34_Gruppe
  6
Continuous
 62
     7
370
    20
100
AcDbVertex
100
AcDb2dVertex
 10
232.6187737829323
 20
137.5224068124508
 30
0.0
  0
SEQEND
  5
1A6
330
194
100
AcDbEntity
  8
34_Gruppe
  6
Continuous
 62
     7
370
    20
  0
POLYLINE
  5
1A7
330
B7
100
AcDbEntity
  8
34_Gruppe
  6
Continuous
 62
     7
370
    20
100
AcDb2dPolyline
 66
     1
 10
0.0
 20
0.0
 30
0.0
  0
VERTEX
  5
1A8
330
1A7
100
AcDbEntity
  8
34_Gruppe
  6
Continuous
 62
     7
370
    20
100
AcDbVertex
100
AcDb2dVertex
 10
158.1187737829323
 20
136.5430087213308
 30
0.0
  0
VERTEX
  5
1A9
330
1A7
100
AcDbEntity
  8
34_Gruppe
  6
Continuous
 62
     7
370
    20
100
AcDbVertex
100
AcDb2dVertex
 10
162.7363820347042
 20
136.7995425130959
 30
0.0
  0
VERTEX
  5
1AA
330
1A7
100
AcDbEntity
  8
34_Gruppe
  6
Continuous
 62
     7
370
    20
100
AcDbVertex
100
AcDb2dVertex
 10
169.5950293761716
 20
136.1760291184173
 30
0.0
  0
VERTEX
  5
1AB
330
1A7
100
AcDbEntity
  8
34_Gruppe
  6
Continuous
 62
     7
370
    20
100
AcDbVertex
100
AcDb2dVertex
 10
173.7328909954094
 20
136.3460782260566
 30
0.0
  0
VERTEX
  5
1AC
330
1A7
100
AcDbEntity
  8
34_Gruppe
  6
Continuous
 62
     7
370
    20
100
AcDbVertex
100
AcDb2dVertex
 10
178.777681188685
 20
136.9695916207353
 30
0.0
  0
VERTEX
  5
1AD
330
1A7
100
AcDbEntity
  8
34_Gruppe
  6
Continuous
 62
     7
370
    20
100
AcDbVertex
100
AcDb2dVertex
 10
183.4256901308467
 20
136.516127333696
 30
0.0
  0
VERTEX
  5
1AE
330
1A7
100
AcDbEntity
  8
34_Gruppe
  6
Continuous
 62
     7
370
    20
100
AcDbVertex
100
AcDb2dVertex
 10
189.3207258623364
 20
136.4027612619369
 30
0.0
  0
VERTEX
  5
1AF
330
1A7
100
AcDbEntity
  8
34_Gruppe
  6
Continuous
 62
     7
370
    20
100
AcDbVertex
100
AcDb2dVertex
 10
193.8553687327347
 20
136.912908584855
 30
0.0
  0
VERTEX
  5
1B0
330
1A7
100
AcDbEntity
  8
34_Gruppe
  6
Continuous
 62
     7
370
    20
100
AcDbVertex
100
AcDb2dVertex
 10
198.7867928542934
 20
136.6294934054566
 30
0.0
  0
VERTEX
  5
1B1
330
1A7
100
AcDbEntity
  8
34_Gruppe
  6
Continuous
 62
     7
370
    20
100
AcDbVertex
100
AcDb2dVertex
 10
203.9449491193324
 20
136.7428594772156
 30
0.0
  0
VERTEX
  5
1B2
330
1A7
100
AcDbEntity
  8
34_Gruppe
  6
Continuous
 62
     7
370
    20
100
AcDbVertex
100
AcDb2dVertex
 10
209.4998866355783
 20
136.3460782260566
 30
0.0
  0
VERTEX
  5
1B3
330
1A7
100
AcDbEntity
  8
34_Gruppe
  6
Continuous
 62
     7
370
    20
100
AcDbVertex
100
AcDb2dVertex
 10
212.2773553936781
 20
136.912908584855
 30
0.0
  0
VERTEX
  5
1B4
330
1A7
100
AcDbEntity
  8
34_Gruppe
  6
Continuous
 62
     7
370
    20
100
AcDbVertex
100
AcDb2dVertex
 10
219.1360027351455
 20
136.4594442978172
 30
0.0
  0
VERTEX
  5
1B5
330
1A7
100
AcDbEntity
  8
34_Gruppe
  6
Continuous
 62
     7
370
    20
100
AcDbVertex
100
AcDb2dVertex
 10
222.5936679238026
 20
137.0829576924943
 30
0.0
  0
VERTEX
  5
1B6
330
1A7
100
AcDbEntity
  8
34_Gruppe
  6
Continuous
 62
     7
370
    20
100
AcDbVertex
100
AcDb2dVertex
 10
227.4684090094679
 20
136.7995425130959
 30
0.0
  0
VERTEX
  5
1B7
330
1A7
100
AcDbEntity
  8
34_Gruppe
  6
Continuous
 62
     7
370
    20
100
AcDbVertex
100
AcDb2dVertex
 10
232.6187737829323
 20
136.5566007784981
 30
0.0
  0
SEQEND
  5
1B8
330
1A7
100
AcDbEntity
  8
34_Gruppe
  6
Continuous
 62
     7
370
    20
  0
LINE
  5
1B9
330
B7
100
AcDbEntity
  8
34_Gruppe
  6
Continuous
 62
     7
370
    20
100
AcDbLine
 10
196.808373773777
 20
135.3632001497031
 30
0.0
 11
196.8660264887652
 21
130.7568001367332
 31
0.0
  0
LINE
  5
1BA
330
B7
100
AcDbEntity
  8
34_Gruppe
  6
Continuous
 62
     7
370
    20
100
AcDbLine
 10
189.2835737861033
 20
134.9823994256736
 30
0.0
 11
189.3603559386722
 21
130.7568001367332
 31
0.0
  0
LINE
  5
1BB
330
B7
100
AcDbEntity
  8
34_Gruppe
  6
Continuous
 62
     7
370
    20
100
AcDbLine
 10
190.6171737558479
 20
133.9360003091575
 30
0.0
 11
190.712373817646
 21
131.8400001146079
 31
0.0
  0
LINE
  5
1BC
330
B7
100
AcDbEntity
  8
34_Gruppe
  6
Continuous
 62
     7
370
    20
100
AcDbLine
 10
189.8547737843628
 20
135.7567991830574
 30
0.0
 11
190.0451737887497
 21
131.6471993543388
 31
0.0
  0
LINE
  5
1BD
330
B7
100
AcDbEntity
  8
34_Gruppe
  6
Continuous
 62
     7
370
    20
100
AcDbLine
 10
191.1883738882179
 20
135.3647994615318
 30
0.0
 11
191.2835729963417
 21
133.3640002824546
 31
0.0
  0
LINE
  5
1BE
330
B7
100
AcDbEntity
  8
34_Gruppe
  6
Continuous
 62
     7
370
    20
100
AcDbLine
 10
192.6171737558479
 20
135.2696003534065
 30
0.0
 11
192.845913306418
 21
130.7568001367332
 31
0.0
  0
LINE
  5
1BF
330
B7
100
AcDbEntity
  8
34_Gruppe
  6
Continuous
 62
     7
370
    20
100
AcDbLine
 10
190.2363737470741
 20
132.2200002290503
 30
0.0
 11
190.3553358376064
 21
130.7568001367332
 31
0.0
  0
LINE
  5
1C0
330
B7
100
AcDbEntity
  8
34_Gruppe
  6
Continuous
 62
     7
370
    20
100
AcDbLine
 10
193.3795731908913
 20
135.7567991830603
 30
0.0
 11
193.5699737913246
 21
133.4592003442527
 31
0.0
  0
LINE
  5
1C1
330
B7
100
AcDbEntity
  8
34_Gruppe
  6
Continuous
 62
     7
370
    20
100
AcDbLine
 10
189.3787737733956
 20
135.7567991830574
 30
0.0
 11
189.473973775589
 21
134.6951994516121
 31
0.0
  0
LINE
  5
1C2
330
B7
100
AcDbEntity
  8
34_Gruppe
  6
Continuous
 62
     7
370
    20
100
AcDbLine
 10
194.5219739324684
 20
133.9360003091575
 30
0.0
 11
194.7131727583046
 21
131.935200176406
 31
0.0
  0
LINE
  5
1C3
330
B7
100
AcDbEntity
  8
34_Gruppe
  6
Continuous
 62
     7
370
    20
100
AcDbLine
 10
191.3787737733956
 20
131.6496002294303
 30
0.0
 11
191.5008136789818
 21
130.7568001367332
 31
0.0
  0
LINE
  5
1C4
330
B7
100
AcDbEntity
  8
34_Gruppe
  6
Continuous
 62
     7
370
    20
100
AcDbLine
 10
194.808373773777
 20
134.5072002031089
 30
0.0
 11
195.3666437168644
 21
130.7568001367332
 31
0.0
  0
LINE
  5
1C5
330
B7
100
AcDbEntity
  8
34_Gruppe
  6
Continuous
 62
     7
370
    20
100
AcDbLine
 10
196.1419738180275
 20
131.7447993375526
 30
0.0
 11
196.3300885953513
 21
130.7568001367332
 31
0.0
  0
LINE
  5
1C6
330
B7
100
AcDbEntity
  8
34_Gruppe
  6
Continuous
 62
     7
370
    20
100
AcDbLine
 10
191.5691738969917
 20
132.9831995584236
 30
0.0
 11
192.0459738618965
 21
130.7928001500846
 31
0.0
  0
LINE
  5
1C7
330
B7
100
AcDbEntity
  8
34_Gruppe
  6
Continuous
 62
     7
370
    20
100
AcDbLine
 10
195.5699737913246
 20
132.5072002031089
 30
0.0
 11
196.0078800412399
 21
130.7568001367332
 31
0.0
  0
LINE
  5
1C8
330
B7
100
AcDbEntity
  8
34_Gruppe
  6
Continuous
 62
     7
370
    20
100
AcDbLine
 10
193.8555739767189
 20
132.410400352645
 30
0.0
 11
194.7131727583046
 21
130.7912001229988
 31
0.0
  0
LINE
  5
1C9
330
B7
100
AcDbEntity
  8
34_Gruppe
  6
Continuous
 62
     7
370
    20
100
AcDbLine
 10
189.7595737821694
 20
131.0760001756431
 30
0.0
 11
190.0451737887497
 21
131.6471993543388
 31
0.0
  0
LINE
  5
1CA
330
B7
100
AcDbEntity
  8
34_Gruppe
  6
Continuous
 62
     7
370
    20
100
AcDbLine
 10
192.0349040899464
 20
130.7568001367332
 30
0.0
 11
192.0459738618965
 21
130.7928001500846
 31
0.0
  0
LINE
  5
1CB
330
B7
100
AcDbEntity
  8
34_Gruppe
  6
Continuous
 62
     7
370
    20
100
AcDbLine
 10
194.808373773777
 20
134.5072002031089
 30
0.0
 11
195.1891740209694
 21
135.7567991830574
 31
0.0
  0
LINE
  5
1CC
330
B7
100
AcDbEntity
  8
34_Gruppe
  6
Continuous
 62
     7
370
    20
100
AcDbLine
 10
194.7066881873916
 20
130.7568001367332
 30
0.0
 11
194.7131727583046
 21
130.7912001229988
 31
0.0
  0
LINE
  5
1CD
330
B7
100
AcDbEntity
  8
34_Gruppe
  6
Continuous
 62
     7
370
    20
100
AcDbLine
 10
191.3787737733956
 20
131.6496002294303
 30
0.0
 11
191.5691738969917
 21
132.9831995584236
 31
0.0
  0
LINE
  5
1CE
330
B7
100
AcDbEntity
  8
34_Gruppe
  6
Continuous
 62
     7
370
    20
100
AcDbLine
 10
195.5699737913246
 20
132.5072002031089
 30
0.0
 11
195.8555739767189
 21
134.6976003267037
 31
0.0
  0
LINE
  5
1CF
330
B7
100
AcDbEntity
  8
34_Gruppe
  6
Continuous
 62
     7
370
    20
100
AcDbLine
 10
193.7139217414466
 20
130.7568001367332
 30
0.0
 11
193.7603739149208
 21
131.1736001588599
 31
0.0
  0
LINE
  5
1D0
330
B7
100
AcDbEntity
  8
34_Gruppe
  6
Continuous
 62
     7
370
    20
100
AcDbLine
 10
190.7613058737983
 20
130.7568001367332
 30
0.0
 11
190.8075737602348
 21
131.1736001588599
 31
0.0
  0
LINE
  5
1D1
330
B7
100
AcDbEntity
  8
34_Gruppe
  6
Continuous
 62
     7
370
    20
100
AcDbLine
 10
191.5691738969917
 20
132.9831995584265
 30
0.0
 11
191.7603729612465
 21
135.7567991830603
 31
0.0
  0
LINE
  5
1D2
330
B7
100
AcDbEntity
  8
34_Gruppe
  6
Continuous
 62
     7
370
    20
100
AcDbLine
 10
193.8555739767189
 20
132.410400352645
 30
0.0
 11
194.0459731466408
 21
135.7567991830603
 31
0.0
  0
LINE
  5
1D3
330
B7
100
AcDbEntity
  8
34_Gruppe
  6
Continuous
 62
     7
370
    20
100
AcDbLine
 10
196.1419738180275
 20
131.7447993375526
 30
0.0
 11
196.3323739416237
 21
135.7567991830603
 31
0.0
  0
LINE
  5
1D4
330
B7
100
AcDbEntity
  8
34_Gruppe
  6
Continuous
 62
     7
370
    20
100
AcDbLine
 10
190.2363737470741
 20
132.2200002290474
 30
0.0
 11
190.3315738088722
 21
135.7567991830574
 31
0.0
  0
LINE
  5
1D5
330
B7
100
AcDbEntity
  8
Folie _ 3
  6
Continuous
 62
     7
370
    20
100
AcDbLine
 10
84.91468553342003
 20
114.7568001367332
 30
0.0
 11
90.51468561686653
 21
128.7568001367333
 31
0.0
  0
LINE
  5
1D6
330
B7
100
AcDbEntity
  8
Folie _ 3
  6
Continuous
 62
     7
370
    20
100
AcDbLine
 10
90.51468561686653
 20
128.7568001367333
 30
0.0
 11
96.11468570031303
 21
114.7568001367332
 31
0.0
  0
LINE
  5
1D7
330
B7
100
AcDbEntity
  8
Folie _ 3
  6
Continuous
 62
     7
370
    20
100
AcDbLine
 10
96.11468570031303
 20
114.7568001367332
 30
0.0
 11
101.7146857837595
 21
128.7568001367333
 31
0.0
  0
LINE
  5
1D8
330
B7
100
AcDbEntity
  8
Folie _ 3
  6
Continuous
 62
     7
370
    20
100
AcDbLine
 10
101.7146857837595
 20
128.7568001367333
 30
0.0
 11
107.3146858672059
 21
114.7568001367332
 31
0.0
  0
LINE
  5
1D9
330
B7
100
AcDbEntity
  8
Folie _ 3
  6
Continuous
 62
     7
370
    20
100
AcDbLine
 10
107.3146858672059
 20
114.7568001367332
 30
0.0
 11
112.9146859506525
 21
128.7568001367333
 31
0.0
  0
LINE
  5
1DA
330
B7
100
AcDbEntity
  8
Folie _ 3
  6
Continuous
 62
     7
370
    20
100
AcDbLine
 10
112.9146859506525
 20
128.7568001367333
 30
0.0
 11
118.5146860340989
 21
114.7568001367332
 31
0.0
  0
LINE
  5
1DB
330
B7
100
AcDbEntity
  8
Folie _ 3
  6
Continuous
 62
     7
370
    20
100
AcDbLine
 10
118.5146860340989
 20
114.7568001367332
 30
0.0
 11
124.1146861175454
 21
128.7568001367333
 31
0.0
  0
LINE
  5
1DC
330
B7
100
AcDbEntity
  8
Folie _ 3
  6
Continuous
 62
     7
370
    20
100
AcDbLine
 10
124.1146861175454
 20
128.7568001367333
 30
0.0
 11
129.7146862009918
 21
114.7568001367332
 31
0.0
  0
LINE
  5
1DD
330
B7
100
AcDbEntity
  8
Folie _ 3
  6
Continuous
 62
     7
370
    20
100
AcDbLine
 10
129.7146862009918
 20
114.7568001367332
 30
0.0
 11
134.91468553342
 21
127.7567982740882
 31
0.0
  0
LINE
  5
1DE
330
B7
100
AcDbEntity
  8
Folie _ 3
  6
Continuous
 62
     7
370
    20
100
AcDbLine
 10
134.9146855334198
 20
114.7568001367332
 30
0.0
 11
140.5146856168663
 21
128.7568001367333
 31
0.0
  0
LINE
  5
1DF
330
B7
100
AcDbEntity
  8
Folie _ 3
  6
Continuous
 62
     7
370
    20
100
AcDbLine
 10
140.5146856168663
 20
128.7568001367333
 30
0.0
 11
146.1146857003128
 21
114.7568001367332
 31
0.0
  0
LINE
  5
1E0
330
B7
100
AcDbEntity
  8
Folie _ 3
  6
Continuous
 62
     7
370
    20
100
AcDbLine
 10
146.1146857003128
 20
114.7568001367332
 30
0.0
 11
151.7146857837593
 21
128.7568001367333
 31
0.0
  0
LINE
  5
1E1
330
B7
100
AcDbEntity
  8
Folie _ 3
  6
Continuous
 62
     7
370
    20
100
AcDbLine
 10
151.7146857837593
 20
128.7568001367333
 30
0.0
 11
157.1187737829323
 21
115.2465803401188
 31
0.0
  0
LINE
  5
1E2
330
B7
100
AcDbEntity
  8
Folie _ 3
  6
Continuous
 62
     7
370
    20
100
AcDbLine
 10
158.1187737829323
 20
116.7670198960947
 30
0.0
 11
162.9146859506524
 21
128.7568001367333
 31
0.0
  0
LINE
  5
1E3
330
B7
100
AcDbEntity
  8
Folie _ 3
  6
Continuous
 62
     7
370
    20
100
AcDbLine
 10
162.9146859506524
 20
128.7568001367333
 30
0.0
 11
168.5146860340989
 21
114.7568001367332
 31
0.0
  0
LINE
  5
1E4
330
B7
100
AcDbEntity
  8
Folie _ 3
  6
Continuous
 62
     7
370
    20
100
AcDbLine
 10
168.5146860340989
 20
114.7568001367332
 30
0.0
 11
174.1146861175454
 21
128.7568001367333
 31
0.0
  0
LINE
  5
1E5
330
B7
100
AcDbEntity
  8
Folie _ 3
  6
Continuous
 62
     7
370
    20
100
AcDbLine
 10
174.1146861175454
 20
128.7568001367333
 30
0.0
 11
179.7146862009919
 21
114.7568001367332
 31
0.0
  0
LINE
  5
1E6
330
B7
100
AcDbEntity
  8
Folie _ 3
  6
Continuous
 62
     7
370
    20
100
AcDbLine
 10
179.7146862009919
 20
114.7568001367332
 30
0.0
 11
185.3146862844384
 21
128.7568001367333
 31
0.0
  0
LINE
  5
1E7
330
B7
100
AcDbEntity
  8
Folie _ 3
  6
Continuous
 62
     7
370
    20
100
AcDbLine
 10
185.3146862844384
 20
128.7568001367333
 30
0.0
 11
190.9146863678849
 21
114.7568001367332
 31
0.0
  0
LINE
  5
1E8
330
B7
100
AcDbEntity
  8
Folie _ 3
  6
Continuous
 62
     7
370
    20
100
AcDbLine
 10
190.9146863678849
 20
114.7568001367332
 30
0.0
 11
196.5146864513314
 21
128.7568001367333
 31
0.0
  0
LINE
  5
1E9
330
B7
100
AcDbEntity
  8
Folie _ 3
  6
Continuous
 62
     7
370
    20
100
AcDbLine
 10
196.5146864513314
 20
128.7568001367333
 30
0.0
 11
202.1146865347779
 21
114.7568001367332
 31
0.0
  0
LINE
  5
1EA
330
B7
100
AcDbEntity
  8
Folie _ 3
  6
Continuous
 62
     7
370
    20
100
AcDbLine
 10
202.1146865347779
 20
114.7568001367332
 30
0.0
 11
207.7146866182244
 21
128.7568001367333
 31
0.0
  0
LINE
  5
1EB
330
B7
100
AcDbEntity
  8
Folie _ 3
  6
Continuous
 62
     7
370
    20
100
AcDbLine
 10
207.7146866182244
 20
128.7568001367333
 30
0.0
 11
213.3146867016709
 21
114.7568001367332
 31
0.0
  0
LINE
  5
1EC
330
B7
100
AcDbEntity
  8
Folie _ 3
  6
Continuous
 62
     7
370
    20
100
AcDbLine
 10
213.3146867016709
 20
114.7568001367332
 30
0.0
 11
218.9146867851174
 21
128.7568001367333
 31
0.0
  0
LINE
  5
1ED
330
B7
100
AcDbEntity
  8
Folie _ 3
  6
Continuous
 62
     7
370
    20
100
AcDbLine
 10
218.9146867851174
 20
128.7568001367333
 30
0.0
 11
224.5146868685639
 21
114.7568001367332
 31
0.0
  0
LINE
  5
1EE
330
B7
100
AcDbEntity
  8
Folie _ 3
  6
Continuous
 62
     7
370
    20
100
AcDbLine
 10
224.5146868685639
 20
114.7568001367332
 30
0.0
 11
230.1146869520104
 21
128.7568001367333
 31
0.0
  0
LINE
  5
1EF
330
B7
100
AcDbEntity
  8
Folie _ 3
  6
Continuous
 62
     7
370
    20
100
AcDbLine
 10
230.1146869520104
 20
128.7568001367333
 30
0.0
 11
234.91468553342
 21
116.7568038620231
 31
0.0
  0
LINE
  5
1F0
330
B7
100
AcDbEntity
  8
Folie _ 3
  6
Continuous
 62
     7
370
    20
100
AcDbLine
 10
84.91468553342003
 20
100.7568001367333
 30
0.0
 11
90.51468561686653
 21
114.7568001367332
 31
0.0
  0
LINE
  5
1F1
330
B7
100
AcDbEntity
  8
Folie _ 3
  6
Continuous
 62
     7
370
    20
100
AcDbLine
 10
90.51468561686653
 20
114.7568001367332
 30
0.0
 11
96.11468570031303
 21
100.7568001367333
 31
0.0
  0
LINE
  5
1F2
330
B7
100
AcDbEntity
  8
Folie _ 3
  6
Continuous
 62
     7
370
    20
100
AcDbLine
 10
96.11468570031303
 20
100.7568001367333
 30
0.0
 11
101.7146857837595
 21
114.7568001367332
 31
0.0
  0
LINE
  5
1F3
330
B7
100
AcDbEntity
  8
Folie _ 3
  6
Continuous
 62
     7
370
    20
100
AcDbLine
 10
101.7146857837595
 20
114.7568001367332
 30
0.0
 11
107.3146858672059
 21
100.7568001367333
 31
0.0
  0
LINE
  5
1F4
330
B7
100
AcDbEntity
  8
Folie _ 3
  6
Continuous
 62
     7
370
    20
100
AcDbLine
 10
107.3146858672059
 20
100.7568001367333
 30
0.0
 11
112.9146859506525
 21
114.7568001367332
 31
0.0
  0
LINE
  5
1F5
330
B7
100
AcDbEntity
  8
Folie _ 3
  6
Continuous
 62
     7
370
    20
100
AcDbLine
 10
112.9146859506525
 20
114.7568001367332
 30
0.0
 11
118.5146860340989
 21
100.7568001367333
 31
0.0
  0
LINE
  5
1F6
330
B7
100
AcDbEntity
  8
Folie _ 3
  6
Continuous
 62
     7
370
    20
100
AcDbLine
 10
118.5146860340989
 20
100.7568001367333
 30
0.0
 11
124.1146861175454
 21
114.7568001367332
 31
0.0
  0
LINE
  5
1F7
330
B7
100
AcDbEntity
  8
Folie _ 3
  6
Continuous
 62
     7
370
    20
100
AcDbLine
 10
124.1146861175454
 20
114.7568001367332
 30
0.0
 11
129.7146862009918
 21
100.7568001367333
 31
0.0
  0
LINE
  5
1F8
330
B7
100
AcDbEntity
  8
Folie _ 3
  6
Continuous
 62
     7
370
    20
100
AcDbLine
 10
129.7146862009918
 20
100.7568001367333
 30
0.0
 11
135.3146862844384
 21
114.7568001367332
 31
0.0
  0
LINE
  5
1F9
330
B7
100
AcDbEntity
  8
Folie _ 3
  6
Continuous
 62
     7
370
    20
100
AcDbLine
 10
135.3146862844384
 20
114.7568001367332
 30
0.0
 11
140.9146863678849
 21
100.7568001367333
 31
0.0
  0
LINE
  5
1FA
330
B7
100
AcDbEntity
  8
Folie _ 3
  6
Continuous
 62
     7
370
    20
100
AcDbLine
 10
140.9146863678849
 20
100.7568001367333
 30
0.0
 11
146.5146864513314
 21
114.7568001367332
 31
0.0
  0
LINE
  5
1FB
330
B7
100
AcDbEntity
  8
Folie _ 3
  6
Continuous
 62
     7
370
    20
100
AcDbLine
 10
146.5146864513314
 20
114.7568001367332
 30
0.0
 11
152.1146865347779
 21
100.7568001367333
 31
0.0
  0
LINE
  5
1FC
330
B7
100
AcDbEntity
  8
Folie _ 3
  6
Continuous
 62
     7
370
    20
100
AcDbLine
 10
152.1146865347779
 20
100.7568001367333
 30
0.0
 11
157.1187737829323
 21
113.2670180707025
 31
0.0
  0
LINE
  5
1FD
330
B7
100
AcDbEntity
  8
Folie _ 3
  6
Continuous
 62
     7
370
    20
100
AcDbLine
 10
158.1187737829323
 20
113.7465822400168
 30
0.0
 11
163.3146867016709
 21
100.7568001367333
 31
0.0
  0
LINE
  5
1FE
330
B7
100
AcDbEntity
  8
Folie _ 3
  6
Continuous
 62
     7
370
    20
100
AcDbLine
 10
163.3146867016709
 20
100.7568001367333
 30
0.0
 11
168.9146867851174
 21
114.7568001367332
 31
0.0
  0
LINE
  5
1FF
330
B7
100
AcDbEntity
  8
Folie _ 3
  6
Continuous
 62
     7
370
    20
100
AcDbLine
 10
168.9146867851174
 20
114.7568001367332
 30
0.0
 11
174.5146868685639
 21
100.7568001367333
 31
0.0
  0
LINE
  5
200
330
B7
100
AcDbEntity
  8
Folie _ 3
  6
Continuous
 62
     7
370
    20
100
AcDbLine
 10
174.5146868685639
 20
100.7568001367333
 30
0.0
 11
180.1146869520104
 21
114.7568001367332
 31
0.0
  0
LINE
  5
201
330
B7
100
AcDbEntity
  8
Folie _ 3
  6
Continuous
 62
     7
370
    20
100
AcDbLine
 10
180.1146869520104
 20
114.7568001367332
 30
0.0
 11
184.91468553342
 21
102.7568038620233
 31
0.0
  0
LINE
  5
202
330
B7
100
AcDbEntity
  8
Folie _ 3
  6
Continuous
 62
     7
370
    20
100
AcDbLine
 10
184.91468553342
 20
100.7568001367333
 30
0.0
 11
190.5146856168665
 21
114.7568001367332
 31
0.0
  0
LINE
  5
203
330
B7
100
AcDbEntity
  8
Folie _ 3
  6
Continuous
 62
     7
370
    20
100
AcDbLine
 10
190.5146856168665
 20
114.7568001367332
 30
0.0
 11
196.114685700313
 21
100.7568001367333
 31
0.0
  0
LINE
  5
204
330
B7
100
AcDbEntity
  8
Folie _ 3
  6
Continuous
 62
     7
370
    20
100
AcDbLine
 10
196.114685700313
 20
100.7568001367333
 30
0.0
 11
201.7146857837595
 21
114.7568001367332
 31
0.0
  0
LINE
  5
205
330
B7
100
AcDbEntity
  8
Folie _ 3
  6
Continuous
 62
     7
370
    20
100
AcDbLine
 10
201.7146857837595
 20
114.7568001367332
 30
0.0
 11
207.314685867206
 21
100.7568001367333
 31
0.0
  0
LINE
  5
206
330
B7
100
AcDbEntity
  8
Folie _ 3
  6
Continuous
 62
     7
370
    20
100
AcDbLine
 10
207.314685867206
 20
100.7568001367333
 30
0.0
 11
212.9146859506524
 21
114.7568001367332
 31
0.0
  0
LINE
  5
207
330
B7
100
AcDbEntity
  8
Folie _ 3
  6
Continuous
 62
     7
370
    20
100
AcDbLine
 10
212.9146859506524
 20
114.7568001367332
 30
0.0
 11
218.514686034099
 21
100.7568001367333
 31
0.0
  0
LINE
  5
208
330
B7
100
AcDbEntity
  8
Folie _ 3
  6
Continuous
 62
     7
370
    20
100
AcDbLine
 10
218.514686034099
 20
100.7568001367333
 30
0.0
 11
224.1146861175454
 21
114.7568001367332
 31
0.0
  0
LINE
  5
209
330
B7
100
AcDbEntity
  8
Folie _ 3
  6
Continuous
 62
     7
370
    20
100
AcDbLine
 10
224.1146861175454
 20
114.7568001367332
 30
0.0
 11
229.714686200992
 21
100.7568001367333
 31
0.0
  0
LINE
  5
20A
330
B7
100
AcDbEntity
  8
Folie _ 3
  6
Continuous
 62
     7
370
    20
100
AcDbLine
 10
229.714686200992
 20
100.7568001367333
 30
0.0
 11
234.91468553342
 21
113.7567982740882
 31
0.0
  0
ARC
  5
20B
330
B7
100
AcDbEntity
  8
Folie _ 3
  6
Continuous
 62
     7
370
    20
100
AcDbCircle
 10
84.9146855334202
 20
130.423466823268
 30
0.0
 40
0.3333288181230383
100
AcDbArc
 50
30.00044020598454
 51
90.00000000001172
  0
LINE
  5
20C
330
B7
100
AcDbEntity
  8
Folie _ 3
  6
Continuous
 62
     7
370
    20
100
AcDbLine
 10
85.20336048401987
 20
130.5901334501983
 30
0.0
 11
85.62601058282053
 21
129.9234668381692
 31
0.0
  0
ARC
  5
20D
330
B7
100
AcDbEntity
  8
Folie _ 3
  6
Continuous
 62
     7
370
    20
100
AcDbCircle
 10
85.9146855334202
 20
130.0901334501983
 30
0.0
 40
0.3333331466701038
100
AcDbArc
 50
210.0000076799411
 51
270.0
  0
ARC
  5
20E
330
B7
100
AcDbEntity
  8
Folie _ 3
  6
Continuous
 62
     7
370
    20
100
AcDbCircle
 10
85.9146855334202
 20
130.0901334501983
 30
0.0
 40
0.3333333134651184
100
AcDbArc
 50
270.0
 51
329.9999974427038
  0
LINE
  5
20F
330
B7
100
AcDbEntity
  8
Folie _ 3
  6
Continuous
 62
     7
370
    20
100
AcDbLine
 10
86.20336054362451
 20
129.9234668381692
 30
0.0
 11
86.62601052321588
 21
130.5901334501983
 31
0.0
  0
ARC
  5
210
330
B7
100
AcDbEntity
  8
Folie _ 3
  6
Continuous
 62
     7
370
    20
100
AcDbCircle
 10
86.9146855334202
 20
130.423466823268
 30
0.0
 40
0.3333288181230383
100
AcDbArc
 50
30.00044020598454
 51
149.9999952245361
  0
LINE
  5
211
330
B7
100
AcDbEntity
  8
Folie _ 3
  6
Continuous
 62
     7
370
    20
100
AcDbLine
 10
87.20336048402005
 20
130.5901334501983
 30
0.0
 11
87.62601058282053
 21
129.9234668381692
 31
0.0
  0
ARC
  5
212
330
B7
100
AcDbEntity
  8
Folie _ 3
  6
Continuous
 62
     7
370
    20
100
AcDbCircle
 10
87.91468553342038
 20
130.0901334501983
 30
0.0
 40
0.3333331466701038
100
AcDbArc
 50
210.0000076799411
 51
270.0
  0
ARC
  5
213
330
B7
100
AcDbEntity
  8
Folie _ 3
  6
Continuous
 62
     7
370
    20
100
AcDbCircle
 10
87.91468553342038
 20
130.0901334501983
 30
0.0
 40
0.3333333134651184
100
AcDbArc
 50
270.0
 51
329.9999974427038
  0
LINE
  5
214
330
B7
100
AcDbEntity
  8
Folie _ 3
  6
Continuous
 62
     7
370
    20
100
AcDbLine
 10
88.2033605436247
 20
129.9234668381692
 30
0.0
 11
88.62601052321607
 21
130.5901334501983
 31
0.0
  0
ARC
  5
215
330
B7
100
AcDbEntity
  8
Folie _ 3
  6
Continuous
 62
     7
370
    20
100
AcDbCircle
 10
88.91468553342038
 20
130.423466823268
 30
0.0
 40
0.3333288181230383
100
AcDbArc
 50
30.00044020598454
 51
149.9999952245361
  0
LINE
  5
216
330
B7
100
AcDbEntity
  8
Folie _ 3
  6
Continuous
 62
     7
370
    20
100
AcDbLine
 10
89.20336048402005
 20
130.5901334501983
 30
0.0
 11
89.62601058282071
 21
129.9234668381692
 31
0.0
  0
ARC
  5
217
330
B7
100
AcDbEntity
  8
Folie _ 3
  6
Continuous
 62
     7
370
    20
100
AcDbCircle
 10
89.91468553342038
 20
130.0901334501983
 30
0.0
 40
0.3333331466701038
100
AcDbArc
 50
210.0000076799411
 51
270.0
  0
ARC
  5
218
330
B7
100
AcDbEntity
  8
Folie _ 3
  6
Continuous
 62
     7
370
    20
100
AcDbCircle
 10
89.91468553342038
 20
130.0901334501983
 30
0.0
 40
0.3333333134651184
100
AcDbArc
 50
270.0
 51
329.9999974427038
  0
LINE
  5
219
330
B7
100
AcDbEntity
  8
Folie _ 3
  6
Continuous
 62
     7
370
    20
100
AcDbLine
 10
90.2033605436247
 20
129.9234668381692
 30
0.0
 11
90.62601052321607
 21
130.5901334501983
 31
0.0
  0
ARC
  5
21A
330
B7
100
AcDbEntity
  8
Folie _ 3
  6
Continuous
 62
     7
370
    20
100
AcDbCircle
 10
90.91468553342038
 20
130.423466823268
 30
0.0
 40
0.3333288181230383
100
AcDbArc
 50
30.00044020598454
 51
149.9999952245361
  0
LINE
  5
21B
330
B7
100
AcDbEntity
  8
Folie _ 3
  6
Continuous
 62
     7
370
    20
100
AcDbLine
 10
91.20336048402005
 20
130.5901334501983
 30
0.0
 11
91.62601058282071
 21
129.9234668381692
 31
0.0
  0
ARC
  5
21C
330
B7
100
AcDbEntity
  8
Folie _ 3
  6
Continuous
 62
     7
370
    20
100
AcDbCircle
 10
91.91468553342038
 20
130.0901334501983
 30
0.0
 40
0.3333331466701038
100
AcDbArc
 50
210.0000076799411
 51
270.0
  0
ARC
  5
21D
330
B7
100
AcDbEntity
  8
Folie _ 3
  6
Continuous
 62
     7
370
    20
100
AcDbCircle
 10
91.91468553342038
 20
130.0901334501983
 30
0.0
 40
0.3333333134651184
100
AcDbArc
 50
270.0
 51
329.9999974427038
  0
LINE
  5
21E
330
B7
100
AcDbEntity
  8
Folie _ 3
  6
Continuous
 62
     7
370
    20
100
AcDbLine
 10
92.2033605436247
 20
129.9234668381692
 30
0.0
 11
92.62601052321607
 21
130.5901334501983
 31
0.0
  0
ARC
  5
21F
330
B7
100
AcDbEntity
  8
Folie _ 3
  6
Continuous
 62
     7
370
    20
100
AcDbCircle
 10
92.91468553342038
 20
130.423466823268
 30
0.0
 40
0.3333288181230383
100
AcDbArc
 50
30.00044020598454
 51
149.9999952245361
  0
LINE
  5
220
330
B7
100
AcDbEntity
  8
Folie _ 3
  6
Continuous
 62
     7
370
    20
100
AcDbLine
 10
93.20336048402005
 20
130.5901334501983
 30
0.0
 11
93.62601058282071
 21
129.9234668381692
 31
0.0
  0
ARC
  5
221
330
B7
100
AcDbEntity
  8
Folie _ 3
  6
Continuous
 62
     7
370
    20
100
AcDbCircle
 10
93.91468553342038
 20
130.0901334501983
 30
0.0
 40
0.3333331466701038
100
AcDbArc
 50
210.0000076799411
 51
270.0
  0
ARC
  5
222
330
B7
100
AcDbEntity
  8
Folie _ 3
  6
Continuous
 62
     7
370
    20
100
AcDbCircle
 10
93.91468553342038
 20
130.0901334501983
 30
0.0
 40
0.3333333134651184
100
AcDbArc
 50
270.0
 51
329.9999974427038
  0
LINE
  5
223
330
B7
100
AcDbEntity
  8
Folie _ 3
  6
Continuous
 62
     7
370
    20
100
AcDbLine
 10
94.2033605436247
 20
129.9234668381692
 30
0.0
 11
94.62601052321607
 21
130.5901334501983
 31
0.0
  0
ARC
  5
224
330
B7
100
AcDbEntity
  8
Folie _ 3
  6
Continuous
 62
     7
370
    20
100
AcDbCircle
 10
94.91468553342038
 20
130.423466823268
 30
0.0
 40
0.3333288181230383
100
AcDbArc
 50
30.00044020598454
 51
149.9999952245361
  0
LINE
  5
225
330
B7
100
AcDbEntity
  8
Folie _ 3
  6
Continuous
 62
     7
370
    20
100
AcDbLine
 10
95.20336048402005
 20
130.5901334501983
 30
0.0
 11
95.62601058282071
 21
129.9234668381692
 31
0.0
  0
ARC
  5
226
330
B7
100
AcDbEntity
  8
Folie _ 3
  6
Continuous
 62
     7
370
    20
100
AcDbCircle
 10
95.91468553342038
 20
130.0901334501983
 30
0.0
 40
0.3333331466701038
100
AcDbArc
 50
210.0000076799411
 51
270.0
  0
ARC
  5
227
330
B7
100
AcDbEntity
  8
Folie _ 3
  6
Continuous
 62
     7
370
    20
100
AcDbCircle
 10
95.91468553342038
 20
130.0901334501983
 30
0.0
 40
0.3333333134651184
100
AcDbArc
 50
270.0
 51
329.9999974427038
  0
LINE
  5
228
330
B7
100
AcDbEntity
  8
Folie _ 3
  6
Continuous
 62
     7
370
    20
100
AcDbLine
 10
96.2033605436247
 20
129.9234668381692
 30
0.0
 11
96.62601052321607
 21
130.5901334501983
 31
0.0
  0
ARC
  5
229
330
B7
100
AcDbEntity
  8
Folie _ 3
  6
Continuous
 62
     7
370
    20
100
AcDbCircle
 10
96.91468553342038
 20
130.423466823268
 30
0.0
 40
0.3333288181230383
100
AcDbArc
 50
30.00044020598454
 51
149.9999952245361
  0
LINE
  5
22A
330
B7
100
AcDbEntity
  8
Folie _ 3
  6
Continuous
 62
     7
370
    20
100
AcDbLine
 10
97.20336048402005
 20
130.5901334501983
 30
0.0
 11
97.62601058282071
 21
129.9234668381692
 31
0.0
  0
ARC
  5
22B
330
B7
100
AcDbEntity
  8
Folie _ 3
  6
Continuous
 62
     7
370
    20
100
AcDbCircle
 10
97.91468553342038
 20
130.0901334501983
 30
0.0
 40
0.3333331466701038
100
AcDbArc
 50
210.0000076799411
 51
270.0
  0
ARC
  5
22C
330
B7
100
AcDbEntity
  8
Folie _ 3
  6
Continuous
 62
     7
370
    20
100
AcDbCircle
 10
97.91468553342038
 20
130.0901334501983
 30
0.0
 40
0.3333333134651184
100
AcDbArc
 50
270.0
 51
329.9999974427038
  0
LINE
  5
22D
330
B7
100
AcDbEntity
  8
Folie _ 3
  6
Continuous
 62
     7
370
    20
100
AcDbLine
 10
98.2033605436247
 20
129.9234668381692
 30
0.0
 11
98.62601052321607
 21
130.5901334501983
 31
0.0
  0
ARC
  5
22E
330
B7
100
AcDbEntity
  8
Folie _ 3
  6
Continuous
 62
     7
370
    20
100
AcDbCircle
 10
98.91468553342038
 20
130.423466823268
 30
0.0
 40
0.3333288181230383
100
AcDbArc
 50
30.00044020598454
 51
149.9999952245361
  0
LINE
  5
22F
330
B7
100
AcDbEntity
  8
Folie _ 3
  6
Continuous
 62
     7
370
    20
100
AcDbLine
 10
99.20336048402005
 20
130.5901334501983
 30
0.0
 11
99.62601058282071
 21
129.9234668381692
 31
0.0
  0
ARC
  5
230
330
B7
100
AcDbEntity
  8
Folie _ 3
  6
Continuous
 62
     7
370
    20
100
AcDbCircle
 10
99.91468553342038
 20
130.0901334501983
 30
0.0
 40
0.3333331466701038
100
AcDbArc
 50
210.0000076799411
 51
270.0
  0
ARC
  5
231
330
B7
100
AcDbEntity
  8
Folie _ 3
  6
Continuous
 62
     7
370
    20
100
AcDbCircle
 10
99.91468553342038
 20
130.0901334501983
 30
0.0
 40
0.3333333134651184
100
AcDbArc
 50
270.0
 51
329.9999974427038
  0
LINE
  5
232
330
B7
100
AcDbEntity
  8
Folie _ 3
  6
Continuous
 62
     7
370
    20
100
AcDbLine
 10
100.2033605436247
 20
129.9234668381692
 30
0.0
 11
100.6260105232161
 21
130.5901334501983
 31
0.0
  0
ARC
  5
233
330
B7
100
AcDbEntity
  8
Folie _ 3
  6
Continuous
 62
     7
370
    20
100
AcDbCircle
 10
100.9146855334204
 20
130.423466823268
 30
0.0
 40
0.3333288181230383
100
AcDbArc
 50
30.00044020598454
 51
149.9999952245361
  0
LINE
  5
234
330
B7
100
AcDbEntity
  8
Folie _ 3
  6
Continuous
 62
     7
370
    20
100
AcDbLine
 10
101.2033604840201
 20
130.5901334501983
 30
0.0
 11
101.6260105828207
 21
129.9234668381692
 31
0.0
  0
ARC
  5
235
330
B7
100
AcDbEntity
  8
Folie _ 3
  6
Continuous
 62
     7
370
    20
100
AcDbCircle
 10
101.9146855334204
 20
130.0901334501983
 30
0.0
 40
0.3333331466701038
100
AcDbArc
 50
210.0000076799411
 51
270.0
  0
ARC
  5
236
330
B7
100
AcDbEntity
  8
Folie _ 3
  6
Continuous
 62
     7
370
    20
100
AcDbCircle
 10
101.9146855334204
 20
130.0901334501983
 30
0.0
 40
0.3333333134651184
100
AcDbArc
 50
270.0
 51
329.9999974427038
  0
LINE
  5
237
330
B7
100
AcDbEntity
  8
Folie _ 3
  6
Continuous
 62
     7
370
    20
100
AcDbLine
 10
102.2033605436247
 20
129.9234668381692
 30
0.0
 11
102.6260105232161
 21
130.5901334501983
 31
0.0
  0
ARC
  5
238
330
B7
100
AcDbEntity
  8
Folie _ 3
  6
Continuous
 62
     7
370
    20
100
AcDbCircle
 10
102.9146855334204
 20
130.423466823268
 30
0.0
 40
0.3333288181230383
100
AcDbArc
 50
30.00044020598454
 51
149.9999952245361
  0
LINE
  5
239
330
B7
100
AcDbEntity
  8
Folie _ 3
  6
Continuous
 62
     7
370
    20
100
AcDbLine
 10
103.2033604840201
 20
130.5901334501983
 30
0.0
 11
103.6260105828207
 21
129.9234668381692
 31
0.0
  0
ARC
  5
23A
330
B7
100
AcDbEntity
  8
Folie _ 3
  6
Continuous
 62
     7
370
    20
100
AcDbCircle
 10
103.9146855334204
 20
130.0901334501983
 30
0.0
 40
0.3333331466701038
100
AcDbArc
 50
210.0000076799411
 51
270.0
  0
ARC
  5
23B
330
B7
100
AcDbEntity
  8
Folie _ 3
  6
Continuous
 62
     7
370
    20
100
AcDbCircle
 10
103.9146855334204
 20
130.0901334501983
 30
0.0
 40
0.3333333134651184
100
AcDbArc
 50
270.0
 51
329.9999974427038
  0
LINE
  5
23C
330
B7
100
AcDbEntity
  8
Folie _ 3
  6
Continuous
 62
     7
370
    20
100
AcDbLine
 10
104.2033605436247
 20
129.9234668381692
 30
0.0
 11
104.6260105232161
 21
130.5901334501983
 31
0.0
  0
ARC
  5
23D
330
B7
100
AcDbEntity
  8
Folie _ 3
  6
Continuous
 62
     7
370
    20
100
AcDbCircle
 10
104.9146855334206
 20
130.423466823268
 30
0.0
 40
0.3333288181230383
100
AcDbArc
 50
30.00044020598454
 51
149.9999952245361
  0
LINE
  5
23E
330
B7
100
AcDbEntity
  8
Folie _ 3
  6
Continuous
 62
     7
370
    20
100
AcDbLine
 10
105.2033604840202
 20
130.5901334501983
 30
0.0
 11
105.6260105828209
 21
129.9234668381692
 31
0.0
  0
ARC
  5
23F
330
B7
100
AcDbEntity
  8
Folie _ 3
  6
Continuous
 62
     7
370
    20
100
AcDbCircle
 10
105.9146855334206
 20
130.0901334501983
 30
0.0
 40
0.3333331466701038
100
AcDbArc
 50
210.0000076799411
 51
270.0
  0
ARC
  5
240
330
B7
100
AcDbEntity
  8
Folie _ 3
  6
Continuous
 62
     7
370
    20
100
AcDbCircle
 10
105.9146855334206
 20
130.0901334501983
 30
0.0
 40
0.3333333134651184
100
AcDbArc
 50
270.0
 51
329.9999974427038
  0
LINE
  5
241
330
B7
100
AcDbEntity
  8
Folie _ 3
  6
Continuous
 62
     7
370
    20
100
AcDbLine
 10
106.2033605436249
 20
129.9234668381692
 30
0.0
 11
106.6260105232163
 21
130.5901334501983
 31
0.0
  0
ARC
  5
242
330
B7
100
AcDbEntity
  8
Folie _ 3
  6
Continuous
 62
     7
370
    20
100
AcDbCircle
 10
106.9146855334206
 20
130.423466823268
 30
0.0
 40
0.3333288181230383
100
AcDbArc
 50
30.00044020598454
 51
149.9999952245361
  0
LINE
  5
243
330
B7
100
AcDbEntity
  8
Folie _ 3
  6
Continuous
 62
     7
370
    20
100
AcDbLine
 10
107.2033604840202
 20
130.5901334501983
 30
0.0
 11
107.6260105828209
 21
129.9234668381692
 31
0.0
  0
ARC
  5
244
330
B7
100
AcDbEntity
  8
Folie _ 3
  6
Continuous
 62
     7
370
    20
100
AcDbCircle
 10
107.9146855334206
 20
130.0901334501983
 30
0.0
 40
0.3333331466701038
100
AcDbArc
 50
210.0000076799411
 51
270.0
  0
ARC
  5
245
330
B7
100
AcDbEntity
  8
Folie _ 3
  6
Continuous
 62
     7
370
    20
100
AcDbCircle
 10
107.9146855334206
 20
130.0901334501983
 30
0.0
 40
0.3333333134651184
100
AcDbArc
 50
270.0
 51
329.9999974427038
  0
LINE
  5
246
330
B7
100
AcDbEntity
  8
Folie _ 3
  6
Continuous
 62
     7
370
    20
100
AcDbLine
 10
108.2033605436249
 20
129.9234668381692
 30
0.0
 11
108.6260105232163
 21
130.5901334501983
 31
0.0
  0
ARC
  5
247
330
B7
100
AcDbEntity
  8
Folie _ 3
  6
Continuous
 62
     7
370
    20
100
AcDbCircle
 10
108.9146855334206
 20
130.423466823268
 30
0.0
 40
0.3333288181230383
100
AcDbArc
 50
30.00044020598454
 51
149.9999952245361
  0
LINE
  5
248
330
B7
100
AcDbEntity
  8
Folie _ 3
  6
Continuous
 62
     7
370
    20
100
AcDbLine
 10
109.2033604840202
 20
130.5901334501983
 30
0.0
 11
109.6260105828209
 21
129.9234668381692
 31
0.0
  0
ARC
  5
249
330
B7
100
AcDbEntity
  8
Folie _ 3
  6
Continuous
 62
     7
370
    20
100
AcDbCircle
 10
109.9146855334206
 20
130.0901334501983
 30
0.0
 40
0.3333331466701038
100
AcDbArc
 50
210.0000076799411
 51
270.0
  0
ARC
  5
24A
330
B7
100
AcDbEntity
  8
Folie _ 3
  6
Continuous
 62
     7
370
    20
100
AcDbCircle
 10
109.9146855334206
 20
130.0901334501983
 30
0.0
 40
0.3333333134651184
100
AcDbArc
 50
270.0
 51
329.9999974427038
  0
LINE
  5
24B
330
B7
100
AcDbEntity
  8
Folie _ 3
  6
Continuous
 62
     7
370
    20
100
AcDbLine
 10
110.2033605436249
 20
129.9234668381692
 30
0.0
 11
110.6260105232163
 21
130.5901334501983
 31
0.0
  0
ARC
  5
24C
330
B7
100
AcDbEntity
  8
Folie _ 3
  6
Continuous
 62
     7
370
    20
100
AcDbCircle
 10
110.9146855334206
 20
130.423466823268
 30
0.0
 40
0.3333288181230383
100
AcDbArc
 50
30.00044020598454
 51
149.9999952245361
  0
LINE
  5
24D
330
B7
100
AcDbEntity
  8
Folie _ 3
  6
Continuous
 62
     7
370
    20
100
AcDbLine
 10
111.2033604840202
 20
130.5901334501983
 30
0.0
 11
111.6260105828209
 21
129.9234668381692
 31
0.0
  0
ARC
  5
24E
330
B7
100
AcDbEntity
  8
Folie _ 3
  6
Continuous
 62
     7
370
    20
100
AcDbCircle
 10
111.9146855334206
 20
130.0901334501983
 30
0.0
 40
0.3333331466701038
100
AcDbArc
 50
210.0000076799411
 51
270.0
  0
ARC
  5
24F
330
B7
100
AcDbEntity
  8
Folie _ 3
  6
Continuous
 62
     7
370
    20
100
AcDbCircle
 10
111.9146855334206
 20
130.0901334501983
 30
0.0
 40
0.3333333134651184
100
AcDbArc
 50
270.0
 51
329.9999974427038
  0
LINE
  5
250
330
B7
100
AcDbEntity
  8
Folie _ 3
  6
Continuous
 62
     7
370
    20
100
AcDbLine
 10
112.2033605436249
 20
129.9234668381692
 30
0.0
 11
112.6260105232163
 21
130.5901334501983
 31
0.0
  0
ARC
  5
251
330
B7
100
AcDbEntity
  8
Folie _ 3
  6
Continuous
 62
     7
370
    20
100
AcDbCircle
 10
112.9146855334208
 20
130.423466823268
 30
0.0
 40
0.3333288181230383
100
AcDbArc
 50
30.00044020598454
 51
149.9999952245361
  0
LINE
  5
252
330
B7
100
AcDbEntity
  8
Folie _ 3
  6
Continuous
 62
     7
370
    20
100
AcDbLine
 10
113.2033604840204
 20
130.5901334501983
 30
0.0
 11
113.6260105828211
 21
129.9234668381692
 31
0.0
  0
ARC
  5
253
330
B7
100
AcDbEntity
  8
Folie _ 3
  6
Continuous
 62
     7
370
    20
100
AcDbCircle
 10
113.9146855334208
 20
130.0901334501983
 30
0.0
 40
0.3333331466701038
100
AcDbArc
 50
210.0000076799411
 51
270.0
  0
ARC
  5
254
330
B7
100
AcDbEntity
  8
Folie _ 3
  6
Continuous
 62
     7
370
    20
100
AcDbCircle
 10
113.9146855334208
 20
130.0901334501983
 30
0.0
 40
0.3333333134651184
100
AcDbArc
 50
270.0
 51
329.9999974427038
  0
LINE
  5
255
330
B7
100
AcDbEntity
  8
Folie _ 3
  6
Continuous
 62
     7
370
    20
100
AcDbLine
 10
114.2033605436251
 20
129.9234668381692
 30
0.0
 11
114.6260105232164
 21
130.5901334501983
 31
0.0
  0
ARC
  5
256
330
B7
100
AcDbEntity
  8
Folie _ 3
  6
Continuous
 62
     7
370
    20
100
AcDbCircle
 10
114.9146855334208
 20
130.423466823268
 30
0.0
 40
0.3333288181230383
100
AcDbArc
 50
30.00044020598454
 51
149.9999952245361
  0
LINE
  5
257
330
B7
100
AcDbEntity
  8
Folie _ 3
  6
Continuous
 62
     7
370
    20
100
AcDbLine
 10
115.2033604840204
 20
130.5901334501983
 30
0.0
 11
115.6260105828211
 21
129.9234668381692
 31
0.0
  0
ARC
  5
258
330
B7
100
AcDbEntity
  8
Folie _ 3
  6
Continuous
 62
     7
370
    20
100
AcDbCircle
 10
115.9146855334208
 20
130.0901334501983
 30
0.0
 40
0.3333331466701038
100
AcDbArc
 50
210.0000076799411
 51
270.0
  0
ARC
  5
259
330
B7
100
AcDbEntity
  8
Folie _ 3
  6
Continuous
 62
     7
370
    20
100
AcDbCircle
 10
115.9146855334208
 20
130.0901334501983
 30
0.0
 40
0.3333333134651184
100
AcDbArc
 50
270.0
 51
329.9999974427038
  0
LINE
  5
25A
330
B7
100
AcDbEntity
  8
Folie _ 3
  6
Continuous
 62
     7
370
    20
100
AcDbLine
 10
116.2033605436251
 20
129.9234668381692
 30
0.0
 11
116.6260105232164
 21
130.5901334501983
 31
0.0
  0
ARC
  5
25B
330
B7
100
AcDbEntity
  8
Folie _ 3
  6
Continuous
 62
     7
370
    20
100
AcDbCircle
 10
116.9146855334208
 20
130.423466823268
 30
0.0
 40
0.3333288181230383
100
AcDbArc
 50
30.00044020598454
 51
149.9999952245361
  0
LINE
  5
25C
330
B7
100
AcDbEntity
  8
Folie _ 3
  6
Continuous
 62
     7
370
    20
100
AcDbLine
 10
117.2033604840204
 20
130.5901334501983
 30
0.0
 11
117.6260105828211
 21
129.9234668381692
 31
0.0
  0
ARC
  5
25D
330
B7
100
AcDbEntity
  8
Folie _ 3
  6
Continuous
 62
     7
370
    20
100
AcDbCircle
 10
117.9146855334208
 20
130.0901334501983
 30
0.0
 40
0.3333331466701038
100
AcDbArc
 50
210.0000076799411
 51
270.0
  0
ARC
  5
25E
330
B7
100
AcDbEntity
  8
Folie _ 3
  6
Continuous
 62
     7
370
    20
100
AcDbCircle
 10
117.9146855334208
 20
130.0901334501983
 30
0.0
 40
0.3333333134651184
100
AcDbArc
 50
270.0
 51
329.9999974427038
  0
LINE
  5
25F
330
B7
100
AcDbEntity
  8
Folie _ 3
  6
Continuous
 62
     7
370
    20
100
AcDbLine
 10
118.2033605436251
 20
129.9234668381692
 30
0.0
 11
118.6260105232164
 21
130.5901334501983
 31
0.0
  0
ARC
  5
260
330
B7
100
AcDbEntity
  8
Folie _ 3
  6
Continuous
 62
     7
370
    20
100
AcDbCircle
 10
118.9146855334208
 20
130.423466823268
 30
0.0
 40
0.3333288181230383
100
AcDbArc
 50
30.00044020598454
 51
149.9999952245361
  0
LINE
  5
261
330
B7
100
AcDbEntity
  8
Folie _ 3
  6
Continuous
 62
     7
370
    20
100
AcDbLine
 10
119.2033604840204
 20
130.5901334501983
 30
0.0
 11
119.6260105828211
 21
129.9234668381692
 31
0.0
  0
ARC
  5
262
330
B7
100
AcDbEntity
  8
Folie _ 3
  6
Continuous
 62
     7
370
    20
100
AcDbCircle
 10
119.9146855334208
 20
130.0901334501983
 30
0.0
 40
0.3333331466701038
100
AcDbArc
 50
210.0000076799411
 51
270.0
  0
ARC
  5
263
330
B7
100
AcDbEntity
  8
Folie _ 3
  6
Continuous
 62
     7
370
    20
100
AcDbCircle
 10
119.9146855334208
 20
130.0901334501983
 30
0.0
 40
0.3333333134651184
100
AcDbArc
 50
270.0
 51
329.9999974427038
  0
LINE
  5
264
330
B7
100
AcDbEntity
  8
Folie _ 3
  6
Continuous
 62
     7
370
    20
100
AcDbLine
 10
120.2033605436251
 20
129.9234668381692
 30
0.0
 11
120.6260105232164
 21
130.5901334501983
 31
0.0
  0
ARC
  5
265
330
B7
100
AcDbEntity
  8
Folie _ 3
  6
Continuous
 62
     7
370
    20
100
AcDbCircle
 10
120.9146855334208
 20
130.423466823268
 30
0.0
 40
0.3333288181230383
100
AcDbArc
 50
30.00044020598454
 51
149.9999952245361
  0
LINE
  5
266
330
B7
100
AcDbEntity
  8
Folie _ 3
  6
Continuous
 62
     7
370
    20
100
AcDbLine
 10
121.2033604840204
 20
130.5901334501983
 30
0.0
 11
121.6260105828211
 21
129.9234668381692
 31
0.0
  0
ARC
  5
267
330
B7
100
AcDbEntity
  8
Folie _ 3
  6
Continuous
 62
     7
370
    20
100
AcDbCircle
 10
121.9146855334208
 20
130.0901334501983
 30
0.0
 40
0.3333331466701038
100
AcDbArc
 50
210.0000076799411
 51
270.0
  0
ARC
  5
268
330
B7
100
AcDbEntity
  8
Folie _ 3
  6
Continuous
 62
     7
370
    20
100
AcDbCircle
 10
121.9146855334208
 20
130.0901334501983
 30
0.0
 40
0.3333333134651184
100
AcDbArc
 50
270.0
 51
329.9999974427038
  0
LINE
  5
269
330
B7
100
AcDbEntity
  8
Folie _ 3
  6
Continuous
 62
     7
370
    20
100
AcDbLine
 10
122.2033605436251
 20
129.9234668381692
 30
0.0
 11
122.6260105232164
 21
130.5901334501983
 31
0.0
  0
ARC
  5
26A
330
B7
100
AcDbEntity
  8
Folie _ 3
  6
Continuous
 62
     7
370
    20
100
AcDbCircle
 10
122.9146855334208
 20
130.423466823268
 30
0.0
 40
0.3333288181230383
100
AcDbArc
 50
30.00044020598454
 51
149.9999952245361
  0
LINE
  5
26B
330
B7
100
AcDbEntity
  8
Folie _ 3
  6
Continuous
 62
     7
370
    20
100
AcDbLine
 10
123.2033604840204
 20
130.5901334501983
 30
0.0
 11
123.6260105828211
 21
129.9234668381692
 31
0.0
  0
ARC
  5
26C
330
B7
100
AcDbEntity
  8
Folie _ 3
  6
Continuous
 62
     7
370
    20
100
AcDbCircle
 10
123.9146855334208
 20
130.0901334501983
 30
0.0
 40
0.3333331466701038
100
AcDbArc
 50
210.0000076799411
 51
270.0
  0
ARC
  5
26D
330
B7
100
AcDbEntity
  8
Folie _ 3
  6
Continuous
 62
     7
370
    20
100
AcDbCircle
 10
123.9146855334208
 20
130.0901334501983
 30
0.0
 40
0.3333333134651184
100
AcDbArc
 50
270.0
 51
329.9999974427038
  0
LINE
  5
26E
330
B7
100
AcDbEntity
  8
Folie _ 3
  6
Continuous
 62
     7
370
    20
100
AcDbLine
 10
124.2033605436251
 20
129.9234668381692
 30
0.0
 11
124.6260105232164
 21
130.5901334501983
 31
0.0
  0
ARC
  5
26F
330
B7
100
AcDbEntity
  8
Folie _ 3
  6
Continuous
 62
     7
370
    20
100
AcDbCircle
 10
124.9146855334208
 20
130.423466823268
 30
0.0
 40
0.3333288181230383
100
AcDbArc
 50
30.00044020598454
 51
149.9999952245361
  0
LINE
  5
270
330
B7
100
AcDbEntity
  8
Folie _ 3
  6
Continuous
 62
     7
370
    20
100
AcDbLine
 10
125.2033604840204
 20
130.5901334501983
 30
0.0
 11
125.6260105828211
 21
129.9234668381692
 31
0.0
  0
ARC
  5
271
330
B7
100
AcDbEntity
  8
Folie _ 3
  6
Continuous
 62
     7
370
    20
100
AcDbCircle
 10
125.9146855334208
 20
130.0901334501983
 30
0.0
 40
0.3333331466701038
100
AcDbArc
 50
210.0000076799411
 51
270.0
  0
ARC
  5
272
330
B7
100
AcDbEntity
  8
Folie _ 3
  6
Continuous
 62
     7
370
    20
100
AcDbCircle
 10
125.9146855334208
 20
130.0901334501983
 30
0.0
 40
0.3333333134651184
100
AcDbArc
 50
270.0
 51
329.9999974427038
  0
LINE
  5
273
330
B7
100
AcDbEntity
  8
Folie _ 3
  6
Continuous
 62
     7
370
    20
100
AcDbLine
 10
126.2033605436251
 20
129.9234668381692
 30
0.0
 11
126.6260105232164
 21
130.5901334501983
 31
0.0
  0
ARC
  5
274
330
B7
100
AcDbEntity
  8
Folie _ 3
  6
Continuous
 62
     7
370
    20
100
AcDbCircle
 10
126.9146855334208
 20
130.423466823268
 30
0.0
 40
0.3333288181230383
100
AcDbArc
 50
30.00044020598454
 51
149.9999952245361
  0
LINE
  5
275
330
B7
100
AcDbEntity
  8
Folie _ 3
  6
Continuous
 62
     7
370
    20
100
AcDbLine
 10
127.2033604840204
 20
130.5901334501983
 30
0.0
 11
127.6260105828211
 21
129.9234668381692
 31
0.0
  0
ARC
  5
276
330
B7
100
AcDbEntity
  8
Folie _ 3
  6
Continuous
 62
     7
370
    20
100
AcDbCircle
 10
127.9146855334208
 20
130.0901334501983
 30
0.0
 40
0.3333331466701038
100
AcDbArc
 50
210.0000076799411
 51
270.0
  0
ARC
  5
277
330
B7
100
AcDbEntity
  8
Folie _ 3
  6
Continuous
 62
     7
370
    20
100
AcDbCircle
 10
127.9146855334208
 20
130.0901334501983
 30
0.0
 40
0.3333333134651184
100
AcDbArc
 50
270.0
 51
329.9999974427038
  0
LINE
  5
278
330
B7
100
AcDbEntity
  8
Folie _ 3
  6
Continuous
 62
     7
370
    20
100
AcDbLine
 10
128.2033605436251
 20
129.9234668381692
 30
0.0
 11
128.6260105232164
 21
130.5901334501983
 31
0.0
  0
ARC
  5
279
330
B7
100
AcDbEntity
  8
Folie _ 3
  6
Continuous
 62
     7
370
    20
100
AcDbCircle
 10
128.9146855334207
 20
130.423466823268
 30
0.0
 40
0.3333288181230383
100
AcDbArc
 50
30.00044020598454
 51
149.9999952245361
  0
LINE
  5
27A
330
B7
100
AcDbEntity
  8
Folie _ 3
  6
Continuous
 62
     7
370
    20
100
AcDbLine
 10
129.2033604840204
 20
130.5901334501983
 30
0.0
 11
129.6260105828211
 21
129.9234668381692
 31
0.0
  0
ARC
  5
27B
330
B7
100
AcDbEntity
  8
Folie _ 3
  6
Continuous
 62
     7
370
    20
100
AcDbCircle
 10
129.9146855334207
 20
130.0901334501983
 30
0.0
 40
0.3333331466701038
100
AcDbArc
 50
210.0000076799411
 51
270.0
  0
ARC
  5
27C
330
B7
100
AcDbEntity
  8
Folie _ 3
  6
Continuous
 62
     7
370
    20
100
AcDbCircle
 10
129.9146855334207
 20
130.0901334501983
 30
0.0
 40
0.3333333134651184
100
AcDbArc
 50
270.0
 51
329.9999974427038
  0
LINE
  5
27D
330
B7
100
AcDbEntity
  8
Folie _ 3
  6
Continuous
 62
     7
370
    20
100
AcDbLine
 10
130.2033605436253
 20
129.9234668381692
 30
0.0
 11
130.6260105232166
 21
130.5901334501983
 31
0.0
  0
ARC
  5
27E
330
B7
100
AcDbEntity
  8
Folie _ 3
  6
Continuous
 62
     7
370
    20
100
AcDbCircle
 10
130.9146855334209
 20
130.423466823268
 30
0.0
 40
0.3333288181230383
100
AcDbArc
 50
30.00044020598454
 51
149.9999952245361
  0
LINE
  5
27F
330
B7
100
AcDbEntity
  8
Folie _ 3
  6
Continuous
 62
     7
370
    20
100
AcDbLine
 10
131.2033604840206
 20
130.5901334501983
 30
0.0
 11
131.6260105828213
 21
129.9234668381692
 31
0.0
  0
ARC
  5
280
330
B7
100
AcDbEntity
  8
Folie _ 3
  6
Continuous
 62
     7
370
    20
100
AcDbCircle
 10
131.9146855334209
 20
130.0901334501983
 30
0.0
 40
0.3333331466701038
100
AcDbArc
 50
210.0000076799411
 51
270.0
  0
ARC
  5
281
330
B7
100
AcDbEntity
  8
Folie _ 3
  6
Continuous
 62
     7
370
    20
100
AcDbCircle
 10
131.9146855334209
 20
130.0901334501983
 30
0.0
 40
0.3333333134651184
100
AcDbArc
 50
270.0
 51
329.9999974427038
  0
LINE
  5
282
330
B7
100
AcDbEntity
  8
Folie _ 3
  6
Continuous
 62
     7
370
    20
100
AcDbLine
 10
132.2033605436253
 20
129.9234668381692
 30
0.0
 11
132.6260105232166
 21
130.5901334501983
 31
0.0
  0
ARC
  5
283
330
B7
100
AcDbEntity
  8
Folie _ 3
  6
Continuous
 62
     7
370
    20
100
AcDbCircle
 10
132.9146855334209
 20
130.423466823268
 30
0.0
 40
0.3333288181230383
100
AcDbArc
 50
30.00044020598454
 51
149.9999952245361
  0
LINE
  5
284
330
B7
100
AcDbEntity
  8
Folie _ 3
  6
Continuous
 62
     7
370
    20
100
AcDbLine
 10
133.2033604840206
 20
130.5901334501983
 30
0.0
 11
133.6260105828213
 21
129.9234668381692
 31
0.0
  0
ARC
  5
285
330
B7
100
AcDbEntity
  8
Folie _ 3
  6
Continuous
 62
     7
370
    20
100
AcDbCircle
 10
133.9146855334209
 20
130.0901334501983
 30
0.0
 40
0.3333331466701038
100
AcDbArc
 50
210.0000076799411
 51
270.0
  0
ARC
  5
286
330
B7
100
AcDbEntity
  8
Folie _ 3
  6
Continuous
 62
     7
370
    20
100
AcDbCircle
 10
133.9146855334209
 20
130.0901334501983
 30
0.0
 40
0.3333333134651184
100
AcDbArc
 50
270.0
 51
329.9999974427038
  0
LINE
  5
287
330
B7
100
AcDbEntity
  8
Folie _ 3
  6
Continuous
 62
     7
370
    20
100
AcDbLine
 10
134.2033605436253
 20
129.9234668381692
 30
0.0
 11
134.6260105232166
 21
130.5901334501983
 31
0.0
  0
ARC
  5
288
330
B7
100
AcDbEntity
  8
Folie _ 3
  6
Continuous
 62
     7
370
    20
100
AcDbCircle
 10
134.9146855334209
 20
130.423466823268
 30
0.0
 40
0.3333288181230383
100
AcDbArc
 50
30.00044020598454
 51
149.9999952245361
  0
LINE
  5
289
330
B7
100
AcDbEntity
  8
Folie _ 3
  6
Continuous
 62
     7
370
    20
100
AcDbLine
 10
135.2033604840206
 20
130.5901334501983
 30
0.0
 11
135.6260105828213
 21
129.9234668381692
 31
0.0
  0
ARC
  5
28A
330
B7
100
AcDbEntity
  8
Folie _ 3
  6
Continuous
 62
     7
370
    20
100
AcDbCircle
 10
135.9146855334209
 20
130.0901334501983
 30
0.0
 40
0.3333331466701038
100
AcDbArc
 50
210.0000076799411
 51
270.0
  0
ARC
  5
28B
330
B7
100
AcDbEntity
  8
Folie _ 3
  6
Continuous
 62
     7
370
    20
100
AcDbCircle
 10
135.9146855334209
 20
130.0901334501983
 30
0.0
 40
0.3333333134651184
100
AcDbArc
 50
270.0
 51
329.9999974427038
  0
LINE
  5
28C
330
B7
100
AcDbEntity
  8
Folie _ 3
  6
Continuous
 62
     7
370
    20
100
AcDbLine
 10
136.2033605436253
 20
129.9234668381692
 30
0.0
 11
136.6260105232166
 21
130.5901334501983
 31
0.0
  0
ARC
  5
28D
330
B7
100
AcDbEntity
  8
Folie _ 3
  6
Continuous
 62
     7
370
    20
100
AcDbCircle
 10
136.9146855334209
 20
130.423466823268
 30
0.0
 40
0.3333288181230383
100
AcDbArc
 50
30.00044020598454
 51
149.9999952245361
  0
LINE
  5
28E
330
B7
100
AcDbEntity
  8
Folie _ 3
  6
Continuous
 62
     7
370
    20
100
AcDbLine
 10
137.2033604840206
 20
130.5901334501983
 30
0.0
 11
137.6260105828213
 21
129.9234668381692
 31
0.0
  0
ARC
  5
28F
330
B7
100
AcDbEntity
  8
Folie _ 3
  6
Continuous
 62
     7
370
    20
100
AcDbCircle
 10
137.9146855334209
 20
130.0901334501983
 30
0.0
 40
0.3333331466701038
100
AcDbArc
 50
210.0000076799411
 51
270.0
  0
ARC
  5
290
330
B7
100
AcDbEntity
  8
Folie _ 3
  6
Continuous
 62
     7
370
    20
100
AcDbCircle
 10
137.9146855334209
 20
130.0901334501983
 30
0.0
 40
0.3333333134651184
100
AcDbArc
 50
270.0
 51
329.9999974427038
  0
LINE
  5
291
330
B7
100
AcDbEntity
  8
Folie _ 3
  6
Continuous
 62
     7
370
    20
100
AcDbLine
 10
138.2033605436254
 20
129.9234668381692
 30
0.0
 11
138.6260105232168
 21
130.5901334501983
 31
0.0
  0
ARC
  5
292
330
B7
100
AcDbEntity
  8
Folie _ 3
  6
Continuous
 62
     7
370
    20
100
AcDbCircle
 10
138.9146855334211
 20
130.423466823268
 30
0.0
 40
0.3333288181230383
100
AcDbArc
 50
30.00044020598454
 51
149.9999952245361
  0
LINE
  5
293
330
B7
100
AcDbEntity
  8
Folie _ 3
  6
Continuous
 62
     7
370
    20
100
AcDbLine
 10
139.2033604840208
 20
130.5901334501983
 30
0.0
 11
139.6260105828214
 21
129.9234668381692
 31
0.0
  0
ARC
  5
294
330
B7
100
AcDbEntity
  8
Folie _ 3
  6
Continuous
 62
     7
370
    20
100
AcDbCircle
 10
139.9146855334211
 20
130.0901334501983
 30
0.0
 40
0.3333331466701038
100
AcDbArc
 50
210.0000076799411
 51
270.0
  0
ARC
  5
295
330
B7
100
AcDbEntity
  8
Folie _ 3
  6
Continuous
 62
     7
370
    20
100
AcDbCircle
 10
139.9146855334211
 20
130.0901334501983
 30
0.0
 40
0.3333333134651184
100
AcDbArc
 50
270.0
 51
329.9999974427038
  0
LINE
  5
296
330
B7
100
AcDbEntity
  8
Folie _ 3
  6
Continuous
 62
     7
370
    20
100
AcDbLine
 10
140.2033605436254
 20
129.9234668381692
 30
0.0
 11
140.6260105232168
 21
130.5901334501983
 31
0.0
  0
ARC
  5
297
330
B7
100
AcDbEntity
  8
Folie _ 3
  6
Continuous
 62
     7
370
    20
100
AcDbCircle
 10
140.9146855334211
 20
130.423466823268
 30
0.0
 40
0.3333288181230383
100
AcDbArc
 50
30.00044020598454
 51
149.9999952245361
  0
LINE
  5
298
330
B7
100
AcDbEntity
  8
Folie _ 3
  6
Continuous
 62
     7
370
    20
100
AcDbLine
 10
141.2033604840208
 20
130.5901334501983
 30
0.0
 11
141.6260105828214
 21
129.9234668381692
 31
0.0
  0
ARC
  5
299
330
B7
100
AcDbEntity
  8
Folie _ 3
  6
Continuous
 62
     7
370
    20
100
AcDbCircle
 10
141.9146855334211
 20
130.0901334501983
 30
0.0
 40
0.3333331466701038
100
AcDbArc
 50
210.0000076799411
 51
270.0
  0
ARC
  5
29A
330
B7
100
AcDbEntity
  8
Folie _ 3
  6
Continuous
 62
     7
370
    20
100
AcDbCircle
 10
141.9146855334211
 20
130.0901334501983
 30
0.0
 40
0.3333333134651184
100
AcDbArc
 50
270.0
 51
329.9999974427038
  0
LINE
  5
29B
330
B7
100
AcDbEntity
  8
Folie _ 3
  6
Continuous
 62
     7
370
    20
100
AcDbLine
 10
142.2033605436254
 20
129.9234668381692
 30
0.0
 11
142.6260105232168
 21
130.5901334501983
 31
0.0
  0
ARC
  5
29C
330
B7
100
AcDbEntity
  8
Folie _ 3
  6
Continuous
 62
     7
370
    20
100
AcDbCircle
 10
142.9146855334211
 20
130.423466823268
 30
0.0
 40
0.3333288181230383
100
AcDbArc
 50
30.00044020598454
 51
149.9999952245361
  0
LINE
  5
29D
330
B7
100
AcDbEntity
  8
Folie _ 3
  6
Continuous
 62
     7
370
    20
100
AcDbLine
 10
143.2033604840208
 20
130.5901334501983
 30
0.0
 11
143.6260105828214
 21
129.9234668381692
 31
0.0
  0
ARC
  5
29E
330
B7
100
AcDbEntity
  8
Folie _ 3
  6
Continuous
 62
     7
370
    20
100
AcDbCircle
 10
143.9146855334211
 20
130.0901334501983
 30
0.0
 40
0.3333331466701038
100
AcDbArc
 50
210.0000076799411
 51
270.0
  0
ARC
  5
29F
330
B7
100
AcDbEntity
  8
Folie _ 3
  6
Continuous
 62
     7
370
    20
100
AcDbCircle
 10
143.9146855334211
 20
130.0901334501983
 30
0.0
 40
0.3333333134651184
100
AcDbArc
 50
270.0
 51
329.9999974427038
  0
LINE
  5
2A0
330
B7
100
AcDbEntity
  8
Folie _ 3
  6
Continuous
 62
     7
370
    20
100
AcDbLine
 10
144.2033605436254
 20
129.9234668381692
 30
0.0
 11
144.6260105232168
 21
130.5901334501983
 31
0.0
  0
ARC
  5
2A1
330
B7
100
AcDbEntity
  8
Folie _ 3
  6
Continuous
 62
     7
370
    20
100
AcDbCircle
 10
144.9146855334211
 20
130.423466823268
 30
0.0
 40
0.3333288181230383
100
AcDbArc
 50
30.00044020598454
 51
149.9999952245361
  0
LINE
  5
2A2
330
B7
100
AcDbEntity
  8
Folie _ 3
  6
Continuous
 62
     7
370
    20
100
AcDbLine
 10
145.2033604840208
 20
130.5901334501983
 30
0.0
 11
145.6260105828214
 21
129.9234668381692
 31
0.0
  0
ARC
  5
2A3
330
B7
100
AcDbEntity
  8
Folie _ 3
  6
Continuous
 62
     7
370
    20
100
AcDbCircle
 10
145.9146855334211
 20
130.0901334501983
 30
0.0
 40
0.3333331466701038
100
AcDbArc
 50
210.0000076799411
 51
270.0
  0
ARC
  5
2A4
330
B7
100
AcDbEntity
  8
Folie _ 3
  6
Continuous
 62
     7
370
    20
100
AcDbCircle
 10
145.9146855334211
 20
130.0901334501983
 30
0.0
 40
0.3333333134651184
100
AcDbArc
 50
270.0
 51
329.9999974427038
  0
LINE
  5
2A5
330
B7
100
AcDbEntity
  8
Folie _ 3
  6
Continuous
 62
     7
370
    20
100
AcDbLine
 10
146.2033605436254
 20
129.9234668381692
 30
0.0
 11
146.6260105232168
 21
130.5901334501983
 31
0.0
  0
ARC
  5
2A6
330
B7
100
AcDbEntity
  8
Folie _ 3
  6
Continuous
 62
     7
370
    20
100
AcDbCircle
 10
146.9146855334211
 20
130.423466823268
 30
0.0
 40
0.3333288181230383
100
AcDbArc
 50
30.00044020598454
 51
149.9999952245361
  0
LINE
  5
2A7
330
B7
100
AcDbEntity
  8
Folie _ 3
  6
Continuous
 62
     7
370
    20
100
AcDbLine
 10
147.2033604840208
 20
130.5901334501983
 30
0.0
 11
147.6260105828214
 21
129.9234668381692
 31
0.0
  0
ARC
  5
2A8
330
B7
100
AcDbEntity
  8
Folie _ 3
  6
Continuous
 62
     7
370
    20
100
AcDbCircle
 10
147.9146855334211
 20
130.0901334501983
 30
0.0
 40
0.3333331466701192
100
AcDbArc
 50
210.0000076799395
 51
270.0
  0
ARC
  5
2A9
330
B7
100
AcDbEntity
  8
Folie _ 3
  6
Continuous
 62
     7
370
    20
100
AcDbCircle
 10
147.9146855334211
 20
130.0901334501983
 30
0.0
 40
0.3333333134651184
100
AcDbArc
 50
270.0
 51
329.9999974427008
  0
LINE
  5
2AA
330
B7
100
AcDbEntity
  8
Folie _ 3
  6
Continuous
 62
     7
370
    20
100
AcDbLine
 10
148.2033605436254
 20
129.9234668381692
 30
0.0
 11
148.6260105232168
 21
130.5901334501983
 31
0.0
  0
ARC
  5
2AB
330
B7
100
AcDbEntity
  8
Folie _ 3
  6
Continuous
 62
     7
370
    20
100
AcDbCircle
 10
148.9146855334211
 20
130.423466823268
 30
0.0
 40
0.3333288181230076
100
AcDbArc
 50
30.00044020598759
 51
149.9999952245391
  0
LINE
  5
2AC
330
B7
100
AcDbEntity
  8
Folie _ 3
  6
Continuous
 62
     7
370
    20
100
AcDbLine
 10
149.2033604840208
 20
130.5901334501983
 30
0.0
 11
149.6260105828214
 21
129.9234668381692
 31
0.0
  0
ARC
  5
2AD
330
B7
100
AcDbEntity
  8
Folie _ 3
  6
Continuous
 62
     7
370
    20
100
AcDbCircle
 10
149.9146855334211
 20
130.0901334501983
 30
0.0
 40
0.3333331466701192
100
AcDbArc
 50
210.0000076799395
 51
270.0
  0
ARC
  5
2AE
330
B7
100
AcDbEntity
  8
Folie _ 3
  6
Continuous
 62
     7
370
    20
100
AcDbCircle
 10
149.9146855334211
 20
130.0901334501983
 30
0.0
 40
0.3333333134651184
100
AcDbArc
 50
270.0
 51
329.9999974427008
  0
LINE
  5
2AF
330
B7
100
AcDbEntity
  8
Folie _ 3
  6
Continuous
 62
     7
370
    20
100
AcDbLine
 10
150.2033605436254
 20
129.9234668381692
 30
0.0
 11
150.6260105232168
 21
130.5901334501983
 31
0.0
  0
ARC
  5
2B0
330
B7
100
AcDbEntity
  8
Folie _ 3
  6
Continuous
 62
     7
370
    20
100
AcDbCircle
 10
150.9146855334211
 20
130.423466823268
 30
0.0
 40
0.3333288181230076
100
AcDbArc
 50
30.00044020598759
 51
149.9999952245391
  0
LINE
  5
2B1
330
B7
100
AcDbEntity
  8
Folie _ 3
  6
Continuous
 62
     7
370
    20
100
AcDbLine
 10
151.2033604840208
 20
130.5901334501983
 30
0.0
 11
151.6260105828214
 21
129.9234668381692
 31
0.0
  0
ARC
  5
2B2
330
B7
100
AcDbEntity
  8
Folie _ 3
  6
Continuous
 62
     7
370
    20
100
AcDbCircle
 10
151.9146855334211
 20
130.0901334501983
 30
0.0
 40
0.3333331466701192
100
AcDbArc
 50
210.0000076799395
 51
270.0
  0
ARC
  5
2B3
330
B7
100
AcDbEntity
  8
Folie _ 3
  6
Continuous
 62
     7
370
    20
100
AcDbCircle
 10
151.9146855334211
 20
130.0901334501983
 30
0.0
 40
0.3333333134651184
100
AcDbArc
 50
270.0
 51
329.9999974427008
  0
LINE
  5
2B4
330
B7
100
AcDbEntity
  8
Folie _ 3
  6
Continuous
 62
     7
370
    20
100
AcDbLine
 10
152.2033605436254
 20
129.9234668381692
 30
0.0
 11
152.6260105232168
 21
130.5901334501983
 31
0.0
  0
ARC
  5
2B5
330
B7
100
AcDbEntity
  8
Folie _ 3
  6
Continuous
 62
     7
370
    20
100
AcDbCircle
 10
152.9146855334211
 20
130.423466823268
 30
0.0
 40
0.3333288181230076
100
AcDbArc
 50
30.00044020598759
 51
149.9999952245391
  0
LINE
  5
2B6
330
B7
100
AcDbEntity
  8
Folie _ 3
  6
Continuous
 62
     7
370
    20
100
AcDbLine
 10
153.2033604840208
 20
130.5901334501983
 30
0.0
 11
153.6260105828214
 21
129.9234668381692
 31
0.0
  0
ARC
  5
2B7
330
B7
100
AcDbEntity
  8
Folie _ 3
  6
Continuous
 62
     7
370
    20
100
AcDbCircle
 10
153.9146855334211
 20
130.0901334501983
 30
0.0
 40
0.3333331466701192
100
AcDbArc
 50
210.0000076799395
 51
270.0
  0
ARC
  5
2B8
330
B7
100
AcDbEntity
  8
Folie _ 3
  6
Continuous
 62
     7
370
    20
100
AcDbCircle
 10
153.9146855334211
 20
130.0901334501983
 30
0.0
 40
0.3333333134651184
100
AcDbArc
 50
270.0
 51
329.9999974427008
  0
LINE
  5
2B9
330
B7
100
AcDbEntity
  8
Folie _ 3
  6
Continuous
 62
     7
370
    20
100
AcDbLine
 10
154.2033605436254
 20
129.9234668381692
 30
0.0
 11
154.6260105232168
 21
130.5901334501983
 31
0.0
  0
ARC
  5
2BA
330
B7
100
AcDbEntity
  8
Folie _ 3
  6
Continuous
 62
     7
370
    20
100
AcDbCircle
 10
154.9146855334213
 20
130.423466823268
 30
0.0
 40
0.3333288181230076
100
AcDbArc
 50
30.00044020598759
 51
149.9999952245391
  0
LINE
  5
2BB
330
B7
100
AcDbEntity
  8
Folie _ 3
  6
Continuous
 62
     7
370
    20
100
AcDbLine
 10
155.2033604840208
 20
130.5901334501983
 30
0.0
 11
155.6260105828214
 21
129.9234668381692
 31
0.0
  0
ARC
  5
2BC
330
B7
100
AcDbEntity
  8
Folie _ 3
  6
Continuous
 62
     7
370
    20
100
AcDbCircle
 10
155.9146855334213
 20
130.0901334501983
 30
0.0
 40
0.3333331466701192
100
AcDbArc
 50
210.0000076799395
 51
270.0
  0
ARC
  5
2BD
330
B7
100
AcDbEntity
  8
Folie _ 3
  6
Continuous
 62
     7
370
    20
100
AcDbCircle
 10
155.9146855334213
 20
130.0901334501983
 30
0.0
 40
0.3333333134651184
100
AcDbArc
 50
270.0
 51
329.9999974427008
  0
LINE
  5
2BE
330
B7
100
AcDbEntity
  8
Folie _ 3
  6
Continuous
 62
     7
370
    20
100
AcDbLine
 10
156.2033605436254
 20
129.9234668381692
 30
0.0
 11
156.6260105232168
 21
130.5901334501983
 31
0.0
  0
ARC
  5
2BF
330
B7
100
AcDbEntity
  8
Folie _ 3
  6
Continuous
 62
     7
370
    20
100
AcDbCircle
 10
156.9146855334213
 20
130.423466823268
 30
0.0
 40
0.3333288181230076
100
AcDbArc
 50
52.24595919603981
 51
149.9999952245391
  0
LINE
  5
2C0
330
B7
100
AcDbEntity
  8
Folie _ 3
  6
Continuous
 62
     7
370
    20
100
AcDbLine
 10
158.1187737829323
 20
130.7568001367332
 30
0.0
 11
230.3228620324444
 21
130.7568001367332
 31
0.0
  0
ARC
  5
2C1
330
B7
100
AcDbEntity
  8
Folie _ 3
  6
Continuous
 62
     7
370
    20
100
AcDbCircle
 10
158.1187737829323
 20
130.423466823268
 30
0.0
 40
0.3333288181230383
100
AcDbArc
 50
30.00044020598454
 51
90.00000000001172
  0
LINE
  5
2C2
330
B7
100
AcDbEntity
  8
Folie _ 3
  6
Continuous
 62
     7
370
    20
100
AcDbLine
 10
158.407448733532
 20
130.5901334501983
 30
0.0
 11
158.8300988323326
 21
129.9234668381692
 31
0.0
  0
ARC
  5
2C3
330
B7
100
AcDbEntity
  8
Folie _ 3
  6
Continuous
 62
     7
370
    20
100
AcDbCircle
 10
159.1187737829323
 20
130.0901334501983
 30
0.0
 40
0.3333331466701038
100
AcDbArc
 50
210.0000076799411
 51
270.0
  0
ARC
  5
2C4
330
B7
100
AcDbEntity
  8
Folie _ 3
  6
Continuous
 62
     7
370
    20
100
AcDbCircle
 10
159.1187737829323
 20
130.0901334501983
 30
0.0
 40
0.3333333134651184
100
AcDbArc
 50
270.0
 51
329.9999974427038
  0
LINE
  5
2C5
330
B7
100
AcDbEntity
  8
Folie _ 3
  6
Continuous
 62
     7
370
    20
100
AcDbLine
 10
159.4074487931366
 20
129.9234668381692
 30
0.0
 11
159.830098772728
 21
130.5901334501983
 31
0.0
  0
ARC
  5
2C6
330
B7
100
AcDbEntity
  8
Folie _ 3
  6
Continuous
 62
     7
370
    20
100
AcDbCircle
 10
160.1187737829323
 20
130.423466823268
 30
0.0
 40
0.3333288181230383
100
AcDbArc
 50
30.00044020598454
 51
149.9999952245361
  0
LINE
  5
2C7
330
B7
100
AcDbEntity
  8
Folie _ 3
  6
Continuous
 62
     7
370
    20
100
AcDbLine
 10
160.4074487335322
 20
130.5901334501983
 30
0.0
 11
160.8300988323326
 21
129.9234668381692
 31
0.0
  0
ARC
  5
2C8
330
B7
100
AcDbEntity
  8
Folie _ 3
  6
Continuous
 62
     7
370
    20
100
AcDbCircle
 10
161.1187737829325
 20
130.0901334501983
 30
0.0
 40
0.3333331466701038
100
AcDbArc
 50
210.0000076799411
 51
270.0
  0
ARC
  5
2C9
330
B7
100
AcDbEntity
  8
Folie _ 3
  6
Continuous
 62
     7
370
    20
100
AcDbCircle
 10
161.1187737829325
 20
130.0901334501983
 30
0.0
 40
0.3333333134651184
100
AcDbArc
 50
270.0
 51
329.9999974427038
  0
LINE
  5
2CA
330
B7
100
AcDbEntity
  8
Folie _ 3
  6
Continuous
 62
     7
370
    20
100
AcDbLine
 10
161.4074487931368
 20
129.9234668381692
 30
0.0
 11
161.8300987727282
 21
130.5901334501983
 31
0.0
  0
ARC
  5
2CB
330
B7
100
AcDbEntity
  8
Folie _ 3
  6
Continuous
 62
     7
370
    20
100
AcDbCircle
 10
162.1187737829325
 20
130.423466823268
 30
0.0
 40
0.3333288181230383
100
AcDbArc
 50
30.00044020598454
 51
149.9999952245361
  0
LINE
  5
2CC
330
B7
100
AcDbEntity
  8
Folie _ 3
  6
Continuous
 62
     7
370
    20
100
AcDbLine
 10
162.4074487335322
 20
130.5901334501983
 30
0.0
 11
162.8300988323328
 21
129.9234668381692
 31
0.0
  0
ARC
  5
2CD
330
B7
100
AcDbEntity
  8
Folie _ 3
  6
Continuous
 62
     7
370
    20
100
AcDbCircle
 10
163.1187737829325
 20
130.0901334501983
 30
0.0
 40
0.3333331466701038
100
AcDbArc
 50
210.0000076799411
 51
270.0
  0
ARC
  5
2CE
330
B7
100
AcDbEntity
  8
Folie _ 3
  6
Continuous
 62
     7
370
    20
100
AcDbCircle
 10
163.1187737829325
 20
130.0901334501983
 30
0.0
 40
0.3333333134651184
100
AcDbArc
 50
270.0
 51
329.9999974427038
  0
LINE
  5
2CF
330
B7
100
AcDbEntity
  8
Folie _ 3
  6
Continuous
 62
     7
370
    20
100
AcDbLine
 10
163.4074487931368
 20
129.9234668381692
 30
0.0
 11
163.8300987727282
 21
130.5901334501983
 31
0.0
  0
ARC
  5
2D0
330
B7
100
AcDbEntity
  8
Folie _ 3
  6
Continuous
 62
     7
370
    20
100
AcDbCircle
 10
164.1187737829325
 20
130.423466823268
 30
0.0
 40
0.3333288181230383
100
AcDbArc
 50
30.00044020598454
 51
149.9999952245361
  0
LINE
  5
2D1
330
B7
100
AcDbEntity
  8
Folie _ 3
  6
Continuous
 62
     7
370
    20
100
AcDbLine
 10
164.4074487335322
 20
130.5901334501983
 30
0.0
 11
164.8300988323328
 21
129.9234668381692
 31
0.0
  0
ARC
  5
2D2
330
B7
100
AcDbEntity
  8
Folie _ 3
  6
Continuous
 62
     7
370
    20
100
AcDbCircle
 10
165.1187737829325
 20
130.0901334501983
 30
0.0
 40
0.3333331466701038
100
AcDbArc
 50
210.0000076799411
 51
270.0
  0
ARC
  5
2D3
330
B7
100
AcDbEntity
  8
Folie _ 3
  6
Continuous
 62
     7
370
    20
100
AcDbCircle
 10
165.1187737829325
 20
130.0901334501983
 30
0.0
 40
0.3333333134651184
100
AcDbArc
 50
270.0
 51
329.9999974427038
  0
LINE
  5
2D4
330
B7
100
AcDbEntity
  8
Folie _ 3
  6
Continuous
 62
     7
370
    20
100
AcDbLine
 10
165.4074487931368
 20
129.9234668381692
 30
0.0
 11
165.8300987727282
 21
130.5901334501983
 31
0.0
  0
ARC
  5
2D5
330
B7
100
AcDbEntity
  8
Folie _ 3
  6
Continuous
 62
     7
370
    20
100
AcDbCircle
 10
166.1187737829325
 20
130.423466823268
 30
0.0
 40
0.3333288181230383
100
AcDbArc
 50
30.00044020598454
 51
149.9999952245361
  0
LINE
  5
2D6
330
B7
100
AcDbEntity
  8
Folie _ 3
  6
Continuous
 62
     7
370
    20
100
AcDbLine
 10
166.4074487335322
 20
130.5901334501983
 30
0.0
 11
166.8300988323328
 21
129.9234668381692
 31
0.0
  0
ARC
  5
2D7
330
B7
100
AcDbEntity
  8
Folie _ 3
  6
Continuous
 62
     7
370
    20
100
AcDbCircle
 10
167.1187737829325
 20
130.0901334501983
 30
0.0
 40
0.3333331466701038
100
AcDbArc
 50
210.0000076799411
 51
270.0
  0
ARC
  5
2D8
330
B7
100
AcDbEntity
  8
Folie _ 3
  6
Continuous
 62
     7
370
    20
100
AcDbCircle
 10
167.1187737829325
 20
130.0901334501983
 30
0.0
 40
0.3333333134651184
100
AcDbArc
 50
270.0
 51
329.9999974427038
  0
LINE
  5
2D9
330
B7
100
AcDbEntity
  8
Folie _ 3
  6
Continuous
 62
     7
370
    20
100
AcDbLine
 10
167.4074487931368
 20
129.9234668381692
 30
0.0
 11
167.8300987727282
 21
130.5901334501983
 31
0.0
  0
ARC
  5
2DA
330
B7
100
AcDbEntity
  8
Folie _ 3
  6
Continuous
 62
     7
370
    20
100
AcDbCircle
 10
168.1187737829325
 20
130.423466823268
 30
0.0
 40
0.3333288181230383
100
AcDbArc
 50
30.00044020598454
 51
149.9999952245361
  0
LINE
  5
2DB
330
B7
100
AcDbEntity
  8
Folie _ 3
  6
Continuous
 62
     7
370
    20
100
AcDbLine
 10
168.4074487335322
 20
130.5901334501983
 30
0.0
 11
168.8300988323328
 21
129.9234668381692
 31
0.0
  0
ARC
  5
2DC
330
B7
100
AcDbEntity
  8
Folie _ 3
  6
Continuous
 62
     7
370
    20
100
AcDbCircle
 10
169.1187737829325
 20
130.0901334501983
 30
0.0
 40
0.3333331466701038
100
AcDbArc
 50
210.0000076799411
 51
270.0
  0
ARC
  5
2DD
330
B7
100
AcDbEntity
  8
Folie _ 3
  6
Continuous
 62
     7
370
    20
100
AcDbCircle
 10
169.1187737829325
 20
130.0901334501983
 30
0.0
 40
0.3333333134651184
100
AcDbArc
 50
270.0
 51
329.9999974427038
  0
LINE
  5
2DE
330
B7
100
AcDbEntity
  8
Folie _ 3
  6
Continuous
 62
     7
370
    20
100
AcDbLine
 10
169.4074487931368
 20
129.9234668381692
 30
0.0
 11
169.8300987727282
 21
130.5901334501983
 31
0.0
  0
ARC
  5
2DF
330
B7
100
AcDbEntity
  8
Folie _ 3
  6
Continuous
 62
     7
370
    20
100
AcDbCircle
 10
170.1187737829325
 20
130.423466823268
 30
0.0
 40
0.3333288181230383
100
AcDbArc
 50
30.00044020598454
 51
149.9999952245361
  0
LINE
  5
2E0
330
B7
100
AcDbEntity
  8
Folie _ 3
  6
Continuous
 62
     7
370
    20
100
AcDbLine
 10
170.4074487335322
 20
130.5901334501983
 30
0.0
 11
170.8300988323328
 21
129.9234668381692
 31
0.0
  0
ARC
  5
2E1
330
B7
100
AcDbEntity
  8
Folie _ 3
  6
Continuous
 62
     7
370
    20
100
AcDbCircle
 10
171.1187737829325
 20
130.0901334501983
 30
0.0
 40
0.3333331466701038
100
AcDbArc
 50
210.0000076799411
 51
270.0
  0
ARC
  5
2E2
330
B7
100
AcDbEntity
  8
Folie _ 3
  6
Continuous
 62
     7
370
    20
100
AcDbCircle
 10
171.1187737829325
 20
130.0901334501983
 30
0.0
 40
0.3333333134651184
100
AcDbArc
 50
270.0
 51
329.9999974427038
  0
LINE
  5
2E3
330
B7
100
AcDbEntity
  8
Folie _ 3
  6
Continuous
 62
     7
370
    20
100
AcDbLine
 10
171.4074487931368
 20
129.9234668381692
 30
0.0
 11
171.8300987727282
 21
130.5901334501983
 31
0.0
  0
ARC
  5
2E4
330
B7
100
AcDbEntity
  8
Folie _ 3
  6
Continuous
 62
     7
370
    20
100
AcDbCircle
 10
172.1187737829325
 20
130.423466823268
 30
0.0
 40
0.3333288181230383
100
AcDbArc
 50
30.00044020598454
 51
149.9999952245361
  0
LINE
  5
2E5
330
B7
100
AcDbEntity
  8
Folie _ 3
  6
Continuous
 62
     7
370
    20
100
AcDbLine
 10
172.4074487335322
 20
130.5901334501983
 30
0.0
 11
172.8300988323328
 21
129.9234668381692
 31
0.0
  0
ARC
  5
2E6
330
B7
100
AcDbEntity
  8
Folie _ 3
  6
Continuous
 62
     7
370
    20
100
AcDbCircle
 10
173.1187737829325
 20
130.0901334501983
 30
0.0
 40
0.3333331466701038
100
AcDbArc
 50
210.0000076799411
 51
270.0
  0
ARC
  5
2E7
330
B7
100
AcDbEntity
  8
Folie _ 3
  6
Continuous
 62
     7
370
    20
100
AcDbCircle
 10
173.1187737829325
 20
130.0901334501983
 30
0.0
 40
0.3333333134651184
100
AcDbArc
 50
270.0
 51
329.9999974427038
  0
LINE
  5
2E8
330
B7
100
AcDbEntity
  8
Folie _ 3
  6
Continuous
 62
     7
370
    20
100
AcDbLine
 10
173.4074487931368
 20
129.9234668381692
 30
0.0
 11
173.8300987727282
 21
130.5901334501983
 31
0.0
  0
ARC
  5
2E9
330
B7
100
AcDbEntity
  8
Folie _ 3
  6
Continuous
 62
     7
370
    20
100
AcDbCircle
 10
174.1187737829325
 20
130.423466823268
 30
0.0
 40
0.3333288181230383
100
AcDbArc
 50
30.00044020598454
 51
149.9999952245361
  0
LINE
  5
2EA
330
B7
100
AcDbEntity
  8
Folie _ 3
  6
Continuous
 62
     7
370
    20
100
AcDbLine
 10
174.4074487335322
 20
130.5901334501983
 30
0.0
 11
174.8300988323328
 21
129.9234668381692
 31
0.0
  0
ARC
  5
2EB
330
B7
100
AcDbEntity
  8
Folie _ 3
  6
Continuous
 62
     7
370
    20
100
AcDbCircle
 10
175.1187737829325
 20
130.0901334501983
 30
0.0
 40
0.3333331466701038
100
AcDbArc
 50
210.0000076799411
 51
270.0
  0
ARC
  5
2EC
330
B7
100
AcDbEntity
  8
Folie _ 3
  6
Continuous
 62
     7
370
    20
100
AcDbCircle
 10
175.1187737829325
 20
130.0901334501983
 30
0.0
 40
0.3333333134651184
100
AcDbArc
 50
270.0
 51
329.9999974427038
  0
LINE
  5
2ED
330
B7
100
AcDbEntity
  8
Folie _ 3
  6
Continuous
 62
     7
370
    20
100
AcDbLine
 10
175.4074487931368
 20
129.9234668381692
 30
0.0
 11
175.8300987727282
 21
130.5901334501983
 31
0.0
  0
ARC
  5
2EE
330
B7
100
AcDbEntity
  8
Folie _ 3
  6
Continuous
 62
     7
370
    20
100
AcDbCircle
 10
176.1187737829325
 20
130.423466823268
 30
0.0
 40
0.3333288181230383
100
AcDbArc
 50
30.00044020598454
 51
149.9999952245361
  0
LINE
  5
2EF
330
B7
100
AcDbEntity
  8
Folie _ 3
  6
Continuous
 62
     7
370
    20
100
AcDbLine
 10
176.4074487335322
 20
130.5901334501983
 30
0.0
 11
176.8300988323328
 21
129.9234668381692
 31
0.0
  0
ARC
  5
2F0
330
B7
100
AcDbEntity
  8
Folie _ 3
  6
Continuous
 62
     7
370
    20
100
AcDbCircle
 10
177.1187737829325
 20
130.0901334501983
 30
0.0
 40
0.3333331466701038
100
AcDbArc
 50
210.0000076799411
 51
270.0
  0
ARC
  5
2F1
330
B7
100
AcDbEntity
  8
Folie _ 3
  6
Continuous
 62
     7
370
    20
100
AcDbCircle
 10
177.1187737829325
 20
130.0901334501983
 30
0.0
 40
0.3333333134651184
100
AcDbArc
 50
270.0
 51
329.9999974427038
  0
LINE
  5
2F2
330
B7
100
AcDbEntity
  8
Folie _ 3
  6
Continuous
 62
     7
370
    20
100
AcDbLine
 10
177.4074487931368
 20
129.9234668381692
 30
0.0
 11
177.8300987727282
 21
130.5901334501983
 31
0.0
  0
ARC
  5
2F3
330
B7
100
AcDbEntity
  8
Folie _ 3
  6
Continuous
 62
     7
370
    20
100
AcDbCircle
 10
178.1187737829327
 20
130.423466823268
 30
0.0
 40
0.3333288181230383
100
AcDbArc
 50
30.00044020598454
 51
149.9999952245361
  0
LINE
  5
2F4
330
B7
100
AcDbEntity
  8
Folie _ 3
  6
Continuous
 62
     7
370
    20
100
AcDbLine
 10
178.4074487335323
 20
130.5901334501983
 30
0.0
 11
178.830098832333
 21
129.9234668381692
 31
0.0
  0
ARC
  5
2F5
330
B7
100
AcDbEntity
  8
Folie _ 3
  6
Continuous
 62
     7
370
    20
100
AcDbCircle
 10
179.1187737829327
 20
130.0901334501983
 30
0.0
 40
0.3333331466701038
100
AcDbArc
 50
210.0000076799411
 51
270.0
  0
ARC
  5
2F6
330
B7
100
AcDbEntity
  8
Folie _ 3
  6
Continuous
 62
     7
370
    20
100
AcDbCircle
 10
179.1187737829327
 20
130.0901334501983
 30
0.0
 40
0.3333333134651184
100
AcDbArc
 50
270.0
 51
329.9999974427038
  0
LINE
  5
2F7
330
B7
100
AcDbEntity
  8
Folie _ 3
  6
Continuous
 62
     7
370
    20
100
AcDbLine
 10
179.407448793137
 20
129.9234668381692
 30
0.0
 11
179.8300987727283
 21
130.5901334501983
 31
0.0
  0
ARC
  5
2F8
330
B7
100
AcDbEntity
  8
Folie _ 3
  6
Continuous
 62
     7
370
    20
100
AcDbCircle
 10
180.1187737829327
 20
130.423466823268
 30
0.0
 40
0.3333288181230383
100
AcDbArc
 50
30.00044020598454
 51
149.9999952245361
  0
LINE
  5
2F9
330
B7
100
AcDbEntity
  8
Folie _ 3
  6
Continuous
 62
     7
370
    20
100
AcDbLine
 10
180.4074487335323
 20
130.5901334501983
 30
0.0
 11
180.830098832333
 21
129.9234668381692
 31
0.0
  0
ARC
  5
2FA
330
B7
100
AcDbEntity
  8
Folie _ 3
  6
Continuous
 62
     7
370
    20
100
AcDbCircle
 10
181.1187737829327
 20
130.0901334501983
 30
0.0
 40
0.3333331466701038
100
AcDbArc
 50
210.0000076799411
 51
270.0
  0
ARC
  5
2FB
330
B7
100
AcDbEntity
  8
Folie _ 3
  6
Continuous
 62
     7
370
    20
100
AcDbCircle
 10
181.1187737829327
 20
130.0901334501983
 30
0.0
 40
0.3333333134651184
100
AcDbArc
 50
270.0
 51
329.9999974427038
  0
LINE
  5
2FC
330
B7
100
AcDbEntity
  8
Folie _ 3
  6
Continuous
 62
     7
370
    20
100
AcDbLine
 10
181.407448793137
 20
129.9234668381692
 30
0.0
 11
181.8300987727283
 21
130.5901334501983
 31
0.0
  0
ARC
  5
2FD
330
B7
100
AcDbEntity
  8
Folie _ 3
  6
Continuous
 62
     7
370
    20
100
AcDbCircle
 10
182.1187737829327
 20
130.423466823268
 30
0.0
 40
0.3333288181230383
100
AcDbArc
 50
30.00044020598454
 51
149.9999952245361
  0
LINE
  5
2FE
330
B7
100
AcDbEntity
  8
Folie _ 3
  6
Continuous
 62
     7
370
    20
100
AcDbLine
 10
182.4074487335323
 20
130.5901334501983
 30
0.0
 11
182.830098832333
 21
129.9234668381692
 31
0.0
  0
ARC
  5
2FF
330
B7
100
AcDbEntity
  8
Folie _ 3
  6
Continuous
 62
     7
370
    20
100
AcDbCircle
 10
183.1187737829327
 20
130.0901334501983
 30
0.0
 40
0.3333331466701038
100
AcDbArc
 50
210.0000076799411
 51
270.0
  0
ARC
  5
300
330
B7
100
AcDbEntity
  8
Folie _ 3
  6
Continuous
 62
     7
370
    20
100
AcDbCircle
 10
183.1187737829327
 20
130.0901334501983
 30
0.0
 40
0.3333333134651184
100
AcDbArc
 50
270.0
 51
329.9999974427038
  0
LINE
  5
301
330
B7
100
AcDbEntity
  8
Folie _ 3
  6
Continuous
 62
     7
370
    20
100
AcDbLine
 10
183.407448793137
 20
129.9234668381692
 30
0.0
 11
183.8300987727283
 21
130.5901334501983
 31
0.0
  0
ARC
  5
302
330
B7
100
AcDbEntity
  8
Folie _ 3
  6
Continuous
 62
     7
370
    20
100
AcDbCircle
 10
184.1187737829327
 20
130.423466823268
 30
0.0
 40
0.3333288181230383
100
AcDbArc
 50
30.00044020598454
 51
149.9999952245361
  0
LINE
  5
303
330
B7
100
AcDbEntity
  8
Folie _ 3
  6
Continuous
 62
     7
370
    20
100
AcDbLine
 10
184.4074487335323
 20
130.5901334501983
 30
0.0
 11
184.830098832333
 21
129.9234668381692
 31
0.0
  0
ARC
  5
304
330
B7
100
AcDbEntity
  8
Folie _ 3
  6
Continuous
 62
     7
370
    20
100
AcDbCircle
 10
185.1187737829327
 20
130.0901334501983
 30
0.0
 40
0.3333331466701038
100
AcDbArc
 50
210.0000076799411
 51
270.0
  0
ARC
  5
305
330
B7
100
AcDbEntity
  8
Folie _ 3
  6
Continuous
 62
     7
370
    20
100
AcDbCircle
 10
185.1187737829327
 20
130.0901334501983
 30
0.0
 40
0.3333333134651184
100
AcDbArc
 50
270.0
 51
329.9999974427038
  0
LINE
  5
306
330
B7
100
AcDbEntity
  8
Folie _ 3
  6
Continuous
 62
     7
370
    20
100
AcDbLine
 10
185.407448793137
 20
129.9234668381692
 30
0.0
 11
185.8300987727283
 21
130.5901334501983
 31
0.0
  0
ARC
  5
307
330
B7
100
AcDbEntity
  8
Folie _ 3
  6
Continuous
 62
     7
370
    20
100
AcDbCircle
 10
186.1187737829329
 20
130.423466823268
 30
0.0
 40
0.3333288181230383
100
AcDbArc
 50
30.00044020598454
 51
149.9999952245361
  0
LINE
  5
308
330
B7
100
AcDbEntity
  8
Folie _ 3
  6
Continuous
 62
     7
370
    20
100
AcDbLine
 10
186.4074487335325
 20
130.5901334501983
 30
0.0
 11
186.8300988323332
 21
129.9234668381692
 31
0.0
  0
ARC
  5
309
330
B7
100
AcDbEntity
  8
Folie _ 3
  6
Continuous
 62
     7
370
    20
100
AcDbCircle
 10
187.1187737829329
 20
130.0901334501983
 30
0.0
 40
0.3333331466701038
100
AcDbArc
 50
210.0000076799411
 51
270.0
  0
ARC
  5
30A
330
B7
100
AcDbEntity
  8
Folie _ 3
  6
Continuous
 62
     7
370
    20
100
AcDbCircle
 10
187.1187737829329
 20
130.0901334501983
 30
0.0
 40
0.3333333134651184
100
AcDbArc
 50
270.0
 51
329.9999974427038
  0
LINE
  5
30B
330
B7
100
AcDbEntity
  8
Folie _ 3
  6
Continuous
 62
     7
370
    20
100
AcDbLine
 10
187.4074487931372
 20
129.9234668381692
 30
0.0
 11
187.8300987727285
 21
130.5901334501983
 31
0.0
  0
ARC
  5
30C
330
B7
100
AcDbEntity
  8
Folie _ 3
  6
Continuous
 62
     7
370
    20
100
AcDbCircle
 10
188.1187737829329
 20
130.423466823268
 30
0.0
 40
0.3333288181230383
100
AcDbArc
 50
30.00044020598454
 51
149.9999952245361
  0
LINE
  5
30D
330
B7
100
AcDbEntity
  8
Folie _ 3
  6
Continuous
 62
     7
370
    20
100
AcDbLine
 10
188.4074487335325
 20
130.5901334501983
 30
0.0
 11
188.8300988323332
 21
129.9234668381692
 31
0.0
  0
ARC
  5
30E
330
B7
100
AcDbEntity
  8
Folie _ 3
  6
Continuous
 62
     7
370
    20
100
AcDbCircle
 10
189.1187737829329
 20
130.0901334501983
 30
0.0
 40
0.3333331466701038
100
AcDbArc
 50
210.0000076799411
 51
270.0
  0
ARC
  5
30F
330
B7
100
AcDbEntity
  8
Folie _ 3
  6
Continuous
 62
     7
370
    20
100
AcDbCircle
 10
189.1187737829329
 20
130.0901334501983
 30
0.0
 40
0.3333333134651184
100
AcDbArc
 50
270.0
 51
329.9999974427038
  0
LINE
  5
310
330
B7
100
AcDbEntity
  8
Folie _ 3
  6
Continuous
 62
     7
370
    20
100
AcDbLine
 10
189.4074487931372
 20
129.9234668381692
 30
0.0
 11
189.8300987727285
 21
130.5901334501983
 31
0.0
  0
ARC
  5
311
330
B7
100
AcDbEntity
  8
Folie _ 3
  6
Continuous
 62
     7
370
    20
100
AcDbCircle
 10
190.1187737829329
 20
130.423466823268
 30
0.0
 40
0.3333288181230383
100
AcDbArc
 50
30.00044020598454
 51
149.9999952245361
  0
LINE
  5
312
330
B7
100
AcDbEntity
  8
Folie _ 3
  6
Continuous
 62
     7
370
    20
100
AcDbLine
 10
190.4074487335325
 20
130.5901334501983
 30
0.0
 11
190.8300988323332
 21
129.9234668381692
 31
0.0
  0
ARC
  5
313
330
B7
100
AcDbEntity
  8
Folie _ 3
  6
Continuous
 62
     7
370
    20
100
AcDbCircle
 10
191.1187737829329
 20
130.0901334501983
 30
0.0
 40
0.3333331466701038
100
AcDbArc
 50
210.0000076799411
 51
270.0
  0
ARC
  5
314
330
B7
100
AcDbEntity
  8
Folie _ 3
  6
Continuous
 62
     7
370
    20
100
AcDbCircle
 10
191.1187737829329
 20
130.0901334501983
 30
0.0
 40
0.3333333134651184
100
AcDbArc
 50
270.0
 51
329.9999974427038
  0
LINE
  5
315
330
B7
100
AcDbEntity
  8
Folie _ 3
  6
Continuous
 62
     7
370
    20
100
AcDbLine
 10
191.4074487931372
 20
129.9234668381692
 30
0.0
 11
191.8300987727285
 21
130.5901334501983
 31
0.0
  0
ARC
  5
316
330
B7
100
AcDbEntity
  8
Folie _ 3
  6
Continuous
 62
     7
370
    20
100
AcDbCircle
 10
192.1187737829329
 20
130.423466823268
 30
0.0
 40
0.3333288181230383
100
AcDbArc
 50
30.00044020598454
 51
149.9999952245361
  0
LINE
  5
317
330
B7
100
AcDbEntity
  8
Folie _ 3
  6
Continuous
 62
     7
370
    20
100
AcDbLine
 10
192.4074487335325
 20
130.5901334501983
 30
0.0
 11
192.8300988323332
 21
129.9234668381692
 31
0.0
  0
ARC
  5
318
330
B7
100
AcDbEntity
  8
Folie _ 3
  6
Continuous
 62
     7
370
    20
100
AcDbCircle
 10
193.1187737829329
 20
130.0901334501983
 30
0.0
 40
0.3333331466701038
100
AcDbArc
 50
210.0000076799411
 51
270.0
  0
ARC
  5
319
330
B7
100
AcDbEntity
  8
Folie _ 3
  6
Continuous
 62
     7
370
    20
100
AcDbCircle
 10
193.1187737829329
 20
130.0901334501983
 30
0.0
 40
0.3333333134651184
100
AcDbArc
 50
270.0
 51
329.9999974427038
  0
LINE
  5
31A
330
B7
100
AcDbEntity
  8
Folie _ 3
  6
Continuous
 62
     7
370
    20
100
AcDbLine
 10
193.4074487931372
 20
129.9234668381692
 30
0.0
 11
193.8300987727285
 21
130.5901334501983
 31
0.0
  0
ARC
  5
31B
330
B7
100
AcDbEntity
  8
Folie _ 3
  6
Continuous
 62
     7
370
    20
100
AcDbCircle
 10
194.1187737829329
 20
130.423466823268
 30
0.0
 40
0.3333288181230383
100
AcDbArc
 50
30.00044020598454
 51
149.9999952245361
  0
LINE
  5
31C
330
B7
100
AcDbEntity
  8
Folie _ 3
  6
Continuous
 62
     7
370
    20
100
AcDbLine
 10
194.4074487335325
 20
130.5901334501983
 30
0.0
 11
194.8300988323332
 21
129.9234668381692
 31
0.0
  0
ARC
  5
31D
330
B7
100
AcDbEntity
  8
Folie _ 3
  6
Continuous
 62
     7
370
    20
100
AcDbCircle
 10
195.1187737829329
 20
130.0901334501983
 30
0.0
 40
0.3333331466701038
100
AcDbArc
 50
210.0000076799411
 51
270.0
  0
ARC
  5
31E
330
B7
100
AcDbEntity
  8
Folie _ 3
  6
Continuous
 62
     7
370
    20
100
AcDbCircle
 10
195.1187737829329
 20
130.0901334501983
 30
0.0
 40
0.3333333134651184
100
AcDbArc
 50
270.0
 51
329.9999974427038
  0
LINE
  5
31F
330
B7
100
AcDbEntity
  8
Folie _ 3
  6
Continuous
 62
     7
370
    20
100
AcDbLine
 10
195.4074487931372
 20
129.9234668381692
 30
0.0
 11
195.8300987727285
 21
130.5901334501983
 31
0.0
  0
ARC
  5
320
330
B7
100
AcDbEntity
  8
Folie _ 3
  6
Continuous
 62
     7
370
    20
100
AcDbCircle
 10
196.1187737829329
 20
130.423466823268
 30
0.0
 40
0.3333288181230383
100
AcDbArc
 50
30.00044020598454
 51
149.9999952245361
  0
LINE
  5
321
330
B7
100
AcDbEntity
  8
Folie _ 3
  6
Continuous
 62
     7
370
    20
100
AcDbLine
 10
196.4074487335325
 20
130.5901334501983
 30
0.0
 11
196.8300988323332
 21
129.9234668381692
 31
0.0
  0
ARC
  5
322
330
B7
100
AcDbEntity
  8
Folie _ 3
  6
Continuous
 62
     7
370
    20
100
AcDbCircle
 10
197.1187737829329
 20
130.0901334501983
 30
0.0
 40
0.3333331466701038
100
AcDbArc
 50
210.0000076799411
 51
270.0
  0
ARC
  5
323
330
B7
100
AcDbEntity
  8
Folie _ 3
  6
Continuous
 62
     7
370
    20
100
AcDbCircle
 10
197.1187737829329
 20
130.0901334501983
 30
0.0
 40
0.3333333134651184
100
AcDbArc
 50
270.0
 51
329.9999974427038
  0
LINE
  5
324
330
B7
100
AcDbEntity
  8
Folie _ 3
  6
Continuous
 62
     7
370
    20
100
AcDbLine
 10
197.4074487931372
 20
129.9234668381692
 30
0.0
 11
197.8300987727285
 21
130.5901334501983
 31
0.0
  0
ARC
  5
325
330
B7
100
AcDbEntity
  8
Folie _ 3
  6
Continuous
 62
     7
370
    20
100
AcDbCircle
 10
198.1187737829329
 20
130.423466823268
 30
0.0
 40
0.3333288181230383
100
AcDbArc
 50
30.00044020598454
 51
149.9999952245361
  0
LINE
  5
326
330
B7
100
AcDbEntity
  8
Folie _ 3
  6
Continuous
 62
     7
370
    20
100
AcDbLine
 10
198.4074487335325
 20
130.5901334501983
 30
0.0
 11
198.8300988323332
 21
129.9234668381692
 31
0.0
  0
ARC
  5
327
330
B7
100
AcDbEntity
  8
Folie _ 3
  6
Continuous
 62
     7
370
    20
100
AcDbCircle
 10
199.1187737829329
 20
130.0901334501983
 30
0.0
 40
0.3333331466701038
100
AcDbArc
 50
210.0000076799411
 51
270.0
  0
ARC
  5
328
330
B7
100
AcDbEntity
  8
Folie _ 3
  6
Continuous
 62
     7
370
    20
100
AcDbCircle
 10
199.1187737829329
 20
130.0901334501983
 30
0.0
 40
0.3333333134651184
100
AcDbArc
 50
270.0
 51
329.9999974427038
  0
LINE
  5
329
330
B7
100
AcDbEntity
  8
Folie _ 3
  6
Continuous
 62
     7
370
    20
100
AcDbLine
 10
199.4074487931372
 20
129.9234668381692
 30
0.0
 11
199.8300987727285
 21
130.5901334501983
 31
0.0
  0
ARC
  5
32A
330
B7
100
AcDbEntity
  8
Folie _ 3
  6
Continuous
 62
     7
370
    20
100
AcDbCircle
 10
200.1187737829329
 20
130.423466823268
 30
0.0
 40
0.3333288181230383
100
AcDbArc
 50
30.00044020598454
 51
149.9999952245361
  0
LINE
  5
32B
330
B7
100
AcDbEntity
  8
Folie _ 3
  6
Continuous
 62
     7
370
    20
100
AcDbLine
 10
200.4074487335325
 20
130.5901334501983
 30
0.0
 11
200.8300988323332
 21
129.9234668381692
 31
0.0
  0
ARC
  5
32C
330
B7
100
AcDbEntity
  8
Folie _ 3
  6
Continuous
 62
     7
370
    20
100
AcDbCircle
 10
201.1187737829329
 20
130.0901334501983
 30
0.0
 40
0.3333331466701038
100
AcDbArc
 50
210.0000076799411
 51
270.0
  0
ARC
  5
32D
330
B7
100
AcDbEntity
  8
Folie _ 3
  6
Continuous
 62
     7
370
    20
100
AcDbCircle
 10
201.1187737829329
 20
130.0901334501983
 30
0.0
 40
0.3333333134651184
100
AcDbArc
 50
270.0
 51
329.9999974427038
  0
LINE
  5
32E
330
B7
100
AcDbEntity
  8
Folie _ 3
  6
Continuous
 62
     7
370
    20
100
AcDbLine
 10
201.4074487931372
 20
129.9234668381692
 30
0.0
 11
201.8300987727285
 21
130.5901334501983
 31
0.0
  0
ARC
  5
32F
330
B7
100
AcDbEntity
  8
Folie _ 3
  6
Continuous
 62
     7
370
    20
100
AcDbCircle
 10
202.1187737829329
 20
130.423466823268
 30
0.0
 40
0.3333288181230383
100
AcDbArc
 50
30.00044020598454
 51
149.9999952245361
  0
LINE
  5
330
330
B7
100
AcDbEntity
  8
Folie _ 3
  6
Continuous
 62
     7
370
    20
100
AcDbLine
 10
202.4074487335325
 20
130.5901334501983
 30
0.0
 11
202.8300988323332
 21
129.9234668381692
 31
0.0
  0
ARC
  5
331
330
B7
100
AcDbEntity
  8
Folie _ 3
  6
Continuous
 62
     7
370
    20
100
AcDbCircle
 10
203.1187737829329
 20
130.0901334501983
 30
0.0
 40
0.3333331466701038
100
AcDbArc
 50
210.0000076799411
 51
270.0
  0
ARC
  5
332
330
B7
100
AcDbEntity
  8
Folie _ 3
  6
Continuous
 62
     7
370
    20
100
AcDbCircle
 10
203.1187737829329
 20
130.0901334501983
 30
0.0
 40
0.3333333134651184
100
AcDbArc
 50
270.0
 51
329.9999974427038
  0
LINE
  5
333
330
B7
100
AcDbEntity
  8
Folie _ 3
  6
Continuous
 62
     7
370
    20
100
AcDbLine
 10
203.4074487931373
 20
129.9234668381692
 30
0.0
 11
203.8300987727287
 21
130.5901334501983
 31
0.0
  0
ARC
  5
334
330
B7
100
AcDbEntity
  8
Folie _ 3
  6
Continuous
 62
     7
370
    20
100
AcDbCircle
 10
204.118773782933
 20
130.423466823268
 30
0.0
 40
0.3333288181230383
100
AcDbArc
 50
30.00044020598454
 51
149.9999952245361
  0
LINE
  5
335
330
B7
100
AcDbEntity
  8
Folie _ 3
  6
Continuous
 62
     7
370
    20
100
AcDbLine
 10
204.4074487335327
 20
130.5901334501983
 30
0.0
 11
204.8300988323334
 21
129.9234668381692
 31
0.0
  0
ARC
  5
336
330
B7
100
AcDbEntity
  8
Folie _ 3
  6
Continuous
 62
     7
370
    20
100
AcDbCircle
 10
205.118773782933
 20
130.0901334501983
 30
0.0
 40
0.3333331466701038
100
AcDbArc
 50
210.0000076799411
 51
270.0
  0
ARC
  5
337
330
B7
100
AcDbEntity
  8
Folie _ 3
  6
Continuous
 62
     7
370
    20
100
AcDbCircle
 10
205.118773782933
 20
130.0901334501983
 30
0.0
 40
0.3333333134651184
100
AcDbArc
 50
270.0
 51
329.9999974427038
  0
LINE
  5
338
330
B7
100
AcDbEntity
  8
Folie _ 3
  6
Continuous
 62
     7
370
    20
100
AcDbLine
 10
205.4074487931373
 20
129.9234668381692
 30
0.0
 11
205.8300987727287
 21
130.5901334501983
 31
0.0
  0
ARC
  5
339
330
B7
100
AcDbEntity
  8
Folie _ 3
  6
Continuous
 62
     7
370
    20
100
AcDbCircle
 10
206.118773782933
 20
130.423466823268
 30
0.0
 40
0.3333288181230383
100
AcDbArc
 50
30.00044020598454
 51
149.9999952245361
  0
LINE
  5
33A
330
B7
100
AcDbEntity
  8
Folie _ 3
  6
Continuous
 62
     7
370
    20
100
AcDbLine
 10
206.4074487335327
 20
130.5901334501983
 30
0.0
 11
206.8300988323334
 21
129.9234668381692
 31
0.0
  0
ARC
  5
33B
330
B7
100
AcDbEntity
  8
Folie _ 3
  6
Continuous
 62
     7
370
    20
100
AcDbCircle
 10
207.118773782933
 20
130.0901334501983
 30
0.0
 40
0.3333331466701038
100
AcDbArc
 50
210.0000076799411
 51
270.0
  0
ARC
  5
33C
330
B7
100
AcDbEntity
  8
Folie _ 3
  6
Continuous
 62
     7
370
    20
100
AcDbCircle
 10
207.118773782933
 20
130.0901334501983
 30
0.0
 40
0.3333333134651184
100
AcDbArc
 50
270.0
 51
329.9999974427038
  0
LINE
  5
33D
330
B7
100
AcDbEntity
  8
Folie _ 3
  6
Continuous
 62
     7
370
    20
100
AcDbLine
 10
207.4074487931373
 20
129.9234668381692
 30
0.0
 11
207.8300987727287
 21
130.5901334501983
 31
0.0
  0
ARC
  5
33E
330
B7
100
AcDbEntity
  8
Folie _ 3
  6
Continuous
 62
     7
370
    20
100
AcDbCircle
 10
208.118773782933
 20
130.423466823268
 30
0.0
 40
0.3333288181230383
100
AcDbArc
 50
30.00044020598454
 51
149.9999952245361
  0
LINE
  5
33F
330
B7
100
AcDbEntity
  8
Folie _ 3
  6
Continuous
 62
     7
370
    20
100
AcDbLine
 10
208.4074487335327
 20
130.5901334501983
 30
0.0
 11
208.8300988323334
 21
129.9234668381692
 31
0.0
  0
ARC
  5
340
330
B7
100
AcDbEntity
  8
Folie _ 3
  6
Continuous
 62
     7
370
    20
100
AcDbCircle
 10
209.118773782933
 20
130.0901334501983
 30
0.0
 40
0.3333331466701038
100
AcDbArc
 50
210.0000076799411
 51
270.0
  0
ARC
  5
341
330
B7
100
AcDbEntity
  8
Folie _ 3
  6
Continuous
 62
     7
370
    20
100
AcDbCircle
 10
209.118773782933
 20
130.0901334501983
 30
0.0
 40
0.3333333134651184
100
AcDbArc
 50
270.0
 51
329.9999974427038
  0
LINE
  5
342
330
B7
100
AcDbEntity
  8
Folie _ 3
  6
Continuous
 62
     7
370
    20
100
AcDbLine
 10
209.4074487931373
 20
129.9234668381692
 30
0.0
 11
209.8300987727287
 21
130.5901334501983
 31
0.0
  0
ARC
  5
343
330
B7
100
AcDbEntity
  8
Folie _ 3
  6
Continuous
 62
     7
370
    20
100
AcDbCircle
 10
210.118773782933
 20
130.423466823268
 30
0.0
 40
0.3333288181230383
100
AcDbArc
 50
30.00044020598454
 51
149.9999952245361
  0
LINE
  5
344
330
B7
100
AcDbEntity
  8
Folie _ 3
  6
Continuous
 62
     7
370
    20
100
AcDbLine
 10
210.4074487335327
 20
130.5901334501983
 30
0.0
 11
210.8300988323334
 21
129.9234668381692
 31
0.0
  0
ARC
  5
345
330
B7
100
AcDbEntity
  8
Folie _ 3
  6
Continuous
 62
     7
370
    20
100
AcDbCircle
 10
211.118773782933
 20
130.0901334501983
 30
0.0
 40
0.3333331466701038
100
AcDbArc
 50
210.0000076799411
 51
270.0
  0
ARC
  5
346
330
B7
100
AcDbEntity
  8
Folie _ 3
  6
Continuous
 62
     7
370
    20
100
AcDbCircle
 10
211.118773782933
 20
130.0901334501983
 30
0.0
 40
0.3333333134651184
100
AcDbArc
 50
270.0
 51
329.9999974427038
  0
LINE
  5
347
330
B7
100
AcDbEntity
  8
Folie _ 3
  6
Continuous
 62
     7
370
    20
100
AcDbLine
 10
211.4074487931375
 20
129.9234668381692
 30
0.0
 11
211.8300987727289
 21
130.5901334501983
 31
0.0
  0
ARC
  5
348
330
B7
100
AcDbEntity
  8
Folie _ 3
  6
Continuous
 62
     7
370
    20
100
AcDbCircle
 10
212.1187737829332
 20
130.423466823268
 30
0.0
 40
0.3333288181230383
100
AcDbArc
 50
30.00044020598454
 51
149.9999952245361
  0
LINE
  5
349
330
B7
100
AcDbEntity
  8
Folie _ 3
  6
Continuous
 62
     7
370
    20
100
AcDbLine
 10
212.4074487335329
 20
130.5901334501983
 30
0.0
 11
212.8300988323335
 21
129.9234668381692
 31
0.0
  0
ARC
  5
34A
330
B7
100
AcDbEntity
  8
Folie _ 3
  6
Continuous
 62
     7
370
    20
100
AcDbCircle
 10
213.1187737829332
 20
130.0901334501983
 30
0.0
 40
0.3333331466701038
100
AcDbArc
 50
210.0000076799411
 51
270.0
  0
ARC
  5
34B
330
B7
100
AcDbEntity
  8
Folie _ 3
  6
Continuous
 62
     7
370
    20
100
AcDbCircle
 10
213.1187737829332
 20
130.0901334501983
 30
0.0
 40
0.3333333134651184
100
AcDbArc
 50
270.0
 51
329.9999974427038
  0
LINE
  5
34C
330
B7
100
AcDbEntity
  8
Folie _ 3
  6
Continuous
 62
     7
370
    20
100
AcDbLine
 10
213.4074487931375
 20
129.9234668381692
 30
0.0
 11
213.8300987727289
 21
130.5901334501983
 31
0.0
  0
ARC
  5
34D
330
B7
100
AcDbEntity
  8
Folie _ 3
  6
Continuous
 62
     7
370
    20
100
AcDbCircle
 10
214.1187737829332
 20
130.423466823268
 30
0.0
 40
0.3333288181230383
100
AcDbArc
 50
30.00044020598454
 51
149.9999952245361
  0
LINE
  5
34E
330
B7
100
AcDbEntity
  8
Folie _ 3
  6
Continuous
 62
     7
370
    20
100
AcDbLine
 10
214.4074487335329
 20
130.5901334501983
 30
0.0
 11
214.8300988323335
 21
129.9234668381692
 31
0.0
  0
ARC
  5
34F
330
B7
100
AcDbEntity
  8
Folie _ 3
  6
Continuous
 62
     7
370
    20
100
AcDbCircle
 10
215.1187737829332
 20
130.0901334501983
 30
0.0
 40
0.3333331466701038
100
AcDbArc
 50
210.0000076799411
 51
270.0
  0
ARC
  5
350
330
B7
100
AcDbEntity
  8
Folie _ 3
  6
Continuous
 62
     7
370
    20
100
AcDbCircle
 10
215.1187737829332
 20
130.0901334501983
 30
0.0
 40
0.3333333134651184
100
AcDbArc
 50
270.0
 51
329.9999974427038
  0
LINE
  5
351
330
B7
100
AcDbEntity
  8
Folie _ 3
  6
Continuous
 62
     7
370
    20
100
AcDbLine
 10
215.4074487931375
 20
129.9234668381692
 30
0.0
 11
215.8300987727289
 21
130.5901334501983
 31
0.0
  0
ARC
  5
352
330
B7
100
AcDbEntity
  8
Folie _ 3
  6
Continuous
 62
     7
370
    20
100
AcDbCircle
 10
216.1187737829332
 20
130.423466823268
 30
0.0
 40
0.3333288181230383
100
AcDbArc
 50
30.00044020598454
 51
149.9999952245361
  0
LINE
  5
353
330
B7
100
AcDbEntity
  8
Folie _ 3
  6
Continuous
 62
     7
370
    20
100
AcDbLine
 10
216.4074487335329
 20
130.5901334501983
 30
0.0
 11
216.8300988323335
 21
129.9234668381692
 31
0.0
  0
ARC
  5
354
330
B7
100
AcDbEntity
  8
Folie _ 3
  6
Continuous
 62
     7
370
    20
100
AcDbCircle
 10
217.1187737829332
 20
130.0901334501983
 30
0.0
 40
0.3333331466701038
100
AcDbArc
 50
210.0000076799411
 51
270.0
  0
ARC
  5
355
330
B7
100
AcDbEntity
  8
Folie _ 3
  6
Continuous
 62
     7
370
    20
100
AcDbCircle
 10
217.1187737829332
 20
130.0901334501983
 30
0.0
 40
0.3333333134651184
100
AcDbArc
 50
270.0
 51
329.9999974427038
  0
LINE
  5
356
330
B7
100
AcDbEntity
  8
Folie _ 3
  6
Continuous
 62
     7
370
    20
100
AcDbLine
 10
217.4074487931375
 20
129.9234668381692
 30
0.0
 11
217.8300987727289
 21
130.5901334501983
 31
0.0
  0
ARC
  5
357
330
B7
100
AcDbEntity
  8
Folie _ 3
  6
Continuous
 62
     7
370
    20
100
AcDbCircle
 10
218.1187737829332
 20
130.423466823268
 30
0.0
 40
0.3333288181230383
100
AcDbArc
 50
30.00044020598454
 51
149.9999952245361
  0
LINE
  5
358
330
B7
100
AcDbEntity
  8
Folie _ 3
  6
Continuous
 62
     7
370
    20
100
AcDbLine
 10
218.4074487335329
 20
130.5901334501983
 30
0.0
 11
218.8300988323335
 21
129.9234668381692
 31
0.0
  0
ARC
  5
359
330
B7
100
AcDbEntity
  8
Folie _ 3
  6
Continuous
 62
     7
370
    20
100
AcDbCircle
 10
219.1187737829332
 20
130.0901334501983
 30
0.0
 40
0.3333331466701038
100
AcDbArc
 50
210.0000076799411
 51
270.0
  0
ARC
  5
35A
330
B7
100
AcDbEntity
  8
Folie _ 3
  6
Continuous
 62
     7
370
    20
100
AcDbCircle
 10
219.1187737829332
 20
130.0901334501983
 30
0.0
 40
0.3333333134651184
100
AcDbArc
 50
270.0
 51
329.9999974427038
  0
LINE
  5
35B
330
B7
100
AcDbEntity
  8
Folie _ 3
  6
Continuous
 62
     7
370
    20
100
AcDbLine
 10
219.4074487931375
 20
129.9234668381692
 30
0.0
 11
219.8300987727289
 21
130.5901334501983
 31
0.0
  0
ARC
  5
35C
330
B7
100
AcDbEntity
  8
Folie _ 3
  6
Continuous
 62
     7
370
    20
100
AcDbCircle
 10
220.1187737829332
 20
130.423466823268
 30
0.0
 40
0.3333288181230383
100
AcDbArc
 50
30.00044020598454
 51
149.9999952245361
  0
LINE
  5
35D
330
B7
100
AcDbEntity
  8
Folie _ 3
  6
Continuous
 62
     7
370
    20
100
AcDbLine
 10
220.4074487335329
 20
130.5901334501983
 30
0.0
 11
220.8300988323335
 21
129.9234668381692
 31
0.0
  0
ARC
  5
35E
330
B7
100
AcDbEntity
  8
Folie _ 3
  6
Continuous
 62
     7
370
    20
100
AcDbCircle
 10
221.1187737829332
 20
130.0901334501983
 30
0.0
 40
0.3333331466701192
100
AcDbArc
 50
210.0000076799395
 51
270.0
  0
ARC
  5
35F
330
B7
100
AcDbEntity
  8
Folie _ 3
  6
Continuous
 62
     7
370
    20
100
AcDbCircle
 10
221.1187737829332
 20
130.0901334501983
 30
0.0
 40
0.3333333134651184
100
AcDbArc
 50
270.0
 51
329.9999974427008
  0
LINE
  5
360
330
B7
100
AcDbEntity
  8
Folie _ 3
  6
Continuous
 62
     7
370
    20
100
AcDbLine
 10
221.4074487931375
 20
129.9234668381692
 30
0.0
 11
221.8300987727289
 21
130.5901334501983
 31
0.0
  0
ARC
  5
361
330
B7
100
AcDbEntity
  8
Folie _ 3
  6
Continuous
 62
     7
370
    20
100
AcDbCircle
 10
222.1187737829332
 20
130.423466823268
 30
0.0
 40
0.3333288181230076
100
AcDbArc
 50
30.00044020598759
 51
149.9999952245391
  0
LINE
  5
362
330
B7
100
AcDbEntity
  8
Folie _ 3
  6
Continuous
 62
     7
370
    20
100
AcDbLine
 10
222.4074487335329
 20
130.5901334501983
 30
0.0
 11
222.8300988323335
 21
129.9234668381692
 31
0.0
  0
ARC
  5
363
330
B7
100
AcDbEntity
  8
Folie _ 3
  6
Continuous
 62
     7
370
    20
100
AcDbCircle
 10
223.1187737829332
 20
130.0901334501983
 30
0.0
 40
0.3333331466701192
100
AcDbArc
 50
210.0000076799395
 51
270.0
  0
ARC
  5
364
330
B7
100
AcDbEntity
  8
Folie _ 3
  6
Continuous
 62
     7
370
    20
100
AcDbCircle
 10
223.1187737829332
 20
130.0901334501983
 30
0.0
 40
0.3333333134651184
100
AcDbArc
 50
270.0
 51
329.9999974427008
  0
LINE
  5
365
330
B7
100
AcDbEntity
  8
Folie _ 3
  6
Continuous
 62
     7
370
    20
100
AcDbLine
 10
223.4074487931375
 20
129.9234668381692
 30
0.0
 11
223.8300987727289
 21
130.5901334501983
 31
0.0
  0
ARC
  5
366
330
B7
100
AcDbEntity
  8
Folie _ 3
  6
Continuous
 62
     7
370
    20
100
AcDbCircle
 10
224.1187737829332
 20
130.423466823268
 30
0.0
 40
0.3333288181230076
100
AcDbArc
 50
30.00044020598759
 51
149.9999952245391
  0
LINE
  5
367
330
B7
100
AcDbEntity
  8
Folie _ 3
  6
Continuous
 62
     7
370
    20
100
AcDbLine
 10
224.4074487335329
 20
130.5901334501983
 30
0.0
 11
224.8300988323335
 21
129.9234668381692
 31
0.0
  0
ARC
  5
368
330
B7
100
AcDbEntity
  8
Folie _ 3
  6
Continuous
 62
     7
370
    20
100
AcDbCircle
 10
225.1187737829332
 20
130.0901334501983
 30
0.0
 40
0.3333331466701192
100
AcDbArc
 50
210.0000076799395
 51
270.0
  0
ARC
  5
369
330
B7
100
AcDbEntity
  8
Folie _ 3
  6
Continuous
 62
     7
370
    20
100
AcDbCircle
 10
225.1187737829332
 20
130.0901334501983
 30
0.0
 40
0.3333333134651184
100
AcDbArc
 50
270.0
 51
329.9999974427008
  0
LINE
  5
36A
330
B7
100
AcDbEntity
  8
Folie _ 3
  6
Continuous
 62
     7
370
    20
100
AcDbLine
 10
225.4074487931375
 20
129.9234668381692
 30
0.0
 11
225.8300987727289
 21
130.5901334501983
 31
0.0
  0
ARC
  5
36B
330
B7
100
AcDbEntity
  8
Folie _ 3
  6
Continuous
 62
     7
370
    20
100
AcDbCircle
 10
226.1187737829332
 20
130.423466823268
 30
0.0
 40
0.3333288181230076
100
AcDbArc
 50
30.00044020598759
 51
149.9999952245391
  0
LINE
  5
36C
330
B7
100
AcDbEntity
  8
Folie _ 3
  6
Continuous
 62
     7
370
    20
100
AcDbLine
 10
226.4074487335329
 20
130.5901334501983
 30
0.0
 11
226.8300988323335
 21
129.9234668381692
 31
0.0
  0
ARC
  5
36D
330
B7
100
AcDbEntity
  8
Folie _ 3
  6
Continuous
 62
     7
370
    20
100
AcDbCircle
 10
227.1187737829332
 20
130.0901334501983
 30
0.0
 40
0.3333331466701192
100
AcDbArc
 50
210.0000076799395
 51
270.0
  0
ARC
  5
36E
330
B7
100
AcDbEntity
  8
Folie _ 3
  6
Continuous
 62
     7
370
    20
100
AcDbCircle
 10
227.1187737829332
 20
130.0901334501983
 30
0.0
 40
0.3333333134651184
100
AcDbArc
 50
270.0
 51
329.9999974427008
  0
LINE
  5
36F
330
B7
100
AcDbEntity
  8
Folie _ 3
  6
Continuous
 62
     7
370
    20
100
AcDbLine
 10
227.4074487931375
 20
129.9234668381692
 30
0.0
 11
227.8300987727289
 21
130.5901334501983
 31
0.0
  0
ARC
  5
370
330
B7
100
AcDbEntity
  8
Folie _ 3
  6
Continuous
 62
     7
370
    20
100
AcDbCircle
 10
228.1187737829334
 20
130.423466823268
 30
0.0
 40
0.3333288181230076
100
AcDbArc
 50
30.00044020598759
 51
149.9999952245391
  0
LINE
  5
371
330
B7
100
AcDbEntity
  8
Folie _ 3
  6
Continuous
 62
     7
370
    20
100
AcDbLine
 10
228.4074487335329
 20
130.5901334501983
 30
0.0
 11
228.8300988323335
 21
129.9234668381692
 31
0.0
  0
ARC
  5
372
330
B7
100
AcDbEntity
  8
Folie _ 3
  6
Continuous
 62
     7
370
    20
100
AcDbCircle
 10
229.1187737829334
 20
130.0901334501983
 30
0.0
 40
0.3333331466701192
100
AcDbArc
 50
210.0000076799395
 51
270.0
  0
ARC
  5
373
330
B7
100
AcDbEntity
  8
Folie _ 3
  6
Continuous
 62
     7
370
    20
100
AcDbCircle
 10
229.1187737829334
 20
130.0901334501983
 30
0.0
 40
0.3333333134651184
100
AcDbArc
 50
270.0
 51
329.9999974427008
  0
LINE
  5
374
330
B7
100
AcDbEntity
  8
Folie _ 3
  6
Continuous
 62
     7
370
    20
100
AcDbLine
 10
229.4074487931375
 20
129.9234668381692
 30
0.0
 11
229.8300987727289
 21
130.5901334501983
 31
0.0
  0
ARC
  5
375
330
B7
100
AcDbEntity
  8
Folie _ 3
  6
Continuous
 62
     7
370
    20
100
AcDbCircle
 10
230.1187737829334
 20
130.423466823268
 30
0.0
 40
0.3333288181230076
100
AcDbArc
 50
52.24595919603981
 51
149.9999952245391
  0
ENDBLK
  5
378
330
B7
100
AcDbEntity
  8
0
100
AcDbBlockEnd
  0
ENDSEC
  0
SECTION
  2
ENTITIES
  0
INSERT
  5
B0
330
1F
100
AcDbEntity
  8
00_Allgemein
  6
Continuous
 62
     7
370
     0
100
AcDbBlockReference
  2
printlayout(id_1)
 10
0.0
 20
0.0
 30
0.0
  0
INSERT
  5
376
330
1F
100
AcDbEntity
  8
34_Gruppe
  6
Continuous
 62
     7
370
     0
100
AcDbBlockReference
  2
dokument alle 2d details_asc(id_4)
 10
0.0
 20
0.0
 30
0.0
  0
IMAGE
  5
37A
330
1F
100
AcDbEntity
  8
37_Bilder
  6
Continuous
 62
     7
370
     0
160
               140
310
8C00000001000000840000000600000005000000663F38DD7DC76E40807D7E0819A431400000000000000000B31F9CDEEF237240807D7E0819A431400000000000000000B31F9CDEEF237240C03E3F74D92D40400000000000000000663F38DD7DC76E40C03E3F74D92D40400000000000000000663F38DD7DC76E40807D7E
310
0819A431400000000000000000
100
AcDbRasterImage
 90
        0
 10
246.2341142748439
 20
17.64100697601452
 30
0.0
 11
0.0279263627105558
 21
0.0
 31
0.0
 12
0.0
 22
0.02792635995477608
 32
0.0
 13
1576.0
 23
527.0
340
379
 70
     3
280
     0
281
    50
282
    50
283
     0
360
37B
 71
     1
 91
        2
 14
-0.5
 24
-0.5
 14
1575.5
 24
526.5
290
     0
  0
ENDSEC
  0
SECTION
  2
OBJECTS
  0
DICTIONARY
  5
C
330
0
100
AcDbDictionary
281
     1
  3
ACAD_GROUP
350
D
  3
ACAD_IMAGE_DICT
350
B3
  3
ACAD_LAYOUT
350
1A
  3
ACAD_MATERIAL
350
3B
  3
ACAD_MLEADERSTYLE
350
37D
  3
ACAD_MLINESTYLE
350
17
  3
ACAD_PLOTSETTINGS
350
19
  3
ACAD_PLOTSTYLENAME
350
E
  3
ACAD_TABLESTYLE
350
37C
  3
ACAD_VISUALSTYLE
350
2A
  0
IMAGEDEF_REACTOR
  5
37B
330
37A
100
AcDbRasterImageDefReactor
 90
        2
330
37A
  0
DICTIONARY
  5
D
102
{ACAD_REACTORS
330
C
102
}
330
C
100
AcDbDictionary
281
     1
  0
DICTIONARY
  5
B3
102
{ACAD_REACTORS
330
C
102
}
330
C
100
AcDbDictionary
281
     1
  3
Image0
350
B4
  3
Image1
350
379
  0
DICTIONARY
  5
1A
102
{ACAD_REACTORS
330
C
102
}
330
C
100
AcDbDictionary
281
     1
  3
Layout1
350
1E
  3
Layout2
350
26
  3
Model
350
22
  0
DICTIONARY
  5
3B
102
{ACAD_REACTORS
330
C
102
}
330
C
100
AcDbDictionary
281
     1
  3
ByBlock
350
3D
  3
ByLayer
350
3C
  3
Global
350
3E
  0
DICTIONARY
  5
37D
102
{ACAD_REACTORS
330
C
102
}
330
C
100
AcDbDictionary
281
     1
  0
DICTIONARY
  5
17
102
{ACAD_REACTORS
330
C
102
}
330
C
100
AcDbDictionary
281
     1
  3
Standard
350
18
  0
DICTIONARY
  5
19
102
{ACAD_REACTORS
330
C
102
}
330
C
100
AcDbDictionary
281
     1
  0
ACDBDICTIONARYWDFLT
  5
E
102
{ACAD_REACTORS
330
C
102
}
330
C
100
AcDbDictionary
281
     1
  3
Normal
350
F
100
AcDbDictionaryWithDefault
340
F
  0
DICTIONARY
  5
37C
102
{ACAD_REACTORS
330
C
102
}
330
C
100
AcDbDictionary
281
     1
  0
DICTIONARY
  5
2A
102
{ACAD_REACTORS
330
C
102
}
330
C
100
AcDbDictionary
281
     1
  3
2dWireframe
350
2F
  3
3D Hidden
350
31
  3
3dWireframe
350
30
  3
Basic
350
32
  3
Brighten
350
36
  3
ColorChange
350
3A
  3
Conceptual
350
34
  3
Dim
350
35
  3
Facepattern
350
39
  3
Flat
350
2B
  3
FlatWithEdges
350
2C
  3
Gouraud
350
2D
  3
GouraudWithEdges
350
2E
  3
Linepattern
350
38
  3
Realistic
350
33
  3
Thicken
350
37
  0
IMAGEDEF
  5
B4
102
{ACAD_REACTORS
330
B3
102
}
330
B3
100
AcDbRasterImageDef
 90
        0
  1
__ID2_Coverit+www.bmp
 10
1576.0
 20
527.0
 11
0.0006345177664974619
 21
0.0006345177664974619
280
     1
281
     1
  0
IMAGEDEF
  5
379
102
{ACAD_REACTORS
330
B3
330
37B
102
}
330
B3
100
AcDbRasterImageDef
 90
        0
  1
__ID2_Coverit+www.bmp
 10
1576.0
 20
527.0
 11
0.0006345177664974619
 21
0.0006345177664974619
280
     1
281
     1
  0
LAYOUT
  5
1E
102
{ACAD_REACTORS
330
1A
102
}
330
1A
100
AcDbPlotSettings
  1

  2
none_device
  4

  6

 40
0.0
 41
0.0
 42
0.0
 43
0.0
 44
0.0
 45
0.0
 46
0.0
 47
0.0
 48
0.0
 49
0.0
140
0.0
141
0.0
142
1.0
143
1.0
 70
   688
 72
     0
 73
     0
 74
     5
  7

 75
    16
 76
     0
 77
     2
 78
   300
147
1.0
148
0.0
149
0.0
100
AcDbLayout
  1
Layout1
 70
     1
 71
     1
 10
0.0
 20
0.0
 11
12.0
 21
9.0
 12
0.0
 22
0.0
 32
0.0
 14
1.000000000000000E+20
 24
1.000000000000000E+20
 34
1.000000000000000E+20
 15
-1.000000000000000E+20
 25
-1.000000000000000E+20
 35
-1.000000000000000E+20
146
0.0
 13
0.0
 23
0.0
 33
0.0
 16
1.0
 26
0.0
 36
0.0
 17
0.0
 27
1.0
 37
0.0
 76
     0
330
1B
  0
LAYOUT
  5
26
102
{ACAD_REACTORS
330
1A
102
}
330
1A
100
AcDbPlotSettings
  1

  2
none_device
  4

  6

 40
0.0
 41
0.0
 42
0.0
 43
0.0
 44
0.0
 45
0.0
 46
0.0
 47
0.0
 48
0.0
 49
0.0
140
0.0
141
0.0
142
1.0
143
1.0
 70
   688
 72
     0
 73
     0
 74
     5
  7

 75
    16
 76
     0
 77
     2
 78
   300
147
1.0
148
0.0
149
0.0
100
AcDbLayout
  1
Layout2
 70
     1
 71
     2
 10
0.0
 20
0.0
 11
0.0
 21
0.0
 12
0.0
 22
0.0
 32
0.0
 14
0.0
 24
0.0
 34
0.0
 15
0.0
 25
0.0
 35
0.0
146
0.0
 13
0.0
 23
0.0
 33
0.0
 16
1.0
 26
0.0
 36
0.0
 17
0.0
 27
1.0
 37
0.0
 76
     0
330
23
  0
LAYOUT
  5
22
102
{ACAD_REACTORS
330
1A
102
}
330
1A
100
AcDbPlotSettings
  1

  2
none_device
  4

  6

 40
0.0
 41
0.0
 42
0.0
 43
0.0
 44
0.0
 45
0.0
 46
0.0
 47
0.0
 48
0.0
 49
0.0
140
0.0
141
0.0
142
1.0
143
1.0
 70
  1712
 72
     0
 73
     0
 74
     0
  7

 75
     0
 76
     0
 77
     2
 78
   300
147
1.0
148
0.0
149
0.0
100
AcDbLayout
  1
Model
 70
     1
 71
     0
 10
0.0
 20
0.0
 11
12.0
 21
9.0
 12
0.0
 22
0.0
 32
0.0
 14
-0.0000000000001705
 24
0.0
 34
0.0
 15
297.0
 25
210.0
 35
0.0
146
0.0
 13
0.0
 23
0.0
 33
0.0
 16
1.0
 26
0.0
 36
0.0
 17
0.0
 27
1.0
 37
0.0
 76
     0
330
1F
331
29
  0
MATERIAL
  5
3D
102
{ACAD_REACTORS
330
3B
102
}
330
3B
100
AcDbMaterial
  1
ByBlock
 72
     1
 94
      127
  0
MATERIAL
  5
3C
102
{ACAD_REACTORS
330
3B
102
}
330
3B
100
AcDbMaterial
  1
ByLayer
 72
     1
 94
      127
  0
MATERIAL
  5
3E
102
{ACAD_REACTORS
330
3B
102
}
330
3B
100
AcDbMaterial
  1
Global
 72
     1
 94
      127
  0
MLINESTYLE
  5
18
102
{ACAD_REACTORS
330
17
102
}
330
17
100
AcDbMlineStyle
  2
Standard
 70
     0
  3

 62
   256
 51
90.0
 52
90.0
 71
     2
 49
0.5
 62
   256
  6
BYLAYER
 49
-0.5
 62
   256
  6
BYLAYER
  0
ACDBPLACEHOLDER
  5
F
102
{ACAD_REACTORS
330
E
102
}
330
E
  0
VISUALSTYLE
  5
2F
102
{ACAD_REACTORS
330
2A
102
}
330
2A
100
AcDbVisualStyle
  2
2dWireframe
 70
     4
177
     2
291
     0
 71
     0
176
     1
 72
     2
176
     1
 73
     0
176
     1
 90
        0
176
     1
 40
-0.6
176
     1
 41
-30.0
176
     1
 62
     5
 63
     7
421
 16777215
176
     1
 74
     1
176
     1
 91
        4
176
     1
 64
     7
176
     1
 65
   257
176
     1
 75
     1
176
     1
175
     1
176
     1
 42
1.0
176
     1
 92
        0
176
     1
 66
   257
176
     1
 43
1.0
176
     1
 76
     1
176
     1
 77
     6
176
     1
 78
     2
176
     1
 67
     7
176
     1
 79
     5
176
     1
170
     0
176
     1
171
     0
176
     1
290
     0
176
     1
 93
        1
176
     1
 44
0.0
176
     1
173
     0
176
     1
  0
VISUALSTYLE
  5
31
102
{ACAD_REACTORS
330
2A
102
}
330
2A
100
AcDbVisualStyle
  2
3D Hidden
 70
     6
177
     2
291
     0
 71
     1
176
     1
 72
     2
176
     1
 73
     2
176
     1
 90
        0
176
     1
 40
-0.6
176
     1
 41
-30.0
176
     1
 62
     5
 63
     7
421
 16777215
176
     1
 74
     2
176
     1
 91
        2
176
     1
 64
     7
176
     1
 65
   257
176
     1
 75
     2
176
     1
175
     1
176
     1
 42
40.0
176
     1
 92
        0
176
     1
 66
   257
176
     1
 43
1.0
176
     1
 76
     1
176
     1
 77
     6
176
     1
 78
     2
176
     1
 67
     7
176
     1
 79
     3
176
     1
170
     0
176
     1
171
     0
176
     1
290
     0
176
     1
 93
        1
176
     1
 44
0.0
176
     1
173
     0
176
     1
  0
VISUALSTYLE
  5
30
102
{ACAD_REACTORS
330
2A
102
}
330
2A
100
AcDbVisualStyle
  2
3dWireframe
 70
     5
177
     2
291
     0
 71
     0
176
     1
 72
     2
176
     1
 73
     0
176
     1
 90
        0
176
     1
 40
-0.6
176
     1
 41
-30.0
176
     1
 62
     5
 63
     7
421
 16777215
176
     1
 74
     1
176
     1
 91
        4
176
     1
 64
     7
176
     1
 65
   257
176
     1
 75
     1
176
     1
175
     1
176
     1
 42
1.0
176
     1
 92
        0
176
     1
 66
   257
176
     1
 43
1.0
176
     1
 76
     1
176
     1
 77
     6
176
     1
 78
     2
176
     1
 67
     7
176
     1
 79
     5
176
     1
170
     0
176
     1
171
     0
176
     1
290
     0
176
     1
 93
        1
176
     1
 44
0.0
176
     1
173
     0
176
     1
  0
VISUALSTYLE
  5
32
102
{ACAD_REACTORS
330
2A
102
}
330
2A
100
AcDbVisualStyle
  2
Basic
 70
     7
177
     2
291
     1
 71
     1
176
     1
 72
     0
176
     1
 73
     1
176
     1
 90
        0
176
     1
 40
-0.6
176
     1
 41
-30.0
176
     1
 62
     5
 63
     7
421
 16777215
176
     1
 74
     0
176
     1
 91
        4
176
     1
 64
     7
176
     1
 65
   257
176
     1
 75
     1
176
     1
175
     1
176
     1
 42
1.0
176
     1
 92
        8
176
     1
 66
     7
176
     1
 43
1.0
176
     1
 76
     1
176
     1
 77
     6
176
     1
 78
     2
176
     1
 67
     7
176
     1
 79
     5
176
     1
170
     0
176
     1
171
     0
176
     1
290
     0
176
     1
 93
        1
176
     1
 44
0.0
176
     1
173
     0
176
     1
  0
VISUALSTYLE
  5
36
102
{ACAD_REACTORS
330
2A
102
}
330
2A
100
AcDbVisualStyle
  2
Brighten
 70
    12
177
     2
291
     1
 71
     2
176
     1
 72
     2
176
     1
 73
     0
176
     1
 90
        0
176
     1
 40
-0.6
176
     1
 41
-30.0
176
     1
 62
     5
 63
     7
421
 16777215
176
     1
 74
     1
176
     1
 91
        4
176
     1
 64
     7
176
     1
 65
   257
176
     1
 75
     1
176
     1
175
     1
176
     1
 42
1.0
176
     1
 92
        8
176
     1
 66
     7
176
     1
 43
1.0
176
     1
 76
     1
176
     1
 77
     6
176
     1
 78
     2
176
     1
 67
     7
176
     1
 79
     5
176
     1
170
     0
176
     1
171
     0
176
     1
290
     0
176
     1
 93
        1
176
     1
 44
50.0
176
     1
173
     0
176
     1
  0
VISUALSTYLE
  5
3A
102
{ACAD_REACTORS
330
2A
102
}
330
2A
100
AcDbVisualStyle
  2
ColorChange
 70
    16
177
     2
291
     1
 71
     2
176
     1
 72
     2
176
     1
 73
     3
176
     1
 90
        0
176
     1
 40
-0.6
176
     1
 41
-30.0
176
     1
 62
     5
 63
     8
421
  8421504
176
     1
 74
     1
176
     1
 91
        4
176
     1
 64
     7
176
     1
 65
   257
176
     1
 75
     1
176
     1
175
     1
176
     1
 42
1.0
176
     1
 92
        8
176
     1
 66
     8
424
  8421504
176
     1
 43
1.0
176
     1
 76
     1
176
     1
 77
     6
176
     1
 78
     2
176
     1
 67
     7
176
     1
 79
     5
176
     1
170
     0
176
     1
171
     0
176
     1
290
     0
176
     1
 93
        1
176
     1
 44
0.0
176
     1
173
     0
176
     1
  0
VISUALSTYLE
  5
34
102
{ACAD_REACTORS
330
2A
102
}
330
2A
100
AcDbVisualStyle
  2
Conceptual
 70
     9
177
     2
291
     0
 71
     3
176
     1
 72
     2
176
     1
 73
     0
176
     1
 90
        0
176
     1
 40
-0.6
176
     1
 41
-30.0
176
     1
 62
     5
 63
     7
421
 16777215
176
     1
 74
     2
176
     1
 91
        2
176
     1
 64
     7
176
     1
 65
   257
176
     1
 75
     1
176
     1
175
     1
176
     1
 42
40.0
176
     1
 92
        8
176
     1
 66
     7
176
     1
 43
1.0
176
     1
 76
     1
176
     1
 77
     6
176
     1
 78
     2
176
     1
 67
     7
176
     1
 79
     3
176
     1
170
     0
176
     1
171
     0
176
     1
290
     0
176
     1
 93
        1
176
     1
 44
0.0
176
     1
173
     0
176
     1
  0
VISUALSTYLE
  5
35
102
{ACAD_REACTORS
330
2A
102
}
330
2A
100
AcDbVisualStyle
  2
Dim
 70
    11
177
     2
291
     1
 71
     2
176
     1
 72
     2
176
     1
 73
     0
176
     1
 90
        0
176
     1
 40
-0.6
176
     1
 41
-30.0
176
     1
 62
     5
 63
     7
421
 16777215
176
     1
 74
     1
176
     1
 91
        4
176
     1
 64
     7
176
     1
 65
   257
176
     1
 75
     1
176
     1
175
     1
176
     1
 42
1.0
176
     1
 92
        8
176
     1
 66
     7
176
     1
 43
1.0
176
     1
 76
     1
176
     1
 77
     6
176
     1
 78
     2
176
     1
 67
     7
176
     1
 79
     5
176
     1
170
     0
176
     1
171
     0
176
     1
290
     0
176
     1
 93
        1
176
     1
 44
-50.0
176
     1
173
     0
176
     1
  0
VISUALSTYLE
  5
39
102
{ACAD_REACTORS
330
2A
102
}
330
2A
100
AcDbVisualStyle
  2
Facepattern
 70
    15
177
     2
291
     1
 71
     2
176
     1
 72
     2
176
     1
 73
     0
176
     1
 90
        0
176
     1
 40
-0.6
176
     1
 41
-30.0
176
     1
 62
     5
 63
     7
421
 16777215
176
     1
 74
     1
176
     1
 91
        4
176
     1
 64
     7
176
     1
 65
   257
176
     1
 75
     1
176
     1
175
     1
176
     1
 42
1.0
176
     1
 92
        8
176
     1
 66
     7
176
     1
 43
1.0
176
     1
 76
     1
176
     1
 77
     6
176
     1
 78
     2
176
     1
 67
     7
176
     1
 79
     5
176
     1
170
     0
176
     1
171
     0
176
     1
290
     0
176
     1
 93
        1
176
     1
 44
0.0
176
     1
173
     0
176
     1
  0
VISUALSTYLE
  5
2B
102
{ACAD_REACTORS
330
2A
102
}
330
2A
100
AcDbVisualStyle
  2
Flat
 70
     0
177
     2
291
     1
 71
     2
176
     1
 72
     1
176
     1
 73
     1
176
     1
 90
        2
176
     1
 40
-0.6
176
     1
 41
30.0
176
     1
 62
     5
 63
     7
421
 16777215
176
     1
 74
     0
176
     1
 91
        4
176
     1
 64
     7
176
     1
 65
   257
176
     1
 75
     1
176
     1
175
     1
176
     1
 42
1.0
176
     1
 92
        8
176
     1
 66
     7
176
     1
 43
1.0
176
     1
 76
     1
176
     1
 77
     6
176
     1
 78
     2
176
     1
 67
     7
176
     1
 79
     5
176
     1
170
     0
176
     1
171
     0
176
     1
290
     0
176
     1
 93
       13
176
     1
 44
0.0
176
     1
173
     0
176
     1
  0
VISUALSTYLE
  5
2C
102
{ACAD_REACTORS
330
2A
102
}
330
2A
100
AcDbVisualStyle
  2
FlatWithEdges
 70
     1
177
     2
291
     1
 71
     2
176
     1
 72
     1
176
     1
 73
     1
176
     1
 90
        2
176
     1
 40
-0.6
176
     1
 41
30.0
176
     1
 62
     5
 63
     7
421
 16777215
176
     1
 74
     1
176
     1
 91
        4
176
     1
 64
     7
176
     1
 65
   257
176
     1
 75
     1
176
     1
175
     1
176
     1
 42
1.0
176
     1
 92
        0
176
     1
 66
   257
176
     1
 43
1.0
176
     1
 76
     1
176
     1
 77
     6
176
     1
 78
     2
176
     1
 67
     7
176
     1
 79
     5
176
     1
170
     0
176
     1
171
     0
176
     1
290
     0
176
     1
 93
       13
176
     1
 44
0.0
176
     1
173
     0
176
     1
  0
VISUALSTYLE
  5
2D
102
{ACAD_REACTORS
330
2A
102
}
330
2A
100
AcDbVisualStyle
  2
Gouraud
 70
     2
177
     2
291
     1
 71
     2
176
     1
 72
     2
176
     1
 73
     1
176
     1
 90
        2
176
     1
 40
-0.6
176
     1
 41
30.0
176
     1
 62
     5
 63
     7
421
 16777215
176
     1
 74
     0
176
     1
 91
        4
176
     1
 64
     7
176
     1
 65
   257
176
     1
 75
     1
176
     1
175
     1
176
     1
 42
1.0
176
     1
 92
        0
176
     1
 66
     7
176
     1
 43
1.0
176
     1
 76
     1
176
     1
 77
     6
176
     1
 78
     2
176
     1
 67
     7
176
     1
 79
     5
176
     1
170
     0
176
     1
171
     0
176
     1
290
     0
176
     1
 93
       13
176
     1
 44
0.0
176
     1
173
     0
176
     1
  0
VISUALSTYLE
  5
2E
102
{ACAD_REACTORS
330
2A
102
}
330
2A
100
AcDbVisualStyle
  2
GouraudWithEdges
 70
     3
177
     2
291
     1
 71
     2
176
     1
 72
     2
176
     1
 73
     1
176
     1
 90
        2
176
     1
 40
-0.6
176
     1
 41
30.0
176
     1
 62
     5
 63
     7
421
 16777215
176
     1
 74
     1
176
     1
 91
        4
176
     1
 64
     7
176
     1
 65
   257
176
     1
 75
     1
176
     1
175
     1
176
     1
 42
1.0
176
     1
 92
        0
176
     1
 66
   257
176
     1
 43
1.0
176
     1
 76
     1
176
     1
 77
     6
176
     1
 78
     2
176
     1
 67
     7
176
     1
 79
     5
176
     1
170
     0
176
     1
171
     0
176
     1
290
     0
176
     1
 93
       13
176
     1
 44
0.0
176
     1
173
     0
176
     1
  0
VISUALSTYLE
  5
38
102
{ACAD_REACTORS
330
2A
102
}
330
2A
100
AcDbVisualStyle
  2
Linepattern
 70
    14
177
     2
291
     1
 71
     2
176
     1
 72
     2
176
     1
 73
     0
176
     1
 90
        0
176
     1
 40
-0.6
176
     1
 41
-30.0
176
     1
 62
     5
 63
     7
421
 16777215
176
     1
 74
     1
176
     1
 91
        4
176
     1
 64
     7
176
     1
 65
   257
176
     1
 75
     7
176
     1
175
     7
176
     1
 42
1.0
176
     1
 92
        8
176
     1
 66
     7
176
     1
 43
1.0
176
     1
 76
     1
176
     1
 77
     6
176
     1
 78
     2
176
     1
 67
     7
176
     1
 79
     5
176
     1
170
     0
176
     1
171
     0
176
     1
290
     0
176
     1
 93
        1
176
     1
 44
0.0
176
     1
173
     0
176
     1
  0
VISUALSTYLE
  5
33
102
{ACAD_REACTORS
330
2A
102
}
330
2A
100
AcDbVisualStyle
  2
Realistic
 70
     8
177
     2
291
     0
 71
     2
176
     1
 72
     2
176
     1
 73
     0
176
     1
 90
        0
176
     1
 40
-0.6
176
     1
 41
-30.0
176
     1
 62
     5
 63
     7
421
 16777215
176
     1
 74
     1
176
     1
 91
        0
176
     1
 64
     7
176
     1
 65
   257
176
     1
 75
     1
176
     1
175
     1
176
     1
 42
1.0
176
     1
 92
        8
176
     1
 66
     8
424
  7895160
176
     1
 43
1.0
176
     1
 76
     1
176
     1
 77
     6
176
     1
 78
     2
176
     1
 67
     7
176
     1
 79
     5
176
     1
170
     0
176
     1
171
     0
176
     1
290
     0
176
     1
 93
       13
176
     1
 44
0.0
176
     1
173
     0
176
     1
  0
VISUALSTYLE
  5
37
102
{ACAD_REACTORS
330
2A
102
}
330
2A
100
AcDbVisualStyle
  2
Thicken
 70
    13
177
     2
291
     1
 71
     2
176
     1
 72
     2
176
     1
 73
     0
176
     1
 90
        0
176
     1
 40
-0.6
176
     1
 41
-30.0
176
     1
 62
     5
 63
     7
421
 16777215
176
     1
 74
     1
176
     1
 91
        4
176
     1
 64
     7
176
     1
 65
   257
176
     1
 75
     1
176
     1
175
     1
176
     1
 42
1.0
176
     1
 92
       12
176
     1
 66
     7
176
     1
 43
1.0
176
     1
 76
     1
176
     1
 77
     6
176
     1
 78
     2
176
     1
 67
     7
176
     1
 79
     5
176
     1
170
     0
176
     1
171
     0
176
     1
290
     0
176
     1
 93
        1
176
     1
 44
0.0
176
     1
173
     0
176
     1
  0
ENDSEC
  0
EOF
