  0
SECTION
  2
HEADER
  9
$ACADVER
  1
AC1024
  9
$ACADMAINTVER
 70
     6
  9
$DWGCODEPAGE
  3
ANSI_1252
  9
$COMMENTS
  1
File was created by ARCHline.XP2011
  9
$INSBASE
 10
0.0
 20
0.0
 30
0.0
  9
$EXTMIN
 10
-0.0000000000001137
 20
0.0
 30
0.0
  9
$EXTMAX
 10
297.0
 20
210.0
 30
0.0
  9
$LIMMIN
 10
0.0
 20
0.0
  9
$LIMMAX
 10
12.0
 20
9.0
  9
$ORTHOMODE
 70
     0
  9
$REGENMODE
 70
     1
  9
$FILLMODE
 70
     1
  9
$QTEXTMODE
 70
     0
  9
$MIRRTEXT
 70
     1
  9
$LTSCALE
 40
1.0
  9
$ATTMODE
 70
     1
  9
$TEXTSIZE
 40
0.2
  9
$TRACEWID
 40
0.05
  9
$TEXTSTYLE
  7
Standard
  9
$CLAYER
  8
0
  9
$CELTYPE
  6
ByLayer
  9
$CECOLOR
 62
   256
  9
$CELTSCALE
 40
1.0
  9
$DISPSILH
 70
     0
  9
$DIMSCALE
 40
1.0
  9
$DIMASZ
 40
0.18
  9
$DIMEXO
 40
0.0625
  9
$DIMDLI
 40
0.38
  9
$DIMRND
 40
0.0
  9
$DIMDLE
 40
0.0
  9
$DIMEXE
 40
0.18
  9
$DIMTP
 40
0.0
  9
$DIMTM
 40
0.0
  9
$DIMTXT
 40
0.18
  9
$DIMCEN
 40
0.09
  9
$DIMTSZ
 40
0.0
  9
$DIMTOL
 70
     0
  9
$DIMLIM
 70
     0
  9
$DIMTIH
 70
     1
  9
$DIMTOH
 70
     1
  9
$DIMSE1
 70
     0
  9
$DIMSE2
 70
     0
  9
$DIMTAD
 70
     0
  9
$DIMZIN
 70
     0
  9
$DIMBLK
  1

  9
$DIMASO
 70
     1
  9
$DIMSHO
 70
     1
  9
$DIMPOST
  1

  9
$DIMAPOST
  1

  9
$DIMALT
 70
     0
  9
$DIMALTD
 70
     2
  9
$DIMALTF
 40
25.4
  9
$DIMLFAC
 40
1.0
  9
$DIMTOFL
 70
     0
  9
$DIMTVP
 40
0.0
  9
$DIMTIX
 70
     0
  9
$DIMSOXD
 70
     0
  9
$DIMSAH
 70
     0
  9
$DIMBLK1
  1

  9
$DIMBLK2
  1

  9
$DIMSTYLE
  2
Standard
  9
$DIMCLRD
 70
     0
  9
$DIMCLRE
 70
     0
  9
$DIMCLRT
 70
     0
  9
$DIMTFAC
 40
1.0
  9
$DIMGAP
 40
0.09
  9
$DIMJUST
 70
     0
  9
$DIMSD1
 70
     0
  9
$DIMSD2
 70
     0
  9
$DIMTOLJ
 70
     1
  9
$DIMTZIN
 70
     0
  9
$DIMALTZ
 70
     0
  9
$DIMALTTZ
 70
     0
  9
$DIMUPT
 70
     0
  9
$DIMDEC
 70
     4
  9
$DIMTDEC
 70
     4
  9
$DIMALTU
 70
     2
  9
$DIMALTTD
 70
     2
  9
$DIMTXSTY
  7
Standard
  9
$DIMAUNIT
 70
     0
  9
$DIMADEC
 70
     0
  9
$DIMALTRND
 40
0.0
  9
$DIMAZIN
 70
     0
  9
$DIMDSEP
 70
    46
  9
$DIMATFIT
 70
     3
  9
$DIMFRAC
 70
     0
  9
$DIMLDRBLK
  1

  9
$DIMLUNIT
 70
     2
  9
$DIMLWD
 70
    -2
  9
$DIMLWE
 70
    -2
  9
$DIMTMOVE
 70
     0
  9
$DIMFXL
 40
1.0
  9
$DIMFXLON
 70
     0
  9
$DIMJOGANG
 40
0.7853981633974483
  9
$DIMTFILL
 70
     0
  9
$DIMTFILLCLR
 70
     0
  9
$DIMARCSYM
 70
     0
  9
$DIMLTYPE
  6

  9
$DIMLTEX1
  6

  9
$DIMLTEX2
  6

  9
$DIMTXTDIRECTION
 70
     0
  9
$LUNITS
 70
     2
  9
$LUPREC
 70
     4
  9
$SKETCHINC
 40
0.1
  9
$FILLETRAD
 40
0.5
  9
$AUNITS
 70
     0
  9
$AUPREC
 70
     0
  9
$MENU
  1
.
  9
$ELEVATION
 40
0.0
  9
$PELEVATION
 40
0.0
  9
$THICKNESS
 40
0.0
  9
$LIMCHECK
 70
     0
  9
$CHAMFERA
 40
0.5
  9
$CHAMFERB
 40
0.5
  9
$CHAMFERC
 40
1.0
  9
$CHAMFERD
 40
0.0
  9
$SKPOLY
 70
     0
  9
$TDCREATE
 40
2457528.403783148
  9
$TDUCREATE
 40
2457528.320449815
  9
$TDUPDATE
 40
2457528.403796933
  9
$TDUUPDATE
 40
2457528.3204636
  9
$TDINDWG
 40
0.0000000116
  9
$TDUSRTIMER
 40
0.0000000116
  9
$USRTIMER
 70
     1
  9
$ANGBASE
 50
0.0
  9
$ANGDIR
 70
     0
  9
$PDMODE
 70
     0
  9
$PDSIZE
 40
0.0
  9
$PLINEWID
 40
0.0
  9
$SPLFRAME
 70
     0
  9
$SPLINETYPE
 70
     6
  9
$SPLINESEGS
 70
     8
  9
$HANDSEED
  5
20A
  9
$SURFTAB1
 70
     6
  9
$SURFTAB2
 70
     6
  9
$SURFTYPE
 70
     6
  9
$SURFU
 70
     6
  9
$SURFV
 70
     6
  9
$UCSBASE
  2

  9
$UCSNAME
  2

  9
$UCSORG
 10
0.0
 20
0.0
 30
0.0
  9
$UCSXDIR
 10
1.0
 20
0.0
 30
0.0
  9
$UCSYDIR
 10
0.0
 20
1.0
 30
0.0
  9
$UCSORTHOREF
  2

  9
$UCSORTHOVIEW
 70
     0
  9
$UCSORGTOP
 10
0.0
 20
0.0
 30
0.0
  9
$UCSORGBOTTOM
 10
0.0
 20
0.0
 30
0.0
  9
$UCSORGLEFT
 10
0.0
 20
0.0
 30
0.0
  9
$UCSORGRIGHT
 10
0.0
 20
0.0
 30
0.0
  9
$UCSORGFRONT
 10
0.0
 20
0.0
 30
0.0
  9
$UCSORGBACK
 10
0.0
 20
0.0
 30
0.0
  9
$PUCSBASE
  2

  9
$PUCSNAME
  2

  9
$PUCSORG
 10
0.0
 20
0.0
 30
0.0
  9
$PUCSXDIR
 10
1.0
 20
0.0
 30
0.0
  9
$PUCSYDIR
 10
0.0
 20
1.0
 30
0.0
  9
$PUCSORTHOREF
  2

  9
$PUCSORTHOVIEW
 70
     0
  9
$PUCSORGTOP
 10
0.0
 20
0.0
 30
0.0
  9
$PUCSORGBOTTOM
 10
0.0
 20
0.0
 30
0.0
  9
$PUCSORGLEFT
 10
0.0
 20
0.0
 30
0.0
  9
$PUCSORGRIGHT
 10
0.0
 20
0.0
 30
0.0
  9
$PUCSORGFRONT
 10
0.0
 20
0.0
 30
0.0
  9
$PUCSORGBACK
 10
0.0
 20
0.0
 30
0.0
  9
$USERI1
 70
     0
  9
$USERI2
 70
     0
  9
$USERI3
 70
     0
  9
$USERI4
 70
     0
  9
$USERI5
 70
     0
  9
$USERR1
 40
0.0
  9
$USERR2
 40
0.0
  9
$USERR3
 40
0.0
  9
$USERR4
 40
0.0
  9
$USERR5
 40
0.0
  9
$WORLDVIEW
 70
     1
  9
$SHADEDGE
 70
     3
  9
$SHADEDIF
 70
    70
  9
$TILEMODE
 70
     1
  9
$MAXACTVP
 70
    64
  9
$PINSBASE
 10
0.0
 20
0.0
 30
0.0
  9
$PLIMCHECK
 70
     0
  9
$PEXTMIN
 10
1.000000000000000E+20
 20
1.000000000000000E+20
 30
1.000000000000000E+20
  9
$PEXTMAX
 10
-1.000000000000000E+20
 20
-1.000000000000000E+20
 30
-1.000000000000000E+20
  9
$PLIMMIN
 10
0.0
 20
0.0
  9
$PLIMMAX
 10
12.0
 20
9.0
  9
$UNITMODE
 70
     0
  9
$VISRETAIN
 70
     1
  9
$PLINEGEN
 70
     0
  9
$PSLTSCALE
 70
     1
  9
$TREEDEPTH
 70
  3020
  9
$CMLSTYLE
  2
Standard
  9
$CMLJUST
 70
     0
  9
$CMLSCALE
 40
1.0
  9
$PROXYGRAPHICS
 70
     1
  9
$MEASUREMENT
 70
     0
  9
$CELWEIGHT
370
    -1
  9
$ENDCAPS
280
     0
  9
$JOINSTYLE
280
     0
  9
$LWDISPLAY
290
     0
  9
$INSUNITS
 70
     1
  9
$HYPERLINKBASE
  1

  9
$STYLESHEET
  1

  9
$XEDIT
290
     1
  9
$CEPSNTYPE
380
     0
  9
$PSTYLEMODE
290
     1
  9
$FINGERPRINTGUID
  2
{85BE2775-0ED4-4598-AF3A-EB74DFD69B23}
  9
$VERSIONGUID
  2
{FAEB1C32-E019-11D5-929B-00C0DF256EC4}
  9
$EXTNAMES
290
     1
  9
$PSVPSCALE
 40
0.0
  9
$OLESTARTUP
290
     0
  9
$SORTENTS
280
   127
  9
$INDEXCTL
280
     0
  9
$HIDETEXT
280
     1
  9
$XCLIPFRAME
280
     2
  9
$HALOGAP
280
     0
  9
$OBSCOLOR
 70
   257
  9
$OBSLTYPE
280
     0
  9
$INTERSECTIONDISPLAY
280
     0
  9
$INTERSECTIONCOLOR
 70
   257
  9
$DIMASSOC
280
     2
  9
$PROJECTNAME
  1

  9
$CAMERADISPLAY
290
     0
  9
$LENSLENGTH
 40
50.0
  9
$CAMERAHEIGHT
 40
0.0
  9
$STEPSPERSEC
 40
2.0
  9
$STEPSIZE
 40
6.0
  9
$3DDWFPREC
 40
2.0
  9
$PSOLWIDTH
 40
0.25
  9
$PSOLHEIGHT
 40
4.0
  9
$LOFTANG1
 40
1.570796326794897
  9
$LOFTANG2
 40
1.570796326794897
  9
$LOFTMAG1
 40
0.0
  9
$LOFTMAG2
 40
0.0
  9
$LOFTPARAM
 70
     7
  9
$LOFTNORMALS
280
     1
  9
$LATITUDE
 40
37.795
  9
$LONGITUDE
 40
-122.394
  9
$NORTHDIRECTION
 40
0.0
  9
$TIMEZONE
 70
 -8000
  9
$LIGHTGLYPHDISPLAY
280
     1
  9
$TILEMODELIGHTSYNCH
280
     1
  9
$SOLIDHIST
280
     1
  9
$SHOWHIST
280
     1
  9
$DWFFRAME
280
     2
  9
$DGNFRAME
280
     2
  9
$REALWORLDSCALE
290
     1
  9
$INTERFERECOLOR
 62
   256
  9
$CSHADOW
280
     0
  9
$SHADOWPLANELOCATION
 40
0.0
  0
ENDSEC
  0
SECTION
  2
CLASSES
  0
CLASS
  1
ACDBDICTIONARYWDFLT
  2
AcDbDictionaryWithDefault
  3
ObjectDBX Classes
 90
        0
 91
        4
280
     0
281
     0
  0
CLASS
  1
VISUALSTYLE
  2
AcDbVisualStyle
  3
ObjectDBX Classes
 90
     4095
 91
        4
280
     0
281
     0
  0
CLASS
  1
MATERIAL
  2
AcDbMaterial
  3
ObjectDBX Classes
 90
     1153
 91
        4
280
     0
281
     0
  0
CLASS
  1
IMAGEDEF
  2
AcDbRasterImageDef
  3
ISM
 90
        0
 91
        4
280
     0
281
     0
  0
CLASS
  1
IMAGE
  2
AcDbRasterImage
  3
ISM
 90
      127
 91
        5
280
     0
281
     1
  0
CLASS
  1
IMAGEDEF_REACTOR
  2
AcDbRasterImageDefReactor
  3
ISM
 90
        1
 91
        4
280
     0
281
     0
  0
ENDSEC
  0
SECTION
  2
TABLES
  0
TABLE
  2
VPORT
  5
8
330
0
100
AcDbSymbolTable
 70
     1
  0
VPORT
  5
29
330
8
100
AcDbSymbolTableRecord
100
AcDbViewportTableRecord
  2
*Active
 70
     0
 10
0.0
 20
0.0
 11
1.0
 21
1.0
 12
10.42990654205607
 22
4.5
 13
0.0
 23
0.0
 14
0.5
 24
0.5
 15
0.5
 25
0.5
 16
0.0
 26
0.0
 36
1.0
 17
0.0
 27
0.0
 37
0.0
 40
9.0
 41
1.972972972850329
 42
50.0
 43
0.0
 44
0.0
 50
0.0
 51
0.0
 71
     0
 72
   100
 73
     1
 74
     3
 75
     0
 76
     0
 77
     0
 78
     0
281
     0
 65
     1
110
0.0
120
0.0
130
0.0
111
1.0
121
0.0
131
0.0
112
0.0
122
1.0
132
0.0
 79
     0
146
0.0
 60
     3
 61
     5
292
     1
282
     1
141
0.0
142
0.0
 63
   250
  0
ENDTAB
  0
TABLE
  2
LTYPE
  5
5
330
0
100
AcDbSymbolTable
 70
    92
  0
LTYPE
  5
14
330
5
100
AcDbSymbolTableRecord
100
AcDbLinetypeTableRecord
  2
ByBlock
 70
     0
  3

 72
    65
 73
     0
 40
0.0
  0
LTYPE
  5
15
330
5
100
AcDbSymbolTableRecord
100
AcDbLinetypeTableRecord
  2
ByLayer
 70
     0
  3

 72
    65
 73
     0
 40
0.0
  0
LTYPE
  5
16
330
5
100
AcDbSymbolTableRecord
100
AcDbLinetypeTableRecord
  2
Continuous
 70
     0
  3
Solid line
 72
    65
 73
     0
 40
0.0
  0
LTYPE
  5
3F
330
5
100
AcDbSymbolTableRecord
100
AcDbLinetypeTableRecord
  2
HIDDEN
 70
     0
  3
_ _ _ _ _ _ _ _ _ _ _ _ _ _ _ _ _ _ _ _ _ _ _
 72
    65
 73
     2
 40
0.375
 49
0.25
 74
     0
 49
-0.125
 74
     0
  0
LTYPE
  5
40
330
5
100
AcDbSymbolTableRecord
100
AcDbLinetypeTableRecord
  2
CENTER
 70
     0
  3
____ _ ____ _ ____ _ ____ _ ____ _ ____ _ ____
 72
    65
 73
     4
 40
2.0
 49
1.25
 74
     0
 49
-0.25
 74
     0
 49
0.25
 74
     0
 49
-0.25
 74
     0
  0
LTYPE
  5
41
330
5
100
AcDbSymbolTableRecord
100
AcDbLinetypeTableRecord
  2
DASHED
 70
     0
  3
__ __ __ __ __ __ __ __ __ __ __ __ __ __ __
 72
    65
 73
     2
 40
1.5
 49
1.25
 74
     0
 49
-0.25
 74
     0
  0
LTYPE
  5
42
330
5
100
AcDbSymbolTableRecord
100
AcDbLinetypeTableRecord
  2
Gepunktete
 70
     0
  3

 72
    65
 73
     2
 40
1.560000061988831
 49
0.3600000143051147
 74
     0
 49
-1.200000047683716
 74
     0
  0
LTYPE
  5
43
330
5
100
AcDbSymbolTableRecord
100
AcDbLinetypeTableRecord
  2
Strichpunktierte
 70
     0
  3

 72
    65
 73
     4
 40
4.920000046491623
 49
3.0
 74
     0
 49
-0.7200000286102295
 74
     0
 49
0.4799999892711639
 74
     0
 49
-0.7200000286102295
 74
     0
  0
LTYPE
  5
44
330
5
100
AcDbSymbolTableRecord
100
AcDbLinetypeTableRecord
  2
Strichellinie
 70
     0
  3

 72
    65
 73
     2
 40
2.399999976158142
 49
1.799999952316284
 74
     0
 49
-0.6000000238418579
 74
     0
  0
LTYPE
  5
45
330
5
100
AcDbSymbolTableRecord
100
AcDbLinetypeTableRecord
  2
2Punkt
 70
     0
  3

 72
    65
 73
     6
 40
6.120000123977661
 49
3.0
 74
     0
 49
-0.7200000286102295
 74
     0
 49
0.4800000190734863
 74
     0
 49
-0.7200000286102295
 74
     0
 49
0.4800000190734863
 74
     0
 49
-0.7200000286102295
 74
     0
  0
LTYPE
  5
46
330
5
100
AcDbSymbolTableRecord
100
AcDbLinetypeTableRecord
  2
2Punkt-2Abstand
 70
     0
  3

 72
    65
 73
     6
 40
8.28000020980835
 49
3.0
 74
     0
 49
-1.440000057220459
 74
     0
 49
0.4800000190734863
 74
     0
 49
-1.440000057220459
 74
     0
 49
0.4800000190734863
 74
     0
 49
-1.440000057220459
 74
     0
  0
LTYPE
  5
47
330
5
100
AcDbSymbolTableRecord
100
AcDbLinetypeTableRecord
  2
2Punkt-3Abstand
 70
     0
  3

 72
    65
 73
     6
 40
11.26800036430359
 49
3.0
 74
     0
 49
-2.436000108718872
 74
     0
 49
0.4800000190734863
 74
     0
 49
-2.436000108718872
 74
     0
 49
0.4800000190734863
 74
     0
 49
-2.436000108718872
 74
     0
  0
LTYPE
  5
48
330
5
100
AcDbSymbolTableRecord
100
AcDbLinetypeTableRecord
  2
Gepunktete Var.2
 70
     0
  3

 72
    65
 73
     2
 40
3.120000004768372
 49
0.3600000143051147
 74
     0
 49
-2.759999990463257
 74
     0
  0
LTYPE
  5
49
330
5
100
AcDbSymbolTableRecord
100
AcDbLinetypeTableRecord
  2
Gepunktete Var.3
 70
     0
  3

 72
    65
 73
     2
 40
4.679999709129333
 49
0.3600000143051147
 74
     0
 49
-4.319999694824219
 74
     0
  0
LTYPE
  5
4A
330
5
100
AcDbSymbolTableRecord
100
AcDbLinetypeTableRecord
  2
Gepunktete Var.4
 70
     0
  3

 72
    65
 73
     4
 40
4.319999814033508
 49
0.3600000143051147
 74
     0
 49
-1.199999928474426
 74
     0
 49
0.3600000143051147
 74
     0
 49
-2.399999856948853
 74
     0
  0
LTYPE
  5
4B
330
5
100
AcDbSymbolTableRecord
100
AcDbLinetypeTableRecord
  2
Gepunktete Var.5
 70
     0
  3

 72
    65
 73
     4
 40
4.319999814033508
 49
0.3600000143051147
 74
     0
 49
-1.199999928474426
 74
     0
 49
0.3600000143051147
 74
     0
 49
-2.399999856948853
 74
     0
  0
LTYPE
  5
4C
330
5
100
AcDbSymbolTableRecord
100
AcDbLinetypeTableRecord
  2
Gepunktete Var.6
 70
     0
  3

 72
    65
 73
     6
 40
7.079999685287476
 49
0.3600000143051147
 74
     0
 49
-1.199999928474426
 74
     0
 49
0.3600000143051147
 74
     0
 49
-2.399999856948853
 74
     0
 49
0.3600000143051147
 74
     0
 49
-2.399999856948853
 74
     0
  0
LTYPE
  5
4D
330
5
100
AcDbSymbolTableRecord
100
AcDbLinetypeTableRecord
  2
Strichlierte Var.2
 70
     0
  3

 72
    65
 73
     2
 40
3.599999904632568
 49
1.799999952316284
 74
     0
 49
-1.799999952316284
 74
     0
  0
LTYPE
  5
4E
330
5
100
AcDbSymbolTableRecord
100
AcDbLinetypeTableRecord
  2
Strichlierte Var.3
 70
     0
  3

 72
    65
 73
     2
 40
5.399999856948853
 49
1.799999952316284
 74
     0
 49
-3.599999904632568
 74
     0
  0
LTYPE
  5
4F
330
5
100
AcDbSymbolTableRecord
100
AcDbLinetypeTableRecord
  2
Strichlierte Var.4
 70
     0
  3

 72
    65
 73
     2
 40
4.199999868869781
 49
3.599999904632568
 74
     0
 49
-0.5999999642372131
 74
     0
  0
LTYPE
  5
50
330
5
100
AcDbSymbolTableRecord
100
AcDbLinetypeTableRecord
  2
Strichlierte Var.5
 70
     0
  3

 72
    65
 73
     2
 40
5.399999856948853
 49
3.599999904632568
 74
     0
 49
-1.799999952316284
 74
     0
  0
LTYPE
  5
51
330
5
100
AcDbSymbolTableRecord
100
AcDbLinetypeTableRecord
  2
Strichlierte Var.6
 70
     0
  3

 72
    65
 73
     2
 40
7.199999809265137
 49
3.599999904632568
 74
     0
 49
-3.599999904632568
 74
     0
  0
LTYPE
  5
52
330
5
100
AcDbSymbolTableRecord
100
AcDbLinetypeTableRecord
  2
Strich-2Abstand
 70
     0
  3

 72
    65
 73
     4
 40
8.999999761581421
 49
1.799999952316284
 74
     0
 49
-1.799999952316284
 74
     0
 49
3.599999904632568
 74
     0
 49
-1.799999952316284
 74
     0
  0
LTYPE
  5
53
330
5
100
AcDbSymbolTableRecord
100
AcDbLinetypeTableRecord
  2
Strich-3Abstand
 70
     0
  3

 72
    65
 73
     6
 40
7.919999837875366
 49
0.3600000143051147
 74
     0
 49
-1.799999952316284
 74
     0
 49
0.3600000143051147
 74
     0
 49
-1.799999952316284
 74
     0
 49
1.799999952316284
 74
     0
 49
-1.799999952316284
 74
     0
  0
LTYPE
  5
54
330
5
100
AcDbSymbolTableRecord
100
AcDbLinetypeTableRecord
  2
Strich-4Abstand
 70
     0
  3

 72
    65
 73
     6
 40
9.359999775886536
 49
1.799999952316284
 74
     0
 49
-1.799999952316284
 74
     0
 49
1.799999952316284
 74
     0
 49
-1.799999952316284
 74
     0
 49
0.3600000143051147
 74
     0
 49
-1.799999952316284
 74
     0
  0
LTYPE
  5
55
330
5
100
AcDbSymbolTableRecord
100
AcDbLinetypeTableRecord
  2
Punktlinie
 70
     0
  3

 72
    65
 73
     6
 40
20.10000000149012
 49
0.0500000007450581
 74
     0
 49
-0.0500000007450581
 74
     0
 49
5.0
 74
     0
 49
-5.0
 74
     0
 49
5.0
 74
     0
 49
-5.0
 74
     0
  0
LTYPE
  5
56
330
5
100
AcDbSymbolTableRecord
100
AcDbLinetypeTableRecord
  2
Punkt-Strichlinie
 70
     0
  3

 72
    65
 73
     6
 40
3.550000000745058
 49
1.0
 74
     0
 49
-0.5
 74
     0
 49
1.0
 74
     0
 49
-0.5
 74
     0
 49
0.0500000007450581
 74
     0
 49
-0.5
 74
     0
  0
LTYPE
  5
57
330
5
100
AcDbSymbolTableRecord
100
AcDbLinetypeTableRecord
  2
Doppelpunkt-Strichlinie
 70
     0
  3

 72
    65
 73
     6
 40
1.350000001490116
 49
0.5
 74
     0
 49
-0.25
 74
     0
 49
0.0500000007450581
 74
     0
 49
-0.25
 74
     0
 49
0.0500000007450581
 74
     0
 49
-0.25
 74
     0
  0
LTYPE
  5
58
330
5
100
AcDbSymbolTableRecord
100
AcDbLinetypeTableRecord
  2
Eigene Linie 27
 70
     0
  3

 72
    65
 73
     6
 40
2.600000001490116
 49
1.0
 74
     0
 49
-0.5
 74
     0
 49
0.0500000007450581
 74
     0
 49
-0.5
 74
     0
 49
0.0500000007450581
 74
     0
 49
-0.5
 74
     0
  0
LTYPE
  5
59
330
5
100
AcDbSymbolTableRecord
100
AcDbLinetypeTableRecord
  2
Eigene Linie 28
 70
     0
  3

 72
    65
 73
     6
 40
1.800000000745058
 49
0.5
 74
     0
 49
-0.25
 74
     0
 49
0.5
 74
     0
 49
-0.25
 74
     0
 49
0.0500000007450581
 74
     0
 49
-0.25
 74
     0
  0
LTYPE
  5
5A
330
5
100
AcDbSymbolTableRecord
100
AcDbLinetypeTableRecord
  2
Eigene Linie 29
 70
     0
  3

 72
    65
 73
     6
 40
0.9250000007450581
 49
0.25
 74
     0
 49
-0.125
 74
     0
 49
0.25
 74
     0
 49
-0.125
 74
     0
 49
0.0500000007450581
 74
     0
 49
-0.125
 74
     0
  0
LTYPE
  5
5B
330
5
100
AcDbSymbolTableRecord
100
AcDbLinetypeTableRecord
  2
Eigene Linie 30
 70
     0
  3

 72
    65
 73
     2
 40
0.3000000007450581
 49
0.0500000007450581
 74
     0
 49
-0.25
 74
     0
  0
LTYPE
  5
5C
330
5
100
AcDbSymbolTableRecord
100
AcDbLinetypeTableRecord
  2
Eigene Linie 31
 70
     0
  3

 72
    65
 73
     2
 40
0.1750000007450581
 49
0.0500000007450581
 74
     0
 49
-0.125
 74
     0
  0
LTYPE
  5
5D
330
5
100
AcDbSymbolTableRecord
100
AcDbLinetypeTableRecord
  2
Eigene Linie 32
 70
     0
  3

 72
    65
 73
     2
 40
0.5500000007450581
 49
0.0500000007450581
 74
     0
 49
-0.5
 74
     0
  0
LTYPE
  5
5E
330
5
100
AcDbSymbolTableRecord
100
AcDbLinetypeTableRecord
  2
Eigene Linie 33
 70
     0
  3

 72
    65
 73
     4
 40
1.050000000745058
 49
0.5
 74
     0
 49
-0.25
 74
     0
 49
0.0500000007450581
 74
     0
 49
-0.25
 74
     0
  0
LTYPE
  5
5F
330
5
100
AcDbSymbolTableRecord
100
AcDbLinetypeTableRecord
  2
Eigene Linie 34
 70
     0
  3

 72
    65
 73
     4
 40
0.5500000007450581
 49
0.25
 74
     0
 49
-0.125
 74
     0
 49
0.0500000007450581
 74
     0
 49
-0.125
 74
     0
  0
LTYPE
  5
60
330
5
100
AcDbSymbolTableRecord
100
AcDbLinetypeTableRecord
  2
Eigene Linie 35
 70
     0
  3

 72
    65
 73
     4
 40
2.050000000745058
 49
1.0
 74
     0
 49
-0.5
 74
     0
 49
0.0500000007450581
 74
     0
 49
-0.5
 74
     0
  0
LTYPE
  5
61
330
5
100
AcDbSymbolTableRecord
100
AcDbLinetypeTableRecord
  2
Eigene Linie 36
 70
     0
  3

 72
    65
 73
     2
 40
0.75
 49
0.5
 74
     0
 49
-0.25
 74
     0
  0
LTYPE
  5
62
330
5
100
AcDbSymbolTableRecord
100
AcDbLinetypeTableRecord
  2
Eigene Linie 37
 70
     0
  3

 72
    65
 73
     2
 40
0.375
 49
0.25
 74
     0
 49
-0.125
 74
     0
  0
LTYPE
  5
63
330
5
100
AcDbSymbolTableRecord
100
AcDbLinetypeTableRecord
  2
Eigene Linie 38
 70
     0
  3

 72
    65
 73
     2
 40
1.5
 49
1.0
 74
     0
 49
-0.5
 74
     0
  0
LTYPE
  5
64
330
5
100
AcDbSymbolTableRecord
100
AcDbLinetypeTableRecord
  2
Eigene Linie 39
 70
     0
  3

 72
    65
 73
     6
 40
2.5
 49
1.25
 74
     0
 49
-0.25
 74
     0
 49
0.25
 74
     0
 49
-0.25
 74
     0
 49
0.25
 74
     0
 49
-0.25
 74
     0
  0
LTYPE
  5
65
330
5
100
AcDbSymbolTableRecord
100
AcDbLinetypeTableRecord
  2
Eigene Linie 40
 70
     0
  3

 72
    65
 73
     6
 40
1.25
 49
0.625
 74
     0
 49
-0.125
 74
     0
 49
0.125
 74
     0
 49
-0.125
 74
     0
 49
0.125
 74
     0
 49
-0.125
 74
     0
  0
LTYPE
  5
66
330
5
100
AcDbSymbolTableRecord
100
AcDbLinetypeTableRecord
  2
Eigene Linie 41
 70
     0
  3

 72
    65
 73
     6
 40
5.0
 49
2.5
 74
     0
 49
-0.5
 74
     0
 49
0.5
 74
     0
 49
-0.5
 74
     0
 49
0.5
 74
     0
 49
-0.5
 74
     0
  0
LTYPE
  5
67
330
5
100
AcDbSymbolTableRecord
100
AcDbLinetypeTableRecord
  2
Eigene Linie 42
 70
     0
  3

 72
    65
 73
     2
 40
0.300000011920929
 49
0.1500000059604645
 74
     0
 49
-0.1500000059604645
 74
     0
  0
LTYPE
  5
68
330
5
100
AcDbSymbolTableRecord
100
AcDbLinetypeTableRecord
  2
Eigene Linie 43
 70
     0
  3

 72
    65
 73
     2
 40
0.1399999968707561
 49
0.0799999982118607
 74
     0
 49
-0.0599999986588955
 74
     0
  0
LTYPE
  5
69
330
5
100
AcDbSymbolTableRecord
100
AcDbLinetypeTableRecord
  2
Eigene Linie 44
 70
     0
  3

 72
    65
 73
     2
 40
0.3000000007450581
 49
0.0500000007450581
 74
     0
 49
-0.25
 74
     0
  0
LTYPE
  5
6A
330
5
100
AcDbSymbolTableRecord
100
AcDbLinetypeTableRecord
  2
Eigene Linie 45
 70
     0
  3

 72
    65
 73
     2
 40
0.5500000007450581
 49
0.0500000007450581
 74
     0
 49
-0.5
 74
     0
  0
LTYPE
  5
6B
330
5
100
AcDbSymbolTableRecord
100
AcDbLinetypeTableRecord
  2
User line type56
 70
     0
  3

 72
    65
 73
     2
 40
5.399999856948853
 49
3.599999904632568
 74
     0
 49
-1.799999952316284
 74
     0
  0
LTYPE
  5
6C
330
5
100
AcDbSymbolTableRecord
100
AcDbLinetypeTableRecord
  2
User line type57
 70
     0
  3

 72
    65
 73
     2
 40
7.199999809265137
 49
3.599999904632568
 74
     0
 49
-3.599999904632568
 74
     0
  0
LTYPE
  5
6D
330
5
100
AcDbSymbolTableRecord
100
AcDbLinetypeTableRecord
  2
User line type58
 70
     0
  3

 72
    65
 73
     4
 40
8.999999761581421
 49
1.799999952316284
 74
     0
 49
-1.799999952316284
 74
     0
 49
3.599999904632568
 74
     0
 49
-1.799999952316284
 74
     0
  0
LTYPE
  5
6E
330
5
100
AcDbSymbolTableRecord
100
AcDbLinetypeTableRecord
  2
User line type59
 70
     0
  3

 72
    65
 73
     6
 40
7.919999837875366
 49
0.3600000143051147
 74
     0
 49
-1.799999952316284
 74
     0
 49
0.3600000143051147
 74
     0
 49
-1.799999952316284
 74
     0
 49
1.799999952316284
 74
     0
 49
-1.799999952316284
 74
     0
  0
LTYPE
  5
6F
330
5
100
AcDbSymbolTableRecord
100
AcDbLinetypeTableRecord
  2
User line type60
 70
     0
  3

 72
    65
 73
     6
 40
9.359999775886536
 49
1.799999952316284
 74
     0
 49
-1.799999952316284
 74
     0
 49
1.799999952316284
 74
     0
 49
-1.799999952316284
 74
     0
 49
0.3600000143051147
 74
     0
 49
-1.799999952316284
 74
     0
  0
LTYPE
  5
70
330
5
100
AcDbSymbolTableRecord
100
AcDbLinetypeTableRecord
  2
User line type61
 70
     0
  3

 72
    65
 73
     6
 40
20.10000000149012
 49
0.0500000007450581
 74
     0
 49
-0.0500000007450581
 74
     0
 49
5.0
 74
     0
 49
-5.0
 74
     0
 49
5.0
 74
     0
 49
-5.0
 74
     0
  0
LTYPE
  5
71
330
5
100
AcDbSymbolTableRecord
100
AcDbLinetypeTableRecord
  2
User line type62
 70
     0
  3

 72
    65
 73
     6
 40
3.550000000745058
 49
1.0
 74
     0
 49
-0.5
 74
     0
 49
1.0
 74
     0
 49
-0.5
 74
     0
 49
0.0500000007450581
 74
     0
 49
-0.5
 74
     0
  0
LTYPE
  5
72
330
5
100
AcDbSymbolTableRecord
100
AcDbLinetypeTableRecord
  2
User line type63
 70
     0
  3

 72
    65
 73
     6
 40
1.350000001490116
 49
0.5
 74
     0
 49
-0.25
 74
     0
 49
0.0500000007450581
 74
     0
 49
-0.25
 74
     0
 49
0.0500000007450581
 74
     0
 49
-0.25
 74
     0
  0
LTYPE
  5
73
330
5
100
AcDbSymbolTableRecord
100
AcDbLinetypeTableRecord
  2
User line type64
 70
     0
  3

 72
    65
 73
     6
 40
2.600000001490116
 49
1.0
 74
     0
 49
-0.5
 74
     0
 49
0.0500000007450581
 74
     0
 49
-0.5
 74
     0
 49
0.0500000007450581
 74
     0
 49
-0.5
 74
     0
  0
LTYPE
  5
74
330
5
100
AcDbSymbolTableRecord
100
AcDbLinetypeTableRecord
  2
User line type65
 70
     0
  3

 72
    65
 73
     6
 40
1.800000000745058
 49
0.5
 74
     0
 49
-0.25
 74
     0
 49
0.5
 74
     0
 49
-0.25
 74
     0
 49
0.0500000007450581
 74
     0
 49
-0.25
 74
     0
  0
LTYPE
  5
75
330
5
100
AcDbSymbolTableRecord
100
AcDbLinetypeTableRecord
  2
User line type66
 70
     0
  3

 72
    65
 73
     6
 40
0.9250000007450581
 49
0.25
 74
     0
 49
-0.125
 74
     0
 49
0.25
 74
     0
 49
-0.125
 74
     0
 49
0.0500000007450581
 74
     0
 49
-0.125
 74
     0
  0
LTYPE
  5
76
330
5
100
AcDbSymbolTableRecord
100
AcDbLinetypeTableRecord
  2
User line type67
 70
     0
  3

 72
    65
 73
     2
 40
0.3000000007450581
 49
0.0500000007450581
 74
     0
 49
-0.25
 74
     0
  0
LTYPE
  5
77
330
5
100
AcDbSymbolTableRecord
100
AcDbLinetypeTableRecord
  2
User line type68
 70
     0
  3

 72
    65
 73
     2
 40
0.1750000007450581
 49
0.0500000007450581
 74
     0
 49
-0.125
 74
     0
  0
LTYPE
  5
78
330
5
100
AcDbSymbolTableRecord
100
AcDbLinetypeTableRecord
  2
User line type69
 70
     0
  3

 72
    65
 73
     2
 40
0.5500000007450581
 49
0.0500000007450581
 74
     0
 49
-0.5
 74
     0
  0
LTYPE
  5
79
330
5
100
AcDbSymbolTableRecord
100
AcDbLinetypeTableRecord
  2
User line type70
 70
     0
  3

 72
    65
 73
     4
 40
1.050000000745058
 49
0.5
 74
     0
 49
-0.25
 74
     0
 49
0.0500000007450581
 74
     0
 49
-0.25
 74
     0
  0
LTYPE
  5
7A
330
5
100
AcDbSymbolTableRecord
100
AcDbLinetypeTableRecord
  2
User line type71
 70
     0
  3

 72
    65
 73
     4
 40
0.5500000007450581
 49
0.25
 74
     0
 49
-0.125
 74
     0
 49
0.0500000007450581
 74
     0
 49
-0.125
 74
     0
  0
LTYPE
  5
7B
330
5
100
AcDbSymbolTableRecord
100
AcDbLinetypeTableRecord
  2
User line type72
 70
     0
  3

 72
    65
 73
     4
 40
2.050000000745058
 49
1.0
 74
     0
 49
-0.5
 74
     0
 49
0.0500000007450581
 74
     0
 49
-0.5
 74
     0
  0
LTYPE
  5
7C
330
5
100
AcDbSymbolTableRecord
100
AcDbLinetypeTableRecord
  2
User line type73
 70
     0
  3

 72
    65
 73
     2
 40
0.75
 49
0.5
 74
     0
 49
-0.25
 74
     0
  0
LTYPE
  5
7D
330
5
100
AcDbSymbolTableRecord
100
AcDbLinetypeTableRecord
  2
User line type74
 70
     0
  3

 72
    65
 73
     2
 40
0.375
 49
0.25
 74
     0
 49
-0.125
 74
     0
  0
LTYPE
  5
7E
330
5
100
AcDbSymbolTableRecord
100
AcDbLinetypeTableRecord
  2
User line type75
 70
     0
  3

 72
    65
 73
     2
 40
1.5
 49
1.0
 74
     0
 49
-0.5
 74
     0
  0
LTYPE
  5
7F
330
5
100
AcDbSymbolTableRecord
100
AcDbLinetypeTableRecord
  2
User line type76
 70
     0
  3

 72
    65
 73
     6
 40
2.5
 49
1.25
 74
     0
 49
-0.25
 74
     0
 49
0.25
 74
     0
 49
-0.25
 74
     0
 49
0.25
 74
     0
 49
-0.25
 74
     0
  0
LTYPE
  5
80
330
5
100
AcDbSymbolTableRecord
100
AcDbLinetypeTableRecord
  2
User line type77
 70
     0
  3

 72
    65
 73
     6
 40
1.25
 49
0.625
 74
     0
 49
-0.125
 74
     0
 49
0.125
 74
     0
 49
-0.125
 74
     0
 49
0.125
 74
     0
 49
-0.125
 74
     0
  0
LTYPE
  5
81
330
5
100
AcDbSymbolTableRecord
100
AcDbLinetypeTableRecord
  2
User line type78
 70
     0
  3

 72
    65
 73
     6
 40
5.0
 49
2.5
 74
     0
 49
-0.5
 74
     0
 49
0.5
 74
     0
 49
-0.5
 74
     0
 49
0.5
 74
     0
 49
-0.5
 74
     0
  0
LTYPE
  5
82
330
5
100
AcDbSymbolTableRecord
100
AcDbLinetypeTableRecord
  2
User line type79
 70
     0
  3

 72
    65
 73
     2
 40
0.300000011920929
 49
0.1500000059604645
 74
     0
 49
-0.1500000059604645
 74
     0
  0
LTYPE
  5
83
330
5
100
AcDbSymbolTableRecord
100
AcDbLinetypeTableRecord
  2
User line type80
 70
     0
  3

 72
    65
 73
     2
 40
0.1399999968707561
 49
0.0799999982118607
 74
     0
 49
-0.0599999986588955
 74
     0
  0
LTYPE
  5
84
330
5
100
AcDbSymbolTableRecord
100
AcDbLinetypeTableRecord
  2
User line type81
 70
     0
  3

 72
    65
 73
     2
 40
0.3000000007450581
 49
0.0500000007450581
 74
     0
 49
-0.25
 74
     0
  0
LTYPE
  5
85
330
5
100
AcDbSymbolTableRecord
100
AcDbLinetypeTableRecord
  2
User line type82
 70
     0
  3

 72
    65
 73
     2
 40
0.5500000007450581
 49
0.0500000007450581
 74
     0
 49
-0.5
 74
     0
  0
LTYPE
  5
86
330
5
100
AcDbSymbolTableRecord
100
AcDbLinetypeTableRecord
  2
User line type83
 70
     0
  3

 72
    65
 73
     6
 40
31.84999952465296
 49
12.69999980926514
 74
     0
 49
-6.349999904632568
 74
     0
 49
0.0500000007450581
 74
     0
 49
-6.349999904632568
 74
     0
 49
0.0500000007450581
 74
     0
 49
-6.349999904632568
 74
     0
  0
LTYPE
  5
87
330
5
100
AcDbSymbolTableRecord
100
AcDbLinetypeTableRecord
  2
User line type84
 70
     0
  3

 72
    65
 73
     4
 40
50.79999971389771
 49
31.75
 74
     0
 49
-6.349999904632568
 74
     0
 49
6.349999904632568
 74
     0
 49
-6.349999904632568
 74
     0
  0
LTYPE
  5
88
330
5
100
AcDbSymbolTableRecord
100
AcDbLinetypeTableRecord
  2
User line type85
 70
     0
  3

 72
    65
 73
     2
 40
6.399999905377626
 49
0.0500000007450581
 74
     0
 49
-6.349999904632568
 74
     0
  0
LTYPE
  5
89
330
5
100
AcDbSymbolTableRecord
100
AcDbLinetypeTableRecord
  2
User line type86
 70
     0
  3

 72
    65
 73
     4
 40
25.44999961927533
 49
12.69999980926514
 74
     0
 49
-6.349999904632568
 74
     0
 49
0.0500000007450581
 74
     0
 49
-6.349999904632568
 74
     0
  0
LTYPE
  5
8A
330
5
100
AcDbSymbolTableRecord
100
AcDbLinetypeTableRecord
  2
User line type87
 70
     0
  3

 72
    65
 73
     2
 40
9.524999856948853
 49
6.349999904632568
 74
     0
 49
-3.174999952316284
 74
     0
  0
LTYPE
  5
8B
330
5
100
AcDbSymbolTableRecord
100
AcDbLinetypeTableRecord
  2
User line type88
 70
     0
  3

 72
    65
 73
     2
 40
0.0050000002374873
 49
0.0040000001899898
 74
     0
 49
-0.0010000000474975
 74
     0
  0
LTYPE
  5
8C
330
5
100
AcDbSymbolTableRecord
100
AcDbLinetypeTableRecord
  2
User line type89
 70
     0
  3

 72
    65
 73
     4
 40
0.0550000009825453
 49
0.0040000001899898
 74
     0
 49
-0.0005000000237487
 74
     0
 49
0.0500000007450581
 74
     0
 49
-0.0005000000237487
 74
     0
  0
LTYPE
  5
8D
330
5
100
AcDbSymbolTableRecord
100
AcDbLinetypeTableRecord
  2
DOT
 70
     0
  3

 72
    65
 73
     3
 40
0.5499949939548969
 49
0.0500000007450581
 74
     0
 49
-0.25
 74
     0
 49
0.2499949932098389
 74
     0
  0
LTYPE
  5
8E
330
5
100
AcDbSymbolTableRecord
100
AcDbLinetypeTableRecord
  2
User line type91
 70
     0
  3

 72
    65
 73
     2
 40
4.0
 49
2.0
 74
     0
 49
-2.0
 74
     0
  0
LTYPE
  5
8F
330
5
100
AcDbSymbolTableRecord
100
AcDbLinetypeTableRecord
  2
User line type92
 70
     0
  3

 72
    65
 73
     2
 40
4.0
 49
2.0
 74
     0
 49
-2.0
 74
     0
  0
LTYPE
  5
90
330
5
100
AcDbSymbolTableRecord
100
AcDbLinetypeTableRecord
  2
User line type93
 70
     0
  3

 72
    65
 73
     4
 40
1.050000000745058
 49
0.5
 74
     0
 49
-0.25
 74
     0
 49
0.0500000007450581
 74
     0
 49
-0.25
 74
     0
  0
LTYPE
  5
91
330
5
100
AcDbSymbolTableRecord
100
AcDbLinetypeTableRecord
  2
User line type94
 70
     0
  3

 72
    65
 73
     2
 40
0.75
 49
0.5
 74
     0
 49
-0.25
 74
     0
  0
LTYPE
  5
92
330
5
100
AcDbSymbolTableRecord
100
AcDbLinetypeTableRecord
  2
User line type95
 70
     0
  3

 72
    65
 73
     6
 40
17.60000000149012
 49
10.0
 74
     0
 49
-2.5
 74
     0
 49
0.0500000007450581
 74
     0
 49
-2.5
 74
     0
 49
0.0500000007450581
 74
     0
 49
-2.5
 74
     0
  0
LTYPE
  5
93
330
5
100
AcDbSymbolTableRecord
100
AcDbLinetypeTableRecord
  2
User line type96
 70
     0
  3

 72
    65
 73
     2
 40
0.375
 49
0.25
 74
     0
 49
-0.125
 74
     0
  0
LTYPE
  5
94
330
5
100
AcDbSymbolTableRecord
100
AcDbLinetypeTableRecord
  2
User line type97
 70
     0
  3

 72
    65
 73
     4
 40
1.100000001490116
 49
0.5
 74
     0
 49
-0.25
 74
     0
 49
0.1000000014901161
 74
     0
 49
-0.25
 74
     0
  0
LTYPE
  5
95
330
5
100
AcDbSymbolTableRecord
100
AcDbLinetypeTableRecord
  2
User line type98
 70
     0
  3

 72
    65
 73
     2
 40
0.75
 49
0.5
 74
     0
 49
-0.25
 74
     0
  0
LTYPE
  5
96
330
5
100
AcDbSymbolTableRecord
100
AcDbLinetypeTableRecord
  2
User line type99
 70
     0
  3

 72
    65
 73
     4
 40
1.050000000745058
 49
0.5
 74
     0
 49
-0.25
 74
     0
 49
0.0500000007450581
 74
     0
 49
-0.25
 74
     0
  0
LTYPE
  5
97
330
5
100
AcDbSymbolTableRecord
100
AcDbLinetypeTableRecord
  2
User line type100
 70
     0
  3

 72
    65
 73
     6
 40
1.350000001490116
 49
0.5
 74
     0
 49
-0.25
 74
     0
 49
0.0500000007450581
 74
     0
 49
-0.25
 74
     0
 49
0.0500000007450581
 74
     0
 49
-0.25
 74
     0
  0
LTYPE
  5
98
330
5
100
AcDbSymbolTableRecord
100
AcDbLinetypeTableRecord
  2
User line type101
 70
     0
  3

 72
    65
 73
     4
 40
1.050000000745058
 49
0.5
 74
     0
 49
-0.25
 74
     0
 49
0.0500000007450581
 74
     0
 49
-0.25
 74
     0
  0
LTYPE
  5
99
330
5
100
AcDbSymbolTableRecord
100
AcDbLinetypeTableRecord
  2
User line type102
 70
     0
  3

 72
    65
 73
     2
 40
0.375
 49
0.25
 74
     0
 49
-0.125
 74
     0
  0
ENDTAB
  0
TABLE
  2
LAYER
  5
2
330
0
100
AcDbSymbolTable
 70
     9
  0
LAYER
  5
10
330
2
100
AcDbSymbolTableRecord
100
AcDbLayerTableRecord
  2
0
 70
     0
 62
     7
  6
Continuous
370
    -3
390
F
347
3E
  0
LAYER
  5
9A
330
2
100
AcDbSymbolTableRecord
100
AcDbLayerTableRecord
  2
00_Allgemein
 70
     0
 62
     7
  6
Continuous
370
     0
390
F
347
3E
  0
LAYER
  5
9B
330
2
100
AcDbSymbolTableRecord
100
AcDbLayerTableRecord
  2
37_Bilder
 70
     0
 62
     7
  6
Continuous
370
     0
390
F
347
3E
  0
LAYER
  5
9C
330
2
100
AcDbSymbolTableRecord
100
AcDbLayerTableRecord
  2
34_Gruppe
 70
     0
 62
     7
  6
Continuous
370
     0
390
F
347
3E
  0
LAYER
  5
9D
330
2
100
AcDbSymbolTableRecord
100
AcDbLayerTableRecord
  2
12_Linie
 70
     0
 62
     7
  6
Continuous
370
     0
390
F
347
3E
  0
LAYER
  5
9E
330
2
100
AcDbSymbolTableRecord
100
AcDbLayerTableRecord
  2
14_Kreis
 70
     0
 62
     7
  6
Continuous
370
     0
390
F
347
3E
  0
LAYER
  5
9F
330
2
100
AcDbSymbolTableRecord
100
AcDbLayerTableRecord
  2
18_Schraffur
 70
     0
 62
     7
  6
Continuous
370
     0
390
F
347
3E
  0
LAYER
  5
A0
330
2
100
AcDbSymbolTableRecord
100
AcDbLayerTableRecord
  2
Folie _ 3
 70
     0
 62
     7
  6
Continuous
370
     0
390
F
347
3E
  0
LAYER
  5
A1
330
2
100
AcDbSymbolTableRecord
100
AcDbLayerTableRecord
  2
STANDARD
 70
     0
 62
     7
  6
Continuous
370
     0
390
F
347
3E
  0
ENDTAB
  0
TABLE
  2
STYLE
  5
3
330
0
100
AcDbSymbolTable
 70
     3
  0
STYLE
  5
11
330
3
100
AcDbSymbolTableRecord
100
AcDbTextStyleTableRecord
  2
Standard
 70
     0
 40
0.0
 41
1.0
 50
0.0
 71
     0
 42
0.2
  3
txt
  4

  0
STYLE
  5
B2
330
3
100
AcDbSymbolTableRecord
100
AcDbTextStyleTableRecord
  2
Style0
 70
     0
 40
0.0
 41
1.0
 50
0.0
 71
     0
 42
0.2
  3
arial.ttf
  4

1001
ACAD
1000
Arial
1071
        0
  0
STYLE
  5
B3
330
3
100
AcDbSymbolTableRecord
100
AcDbTextStyleTableRecord
  2
Style1
 70
     0
 40
0.0
 41
1.0
 50
0.0
 71
     0
 42
0.2
  3
ariblk.ttf
  4

1001
ACAD
1000
Arial Black
1071
        0
  0
ENDTAB
  0
TABLE
  2
VIEW
  5
6
330
0
100
AcDbSymbolTable
 70
     0
  0
ENDTAB
  0
TABLE
  2
UCS
  5
7
330
0
100
AcDbSymbolTable
 70
     0
  0
ENDTAB
  0
TABLE
  2
APPID
  5
9
330
0
100
AcDbSymbolTable
 70
     1
  0
APPID
  5
12
330
9
100
AcDbSymbolTableRecord
100
AcDbRegAppTableRecord
  2
ACAD
 70
     0
  0
ENDTAB
  0
TABLE
  2
DIMSTYLE
  5
A
330
0
100
AcDbSymbolTable
 70
     1
100
AcDbDimStyleTable
  0
DIMSTYLE
105
27
330
A
100
AcDbSymbolTableRecord
100
AcDbDimStyleTableRecord
  2
Standard
 70
     0
178
     0
340
11
  0
ENDTAB
  0
TABLE
  2
BLOCK_RECORD
  5
1
330
0
100
AcDbSymbolTable
 70
     3
  0
BLOCK_RECORD
  5
1F
330
1
100
AcDbSymbolTableRecord
100
AcDbBlockTableRecord
  2
*Model_Space
340
22
 70
     0
280
     1
281
     0
  0
BLOCK_RECORD
  5
1B
330
1
100
AcDbSymbolTableRecord
100
AcDbBlockTableRecord
  2
*Paper_Space
340
1E
 70
     0
280
     1
281
     0
  0
BLOCK_RECORD
  5
23
330
1
100
AcDbSymbolTableRecord
100
AcDbBlockTableRecord
  2
*Paper_Space0
340
26
 70
     0
280
     1
281
     0
  0
BLOCK_RECORD
  5
A2
330
1
100
AcDbSymbolTableRecord
100
AcDbBlockTableRecord
  2
printlayout(id_1)
340
0
102
{BLKREFS
331
AF
102
}
 70
     0
280
     1
281
     0
  0
BLOCK_RECORD
  5
B6
330
1
100
AcDbSymbolTableRecord
100
AcDbBlockTableRecord
  2
dokument alle 2d details_asc(id_4)
340
0
102
{BLKREFS
331
202
102
}
 70
     0
280
     1
281
     0
  0
ENDTAB
  0
ENDSEC
  0
SECTION
  2
BLOCKS
  0
BLOCK
  5
20
330
1F
100
AcDbEntity
  8
0
100
AcDbBlockBegin
  2
*Model_Space
 70
     0
 10
0.0
 20
0.0
 30
0.0
  3
*Model_Space
  1

  0
ENDBLK
  5
21
330
1F
100
AcDbEntity
  8
0
100
AcDbBlockEnd
  0
BLOCK
  5
1C
330
1B
100
AcDbEntity
 67
     1
  8
0
100
AcDbBlockBegin
  2
*Paper_Space
 70
     0
 10
0.0
 20
0.0
 30
0.0
  3
*Paper_Space
  1

  0
ENDBLK
  5
1D
330
1B
100
AcDbEntity
 67
     1
  8
0
100
AcDbBlockEnd
  0
BLOCK
  5
24
330
23
100
AcDbEntity
  8
0
100
AcDbBlockBegin
  2
*Paper_Space0
 70
     0
 10
0.0
 20
0.0
 30
0.0
  3
*Paper_Space0
  1

  0
ENDBLK
  5
25
330
23
100
AcDbEntity
  8
0
100
AcDbBlockEnd
  0
BLOCK
  5
B0
330
A2
100
AcDbEntity
  8
0
100
AcDbBlockBegin
  2
printlayout(id_1)
 70
     0
 10
0.0
 20
0.0
 30
0.0
  3
printlayout(id_1)
  1

  0
POLYLINE
  5
A3
330
A2
100
AcDbEntity
  8
00_Allgemein
  6
Continuous
 62
     7
370
     0
100
AcDb2dPolyline
 66
     1
 10
0.0
 20
0.0
 30
0.0
 70
     1
  0
VERTEX
  5
A4
330
A3
100
AcDbEntity
  8
00_Allgemein
  6
Continuous
 62
     7
370
     0
100
AcDbVertex
100
AcDb2dVertex
 10
0.0
 20
0.0
 30
0.0
  0
VERTEX
  5
A5
330
A3
100
AcDbEntity
  8
00_Allgemein
  6
Continuous
 62
     7
370
     0
100
AcDbVertex
100
AcDb2dVertex
 10
297.0
 20
0.0
 30
0.0
  0
VERTEX
  5
A6
330
A3
100
AcDbEntity
  8
00_Allgemein
  6
Continuous
 62
     7
370
     0
100
AcDbVertex
100
AcDb2dVertex
 10
297.0
 20
210.0
 30
0.0
  0
VERTEX
  5
A7
330
A3
100
AcDbEntity
  8
00_Allgemein
  6
Continuous
 62
     7
370
     0
100
AcDbVertex
100
AcDb2dVertex
 10
0.0
 20
210.0
 30
0.0
  0
SEQEND
  5
A8
330
A3
100
AcDbEntity
  8
00_Allgemein
  6
Continuous
 62
     7
370
     0
  0
POLYLINE
  5
A9
330
A2
100
AcDbEntity
  8
00_Allgemein
  6
Strichpunktierte
 62
     5
420
      255
 48
5.0
370
     0
100
AcDb2dPolyline
 66
     1
 10
0.0
 20
0.0
 30
0.0
 70
     1
  0
VERTEX
  5
AA
330
A9
100
AcDbEntity
  8
00_Allgemein
  6
Strichpunktierte
 62
     5
420
      255
370
     0
100
AcDbVertex
100
AcDb2dVertex
 10
3.0
 20
3.0
 30
0.0
  0
VERTEX
  5
AB
330
A9
100
AcDbEntity
  8
00_Allgemein
  6
Strichpunktierte
 62
     5
420
      255
370
     0
100
AcDbVertex
100
AcDb2dVertex
 10
294.0
 20
3.0
 30
0.0
  0
VERTEX
  5
AC
330
A9
100
AcDbEntity
  8
00_Allgemein
  6
Strichpunktierte
 62
     5
420
      255
370
     0
100
AcDbVertex
100
AcDb2dVertex
 10
294.0
 20
207.0
 30
0.0
  0
VERTEX
  5
AD
330
A9
100
AcDbEntity
  8
00_Allgemein
  6
Strichpunktierte
 62
     5
420
      255
370
     0
100
AcDbVertex
100
AcDb2dVertex
 10
3.0
 20
207.0
 30
0.0
  0
SEQEND
  5
AE
330
A9
100
AcDbEntity
  8
00_Allgemein
  6
Strichpunktierte
 62
     5
420
      255
 48
5.0
370
     0
  0
ENDBLK
  5
B1
330
A2
100
AcDbEntity
  8
0
100
AcDbBlockEnd
  0
BLOCK
  5
203
330
B6
100
AcDbEntity
  8
0
100
AcDbBlockBegin
  2
dokument alle 2d details_asc(id_4)
 70
     0
 10
0.0
 20
0.0
 30
0.0
  3
dokument alle 2d details_asc(id_4)
  1

  0
ARC
  5
B7
330
B6
100
AcDbEntity
  8
STANDARD
  6
Continuous
 62
     7
370
    40
100
AcDbCircle
 10
121.408446757916
 20
124.7859792652769
 30
0.0
 40
0.1
100
AcDbArc
 50
180.0
 51
270.0
  0
LINE
  5
B8
330
B6
100
AcDbEntity
  8
STANDARD
  6
Continuous
 62
     7
370
    20
100
AcDbLine
 10
73.52289010537302
 20
188.9889890293617
 30
0.0
 11
125.1028901053729
 21
187.84276680714
 31
0.0
  0
HATCH
  5
B9
330
B6
100
AcDbEntity
  8
18_Schraffur
 62
   251
100
AcDbHatch
 10
0.0
 20
0.0
 30
0.0
210
0.0
220
0.0
230
1.0
  2
SOLID
 70
     1
 71
     0
 91
        1
 92
        0
 93
        6
 72
     1
 10
117.3084467579159
 20
95.43597926527704
 11
113.308446757916
 21
95.43597926527704
 72
     1
 10
113.308446757916
 20
95.43597926527704
 11
113.308446757916
 21
99.43597926527696
 72
     1
 10
113.308446757916
 20
99.43597926527696
 11
112.308446757916
 21
99.43597926527696
 72
     1
 10
112.308446757916
 20
99.43597926527696
 11
112.308446757916
 21
94.43597926527696
 72
     1
 10
112.308446757916
 20
94.43597926527696
 11
117.3084467579159
 21
94.43597926527696
 72
     1
 10
117.3084467579159
 20
94.43597926527696
 11
117.3084467579159
 21
95.43597926527704
 97
        0
 75
     0
 76
     1
 98
        0
  0
HATCH
  5
BA
330
B6
100
AcDbEntity
  8
18_Schraffur
 62
   251
100
AcDbHatch
 10
0.0
 20
0.0
 30
0.0
210
0.0
220
0.0
230
1.0
  2
SOLID
 70
     1
 71
     0
 91
        1
 92
        0
 93
        4
 72
     1
 10
137.3084467579159
 20
95.43597926527704
 11
127.3084467579159
 21
95.43597926527704
 72
     1
 10
127.3084467579159
 20
95.43597926527704
 11
127.3084467579159
 21
94.43597926527696
 72
     1
 10
127.3084467579159
 20
94.43597926527696
 11
137.3084467579159
 21
94.43597926527696
 72
     1
 10
137.3084467579159
 20
94.43597926527696
 11
137.3084467579159
 21
95.43597926527704
 97
        0
 75
     0
 76
     1
 98
        0
  0
HATCH
  5
BB
330
B6
100
AcDbEntity
  8
18_Schraffur
 62
   251
100
AcDbHatch
 10
0.0
 20
0.0
 30
0.0
210
0.0
220
0.0
230
1.0
  2
SOLID
 70
     1
 71
     0
 91
        1
 92
        0
 93
        4
 72
     1
 10
157.3084467579159
 20
95.43597926527704
 11
147.3084467579159
 21
95.43597926527704
 72
     1
 10
147.3084467579159
 20
95.43597926527704
 11
147.3084467579159
 21
94.43597926527696
 72
     1
 10
147.3084467579159
 20
94.43597926527696
 11
157.3084467579159
 21
94.43597926527696
 72
     1
 10
157.3084467579159
 20
94.43597926527696
 11
157.3084467579159
 21
95.43597926527704
 97
        0
 75
     0
 76
     1
 98
        0
  0
HATCH
  5
BC
330
B6
100
AcDbEntity
  8
18_Schraffur
 62
   251
100
AcDbHatch
 10
0.0
 20
0.0
 30
0.0
210
0.0
220
0.0
230
1.0
  2
SOLID
 70
     1
 71
     0
 91
        1
 92
        0
 93
        4
 72
     1
 10
177.3084467579159
 20
95.43597926527704
 11
167.3084467579159
 21
95.43597926527704
 72
     1
 10
167.3084467579159
 20
95.43597926527704
 11
167.3084467579159
 21
94.43597926527696
 72
     1
 10
167.3084467579159
 20
94.43597926527696
 11
177.3084467579159
 21
94.43597926527696
 72
     1
 10
177.3084467579159
 20
94.43597926527696
 11
177.3084467579159
 21
95.43597926527704
 97
        0
 75
     0
 76
     1
 98
        0
  0
LINE
  5
BD
330
B6
100
AcDbEntity
  8
12_Linie
 62
     7
370
    20
100
AcDbLine
 10
112.3084467579159
 20
149.435979265277
 30
0.0
 11
113.3084467579159
 21
149.435979265277
 31
0.0
  0
LINE
  5
BE
330
B6
100
AcDbEntity
  8
12_Linie
 62
     7
370
    20
100
AcDbLine
 10
113.3084467579159
 20
95.43597926527704
 30
0.0
 11
263.3084467579159
 21
95.43597926527704
 31
0.0
  0
LINE
  5
BF
330
B6
100
AcDbEntity
  8
STANDARD
  6
Continuous
 62
     7
370
    60
100
AcDbLine
 10
92.308446757916
 20
94.43597926527696
 30
0.0
 11
263.3084467579159
 21
94.43597926527696
 31
0.0
  0
LINE
  5
C0
330
B6
100
AcDbEntity
  8
STANDARD
  6
Continuous
 62
     7
370
    60
100
AcDbLine
 10
92.308446757916
 20
69.43597926527696
 30
0.0
 11
263.3084467579159
 21
69.43597926527696
 31
0.0
  0
HATCH
  5
C1
330
B6
100
AcDbEntity
  8
Folie _ 3
  6
Continuous
 62
     7
370
    20
100
AcDbHatch
 10
0.0
 20
0.0
 30
0.0
210
0.0
220
0.0
230
1.0
  2
ANSI33
 70
     0
 71
     0
 91
        1
 92
        0
 93
        4
 72
     1
 10
112.3084467579159
 20
174.435979265277
 11
92.308446757916
 21
174.435979265277
 72
     1
 10
92.308446757916
 20
174.435979265277
 11
92.308446757916
 21
94.43597926527696
 72
     1
 10
92.308446757916
 20
94.43597926527696
 11
112.3084467579159
 21
94.43597926527696
 72
     1
 10
112.3084467579159
 20
94.43597926527696
 11
112.3084467579159
 21
174.435979265277
 97
        0
 75
     0
 76
     1
 52
0.0
 41
25.0
 77
     0
 78
     2
 53
45.0
 43
-55.44554455445537
 44
-48.70040316261014
 45
-4.419417382415922
 46
4.419417382415921
 79
     0
 53
45.0
 43
-51.02612717945537
 44
-48.70040316261014
 45
-4.419417382415922
 46
4.419417382415921
 79
     2
 49
3.125
 49
-1.5625
 98
        0
  0
ARC
  5
C2
330
B6
100
AcDbEntity
  8
14_Kreis
  6
Continuous
 62
     7
370
     0
100
AcDbCircle
 10
121.408446757916
 20
123.535979265277
 30
0.0
 40
0.1
100
AcDbArc
 50
180.0
 51
270.0
  0
LINE
  5
C3
330
B6
100
AcDbEntity
  8
12_Linie
 62
     7
370
    20
100
AcDbLine
 10
113.308446757916
 20
123.435979265277
 30
0.0
 11
263.3084467579159
 21
123.435979265277
 31
0.0
  0
LINE
  5
C4
330
B6
100
AcDbEntity
  8
STANDARD
  6
Continuous
 62
     7
370
    20
100
AcDbLine
 10
73.46844675791594
 20
184.953756905914
 30
0.0
 11
73.96844675791594
 21
184.953756905914
 31
0.0
  0
LINE
  5
C5
330
B6
100
AcDbEntity
  8
STANDARD
  6
Continuous
 62
     7
370
    60
100
AcDbLine
 10
92.308446757916
 20
174.435979265277
 30
0.0
 11
92.308446757916
 21
59.71638282873906
 31
0.0
  0
POLYLINE
  5
C6
330
B6
100
AcDbEntity
  8
Folie _ 3
  6
Continuous
 62
     7
370
    50
100
AcDb2dPolyline
 66
     1
 10
0.0
 20
0.0
 30
0.0
  0
VERTEX
  5
C7
330
C6
100
AcDbEntity
  8
Folie _ 3
  6
Continuous
 62
     7
370
    50
100
AcDbVertex
100
AcDb2dVertex
 10
0.0
 20
210.0
 30
0.0
  0
VERTEX
  5
C8
330
C6
100
AcDbEntity
  8
Folie _ 3
  6
Continuous
 62
     7
370
    50
100
AcDbVertex
100
AcDb2dVertex
 10
0.0
 20
0.0
 30
0.0
  0
SEQEND
  5
C9
330
C6
100
AcDbEntity
  8
Folie _ 3
  6
Continuous
 62
     7
370
    50
  0
POLYLINE
  5
CA
330
B6
100
AcDbEntity
  8
Folie _ 3
  6
Continuous
 62
     7
370
    50
100
AcDb2dPolyline
 66
     1
 10
0.0
 20
0.0
 30
0.0
  0
VERTEX
  5
CB
330
CA
100
AcDbEntity
  8
Folie _ 3
  6
Continuous
 62
     7
370
    50
100
AcDbVertex
100
AcDb2dVertex
 10
0.0
 20
0.0
 30
0.0
  0
VERTEX
  5
CC
330
CA
100
AcDbEntity
  8
Folie _ 3
  6
Continuous
 62
     7
370
    50
100
AcDbVertex
100
AcDb2dVertex
 10
296.9999999999999
 20
0.0
 30
0.0
  0
SEQEND
  5
CD
330
CA
100
AcDbEntity
  8
Folie _ 3
  6
Continuous
 62
     7
370
    50
  0
POLYLINE
  5
CE
330
B6
100
AcDbEntity
  8
Folie _ 3
  6
Continuous
 62
     7
370
    50
100
AcDb2dPolyline
 66
     1
 10
0.0
 20
0.0
 30
0.0
  0
VERTEX
  5
CF
330
CE
100
AcDbEntity
  8
Folie _ 3
  6
Continuous
 62
     7
370
    50
100
AcDbVertex
100
AcDb2dVertex
 10
296.9999999999999
 20
0.0
 30
0.0
  0
VERTEX
  5
D0
330
CE
100
AcDbEntity
  8
Folie _ 3
  6
Continuous
 62
     7
370
    50
100
AcDbVertex
100
AcDb2dVertex
 10
296.9999999999999
 20
210.0
 30
0.0
  0
SEQEND
  5
D1
330
CE
100
AcDbEntity
  8
Folie _ 3
  6
Continuous
 62
     7
370
    50
  0
POLYLINE
  5
D2
330
B6
100
AcDbEntity
  8
Folie _ 3
  6
Continuous
 62
     7
370
    50
100
AcDb2dPolyline
 66
     1
 10
0.0
 20
0.0
 30
0.0
  0
VERTEX
  5
D3
330
D2
100
AcDbEntity
  8
Folie _ 3
  6
Continuous
 62
     7
370
    50
100
AcDbVertex
100
AcDb2dVertex
 10
296.9999999999999
 20
210.0
 30
0.0
  0
VERTEX
  5
D4
330
D2
100
AcDbEntity
  8
Folie _ 3
  6
Continuous
 62
     7
370
    50
100
AcDbVertex
100
AcDb2dVertex
 10
0.0
 20
210.0
 30
0.0
  0
SEQEND
  5
D5
330
D2
100
AcDbEntity
  8
Folie _ 3
  6
Continuous
 62
     7
370
    50
  0
POLYLINE
  5
D6
330
B6
100
AcDbEntity
  8
Folie _ 3
  6
Continuous
 62
     7
370
    50
100
AcDb2dPolyline
 66
     1
 10
0.0
 20
0.0
 30
0.0
 70
     1
  0
VERTEX
  5
D7
330
D6
100
AcDbEntity
  8
Folie _ 3
  6
Continuous
 62
     7
370
    50
100
AcDbVertex
100
AcDb2dVertex
 10
25.0
 20
205.0
 30
0.0
  0
VERTEX
  5
D8
330
D6
100
AcDbEntity
  8
Folie _ 3
  6
Continuous
 62
     7
370
    50
100
AcDbVertex
100
AcDb2dVertex
 10
291.9999999999999
 20
205.0
 30
0.0
  0
VERTEX
  5
D9
330
D6
100
AcDbEntity
  8
Folie _ 3
  6
Continuous
 62
     7
370
    50
100
AcDbVertex
100
AcDb2dVertex
 10
291.9999999999999
 20
5.0
 30
0.0
  0
VERTEX
  5
DA
330
D6
100
AcDbEntity
  8
Folie _ 3
  6
Continuous
 62
     7
370
    50
100
AcDbVertex
100
AcDb2dVertex
 10
25.0
 20
5.0
 30
0.0
  0
SEQEND
  5
DB
330
D6
100
AcDbEntity
  8
Folie _ 3
  6
Continuous
 62
     7
370
    50
  0
POLYLINE
  5
DC
330
B6
100
AcDbEntity
  8
Folie _ 3
  6
Continuous
 62
     7
370
    50
100
AcDb2dPolyline
 66
     1
 10
0.0
 20
0.0
 30
0.0
  0
VERTEX
  5
DD
330
DC
100
AcDbEntity
  8
Folie _ 3
  6
Continuous
 62
     7
370
    50
100
AcDbVertex
100
AcDb2dVertex
 10
157.0000000000001
 20
5.0
 30
0.0
  0
VERTEX
  5
DE
330
DC
100
AcDbEntity
  8
Folie _ 3
  6
Continuous
 62
     7
370
    50
100
AcDbVertex
100
AcDb2dVertex
 10
157.0000000000001
 20
50.0
 30
0.0
  0
VERTEX
  5
DF
330
DC
100
AcDbEntity
  8
Folie _ 3
  6
Continuous
 62
     7
370
    50
100
AcDbVertex
100
AcDb2dVertex
 10
291.9999999999999
 20
50.0
 30
0.0
  0
SEQEND
  5
E0
330
DC
100
AcDbEntity
  8
Folie _ 3
  6
Continuous
 62
     7
370
    50
  0
LINE
  5
E1
330
B6
100
AcDbEntity
  8
Folie _ 3
  6
Continuous
 62
     7
100
AcDbLine
 10
157.0000000000001
 20
15.0
 30
0.0
 11
291.9999999999999
 21
15.0
 31
0.0
  0
LINE
  5
E2
330
B6
100
AcDbEntity
  8
Folie _ 3
  6
Continuous
 62
     7
100
AcDbLine
 10
157.0000000000001
 20
35.0
 30
0.0
 11
291.9999999999999
 21
35.0
 31
0.0
  0
LINE
  5
E3
330
B6
100
AcDbEntity
  8
Folie _ 3
  6
Continuous
 62
     7
100
AcDbLine
 10
184.0000000000001
 20
15.0
 30
0.0
 11
184.0000000000001
 21
5.0
 31
0.0
  0
LINE
  5
E4
330
B6
100
AcDbEntity
  8
Folie _ 3
  6
Continuous
 62
     7
100
AcDbLine
 10
211.0000000000001
 20
15.0
 30
0.0
 11
211.0000000000001
 21
5.0
 31
0.0
  0
LINE
  5
E5
330
B6
100
AcDbEntity
  8
Folie _ 3
  6
Continuous
 62
     7
100
AcDbLine
 10
238.0000000000001
 20
15.0
 30
0.0
 11
238.0000000000001
 21
5.0
 31
0.0
  0
LINE
  5
E6
330
B6
100
AcDbEntity
  8
Folie _ 3
  6
Continuous
 62
     7
100
AcDbLine
 10
265.0000000000001
 20
15.0
 30
0.0
 11
265.0000000000001
 21
5.0
 31
0.0
  0
TEXT
  5
E7
330
B6
100
AcDbEntity
  8
Folie _ 3
  6
Continuous
 62
     7
100
AcDbText
 10
159.0000000000001
 20
47.0
 30
0.0
 40
2.269896030426025
  1
PLANINHALT:
 41
0.9569915226000473
  7
Style0
100
AcDbText
  0
TEXT
  5
E8
330
B6
100
AcDbEntity
  8
Folie _ 3
  6
Continuous
 62
     7
100
AcDbText
 10
159.0000000000001
 20
12.0
 30
0.0
 40
2.269896030426025
  1
MASSSTAB:
 41
1.016258694886636
  7
Style0
100
AcDbText
  0
TEXT
  5
E9
330
B6
100
AcDbEntity
  8
Folie _ 3
  6
Continuous
 62
     7
100
AcDbText
 10
186.0000000000001
 20
12.0
 30
0.0
 40
2.269896030426025
  1
ERSTELLT:
 41
1.016258694886636
  7
Style0
100
AcDbText
  0
TEXT
  5
EA
330
B6
100
AcDbEntity
  8
Folie _ 3
  6
Continuous
 62
     7
100
AcDbText
 10
213.0000000000001
 20
12.0
 30
0.0
 40
2.269896030426025
  1
BLATT NR.:
 41
1.016258694886636
  7
Style0
100
AcDbText
  0
TEXT
  5
EB
330
B6
100
AcDbEntity
  8
Folie _ 3
  6
Continuous
 62
     7
100
AcDbText
 10
240.0000000000001
 20
12.0
 30
0.0
 40
2.269896030426025
  1
DETAIL NR.:
 41
1.016258694886636
  7
Style0
100
AcDbText
  0
TEXT
  5
EC
330
B6
100
AcDbEntity
  8
Folie _ 3
  6
Continuous
 62
     7
100
AcDbText
 10
267.0000000000001
 20
12.0
 30
0.0
 40
2.269896030426025
  1
GEZEICHNET:
 41
1.016258694886636
  7
Style0
100
AcDbText
  0
TEXT
  5
ED
330
B6
100
AcDbEntity
  8
Folie _ 3
  6
Continuous
 62
     7
100
AcDbText
 10
159.1274604630973
 20
32.40944652925617
 30
0.0
 40
0.9079585075378418
  1
Die oben dargestellte Detailzeichnung bezieht sich auf eine Regelkonstruktion, d.h. sie ist zu überprüfen,
 41
0.9399217426440335
  7
Style0
100
AcDbText
  0
TEXT
  5
EE
330
B6
100
AcDbEntity
  8
Folie _ 3
  6
Continuous
 62
     7
100
AcDbText
 10
159.1274604630973
 20
30.49214549119395
 30
0.0
 40
0.9079585075378418
  1
objektgebunden anzupassen, abzustimmen und gegebenfalls zu ergänzen.
 41
0.9399217426440335
  7
Style0
100
AcDbText
  0
TEXT
  5
EF
330
B6
100
AcDbEntity
  8
Folie _ 3
  6
Continuous
 62
     7
100
AcDbText
 10
159.1274604630973
 20
28.57484445313173
 30
0.0
 40
0.9079585075378418
  1
Die empfohlenen Anwendungsbereiche sind auf Grund der Erfahrungen und Normen ausgearbeitet.
 41
0.9399217426440335
  7
Style0
100
AcDbText
  0
TEXT
  5
F0
330
B6
100
AcDbEntity
  8
Folie _ 3
  6
Continuous
 62
     7
100
AcDbText
 10
159.1274604630973
 20
26.65754341506934
 30
0.0
 40
0.9079585075378418
  1
Eine Verbindlichkeit kann hieraus nicht abgeleitet werden. Technische Änderungen sind vorbehalten.
 41
0.9399217426440335
  7
Style0
100
AcDbText
  0
TEXT
  5
F1
330
B6
100
AcDbEntity
  8
Folie _ 3
  6
Continuous
 62
     7
100
AcDbText
 10
159.1274604630973
 20
24.74024237700704
 30
0.0
 40
0.9079585075378418
  1
Die vorliegende Detailzeichnung verliert bei Erscheinen einer Neuausgabe ihre Gültigkeit.
 41
0.9399217426440335
  7
Style0
100
AcDbText
  0
TEXT
  5
F2
330
B6
100
AcDbEntity
  8
Folie _ 3
  6
Continuous
 62
     7
100
AcDbText
 10
159.1274604630973
 20
22.82294133894493
 30
0.0
 40
0.9079585075378418
  1
Jede Haftung von COVERiT bei leichter Fahrlässigkeit sowie für Beratung ohne nachfolgende Warenlieferung
 41
0.9399217426440335
  7
Style0
100
AcDbText
  0
TEXT
  5
F3
330
B6
100
AcDbEntity
  8
Folie _ 3
  6
Continuous
 62
     7
100
AcDbText
 10
159.1274604630973
 20
20.90564030088262
 30
0.0
 40
0.9079585075378418
  1
von COVERiT und gegenüber Dritten (andere als COVERiT-Vertragspartner) ist ausgeschlossen.
 41
0.9399217426440335
  7
Style0
100
AcDbText
  0
TEXT
  5
F4
330
B6
100
AcDbEntity
  8
Folie _ 3
  6
Continuous
 62
     7
100
AcDbText
 10
159.1274604630973
 20
18.9883392628202
 30
0.0
 40
0.9079585075378418
  1
Verkauf und Lieferung von COVERiT erfolgt ausschließlich zu den allgemeinen Liefer-, Zahlungs- und Gewährleistungsbedingungen von COVERiT.
 41
0.9399217426440335
  7
Style0
100
AcDbText
  0
TEXT
  5
F5
330
B6
100
AcDbEntity
  8
Folie _ 3
  6
Continuous
 62
     7
100
AcDbText
 10
159.1274604630973
 20
17.07103822475801
 30
0.0
 40
0.9079585075378418
  1
Es gilt österreichisches Recht (ohne UN Kaufrecht). Gerichtsstand ist Wels.
 41
0.9399217426440335
  7
Style0
100
AcDbText
  0
TEXT
  5
F6
330
B6
100
AcDbEntity
  8
Folie _ 3
  6
Continuous
 62
     7
100
AcDbText
 10
159.0000000000001
 20
6.000000000000085
 30
0.0
 40
3.177854776382446
  1
1:1
 41
0.647972360387026
  7
Style1
100
AcDbText
  0
TEXT
  5
F7
330
B6
100
AcDbEntity
  8
Folie _ 3
  6
Continuous
 62
     7
100
AcDbText
 10
186.0000000000001
 20
6.000000000000085
 30
0.0
 40
3.177854776382446
  1
07/15
 41
0.647972360387026
  7
Style1
100
AcDbText
  0
TEXT
  5
F8
330
B6
100
AcDbEntity
  8
Folie _ 3
  6
Continuous
 62
     7
100
AcDbText
 10
213.0000000000001
 20
6.000000000000085
 30
0.0
 40
3.177854776382446
  1
02
 41
0.647972360387026
  7
Style1
100
AcDbText
  0
TEXT
  5
F9
330
B6
100
AcDbEntity
  8
Folie _ 3
  6
Continuous
 62
     7
100
AcDbText
 10
240.0000000000001
 20
6.000000000000085
 30
0.0
 40
3.177854776382446
  1
02
 41
0.647972360387026
  7
Style1
100
AcDbText
  0
TEXT
  5
FA
330
B6
100
AcDbEntity
  8
Folie _ 3
  6
Continuous
 62
     7
100
AcDbText
 10
267.0000000000001
 20
6.000000000000085
 30
0.0
 40
3.177854776382446
  1
TR/AP
 41
1.081452562675454
  7
Style0
100
AcDbText
  0
LINE
  5
FB
330
B6
100
AcDbEntity
  8
Folie _ 3
  6
Continuous
 62
     7
100
AcDbLine
 10
244.4801761815237
 20
35.0
 30
0.0
 11
244.4801761815237
 21
15.0
 31
0.0
  0
LINE
  5
FC
330
B6
100
AcDbEntity
  8
12_Linie
 62
     7
370
    20
100
AcDbLine
 10
107.1503327351617
 20
183.7506040213381
 30
0.0
 11
111.9507835762842
 21
175.435979265277
 31
0.0
  0
HATCH
  5
FD
330
B6
100
AcDbEntity
  8
18_Schraffur
 62
     8
420
  8421504
100
AcDbHatch
 10
0.0
 20
0.0
 30
0.0
210
0.0
220
0.0
230
1.0
  2
SOLID
 70
     1
 71
     0
 91
        3
 92
        0
 93
        4
 72
     1
 10
113.308446757916
 20
159.435979265277
 11
112.308446757916
 21
159.435979265277
 72
     1
 10
112.308446757916
 20
159.435979265277
 11
112.308446757916
 21
149.435979265277
 72
     1
 10
112.308446757916
 20
149.435979265277
 11
113.308446757916
 21
149.435979265277
 72
     1
 10
113.308446757916
 20
149.435979265277
 11
113.308446757916
 21
159.435979265277
 97
        0
 92
        0
 93
        6
 72
     1
 10
113.308446757916
 20
175.435979265277
 11
108.3084467579159
 21
175.435979265277
 72
     1
 10
108.3084467579159
 20
175.435979265277
 11
108.3084467579159
 21
174.435979265277
 72
     1
 10
108.3084467579159
 20
174.435979265277
 11
112.3084467579159
 21
174.435979265277
 72
     1
 10
112.308446757916
 20
174.435979265277
 11
112.308446757916
 21
169.435979265277
 72
     1
 10
112.308446757916
 20
169.435979265277
 11
113.308446757916
 21
169.435979265277
 72
     1
 10
113.308446757916
 20
169.435979265277
 11
113.308446757916
 21
175.4359792652771
 97
        0
 92
        0
 93
        4
 72
     1
 10
98.30844675791592
 20
175.435979265277
 11
92.308446757916
 21
175.435979265277
 72
     1
 10
92.308446757916
 20
175.435979265277
 11
92.308446757916
 21
174.435979265277
 72
     1
 10
92.308446757916
 20
174.435979265277
 11
98.30844675791592
 21
174.435979265277
 72
     1
 10
98.30844675791592
 20
174.435979265277
 11
98.30844675791592
 21
175.435979265277
 97
        0
 75
     0
 76
     1
 98
        0
  0
LINE
  5
FE
330
B6
100
AcDbEntity
  8
12_Linie
 62
     7
370
    20
100
AcDbLine
 10
112.3084467579159
 20
99.43597926527696
 30
0.0
 11
113.3084467579159
 21
99.43597926527696
 31
0.0
  0
HATCH
  5
FF
330
B6
100
AcDbEntity
  8
18_Schraffur
 62
   251
100
AcDbHatch
 10
0.0
 20
0.0
 30
0.0
210
0.0
220
0.0
230
1.0
  2
SOLID
 70
     1
 71
     0
 91
        1
 92
        0
 93
        4
 72
     1
 10
197.3084467579159
 20
95.43597926527704
 11
187.3084467579159
 21
95.43597926527704
 72
     1
 10
187.3084467579159
 20
95.43597926527704
 11
187.3084467579159
 21
94.43597926527696
 72
     1
 10
187.3084467579159
 20
94.43597926527696
 11
197.3084467579159
 21
94.43597926527696
 72
     1
 10
197.3084467579159
 20
94.43597926527696
 11
197.3084467579159
 21
95.43597926527704
 97
        0
 75
     0
 76
     1
 98
        0
  0
LINE
  5
100
330
B6
100
AcDbEntity
  8
12_Linie
 62
     7
370
    20
100
AcDbLine
 10
117.3084467579159
 20
94.43597926527696
 30
0.0
 11
117.3084467579159
 21
95.43597926527704
 31
0.0
  0
LINE
  5
101
330
B6
100
AcDbEntity
  8
STANDARD
  6
Continuous
 62
     7
370
    20
100
AcDbLine
 10
125.298446757916
 20
182.848201350359
 30
0.0
 11
125.798446757916
 21
182.848201350359
 31
0.0
  0
HATCH
  5
102
330
B6
100
AcDbEntity
  8
18_Schraffur
 62
   251
100
AcDbHatch
 10
0.0
 20
0.0
 30
0.0
210
0.0
220
0.0
230
1.0
  2
SOLID
 70
     1
 71
     0
 91
        1
 92
        0
 93
        4
 72
     1
 10
217.3084467579159
 20
95.43597926527704
 11
207.3084467579159
 21
95.43597926527704
 72
     1
 10
207.3084467579159
 20
95.43597926527704
 11
207.3084467579159
 21
94.43597926527696
 72
     1
 10
207.3084467579159
 20
94.43597926527696
 11
217.3084467579159
 21
94.43597926527696
 72
     1
 10
217.3084467579159
 20
94.43597926527696
 11
217.3084467579159
 21
95.43597926527704
 97
        0
 75
     0
 76
     1
 98
        0
  0
LINE
  5
103
330
B6
100
AcDbEntity
  8
12_Linie
 62
     7
370
    20
100
AcDbLine
 10
127.3084467579159
 20
94.43597926527696
 30
0.0
 11
127.3084467579159
 21
95.43597926527704
 31
0.0
  0
HATCH
  5
104
330
B6
100
AcDbEntity
  8
18_Schraffur
 62
   251
100
AcDbHatch
 10
0.0
 20
0.0
 30
0.0
210
0.0
220
0.0
230
1.0
  2
SOLID
 70
     1
 71
     0
 91
        1
 92
        0
 93
        4
 72
     1
 10
237.3084467579159
 20
95.43597926527704
 11
227.3084467579159
 21
95.43597926527704
 72
     1
 10
227.3084467579159
 20
95.43597926527704
 11
227.3084467579159
 21
94.43597926527696
 72
     1
 10
227.3084467579159
 20
94.43597926527696
 11
237.3084467579159
 21
94.43597926527696
 72
     1
 10
237.3084467579159
 20
94.43597926527696
 11
237.3084467579159
 21
95.43597926527704
 97
        0
 75
     0
 76
     1
 98
        0
  0
HATCH
  5
105
330
B6
100
AcDbEntity
  8
18_Schraffur
 62
   251
100
AcDbHatch
 10
0.0
 20
0.0
 30
0.0
210
0.0
220
0.0
230
1.0
  2
SOLID
 70
     1
 71
     0
 91
        1
 92
        0
 93
        4
 72
     1
 10
113.308446757916
 20
119.435979265277
 11
112.308446757916
 21
119.435979265277
 72
     1
 10
112.308446757916
 20
119.435979265277
 11
112.308446757916
 21
109.435979265277
 72
     1
 10
112.308446757916
 20
109.435979265277
 11
113.308446757916
 21
109.435979265277
 72
     1
 10
113.308446757916
 20
109.435979265277
 11
113.308446757916
 21
119.435979265277
 97
        0
 75
     0
 76
     1
 98
        0
  0
HATCH
  5
106
330
B6
100
AcDbEntity
  8
18_Schraffur
 62
     8
420
  8421504
100
AcDbHatch
 10
0.0
 20
0.0
 30
0.0
210
0.0
220
0.0
230
1.0
  2
SOLID
 70
     1
 71
     0
 91
        1
 92
        0
 93
        4
 72
     1
 10
113.308446757916
 20
139.435979265277
 11
112.308446757916
 21
139.435979265277
 72
     1
 10
112.308446757916
 20
139.435979265277
 11
112.308446757916
 21
129.435979265277
 72
     1
 10
112.308446757916
 20
129.435979265277
 11
113.308446757916
 21
129.435979265277
 72
     1
 10
113.308446757916
 20
129.435979265277
 11
113.308446757916
 21
139.435979265277
 97
        0
 75
     0
 76
     1
 98
        0
  0
LINE
  5
107
330
B6
100
AcDbEntity
  8
12_Linie
 62
     7
370
    20
100
AcDbLine
 10
107.1503327351617
 20
183.7506040213381
 30
0.0
 11
102.3498818940391
 21
175.435979265277
 31
0.0
  0
LINE
  5
108
330
B6
100
AcDbEntity
  8
12_Linie
 62
     7
370
    20
100
AcDbLine
 10
92.308446757916
 20
175.435979265277
 30
0.0
 11
92.308446757916
 21
174.435979265277
 31
0.0
  0
LINE
  5
109
330
B6
100
AcDbEntity
  8
12_Linie
 62
     7
370
    20
100
AcDbLine
 10
137.3084467579159
 20
94.43597926527696
 30
0.0
 11
137.3084467579159
 21
95.43597926527704
 31
0.0
  0
LINE
  5
10A
330
B6
100
AcDbEntity
  8
12_Linie
 62
     7
370
    20
100
AcDbLine
 10
147.3084467579159
 20
94.43597926527696
 30
0.0
 11
147.3084467579159
 21
95.43597926527704
 31
0.0
  0
LINE
  5
10B
330
B6
100
AcDbEntity
  8
12_Linie
 62
     7
370
    20
100
AcDbLine
 10
157.3084467579159
 20
94.43597926527696
 30
0.0
 11
157.3084467579159
 21
95.43597926527704
 31
0.0
  0
LINE
  5
10C
330
B6
100
AcDbEntity
  8
12_Linie
 62
     7
370
    20
100
AcDbLine
 10
167.3084467579159
 20
94.43597926527696
 30
0.0
 11
167.3084467579159
 21
95.43597926527704
 31
0.0
  0
LINE
  5
10D
330
B6
100
AcDbEntity
  8
12_Linie
 62
     7
370
    20
100
AcDbLine
 10
177.3084467579159
 20
94.43597926527696
 30
0.0
 11
177.3084467579159
 21
95.43597926527704
 31
0.0
  0
LINE
  5
10E
330
B6
100
AcDbEntity
  8
12_Linie
 62
     7
370
    20
100
AcDbLine
 10
187.3084467579159
 20
94.43597926527696
 30
0.0
 11
187.3084467579159
 21
95.43597926527704
 31
0.0
  0
LINE
  5
10F
330
B6
100
AcDbEntity
  8
12_Linie
 62
     7
370
    20
100
AcDbLine
 10
197.3084467579159
 20
94.43597926527696
 30
0.0
 11
197.3084467579159
 21
95.43597926527704
 31
0.0
  0
LINE
  5
110
330
B6
100
AcDbEntity
  8
12_Linie
 62
     7
370
    20
100
AcDbLine
 10
207.3084467579159
 20
94.43597926527696
 30
0.0
 11
207.3084467579159
 21
95.43597926527704
 31
0.0
  0
LINE
  5
111
330
B6
100
AcDbEntity
  8
12_Linie
 62
     7
370
    20
100
AcDbLine
 10
217.3084467579159
 20
94.43597926527696
 30
0.0
 11
217.3084467579159
 21
95.43597926527704
 31
0.0
  0
LINE
  5
112
330
B6
100
AcDbEntity
  8
12_Linie
 62
     7
370
    20
100
AcDbLine
 10
227.3084467579159
 20
94.43597926527696
 30
0.0
 11
227.3084467579159
 21
95.43597926527704
 31
0.0
  0
LINE
  5
113
330
B6
100
AcDbEntity
  8
12_Linie
 62
     7
370
    20
100
AcDbLine
 10
237.3084467579159
 20
94.43597926527696
 30
0.0
 11
237.3084467579159
 21
95.43597926527704
 31
0.0
  0
LINE
  5
114
330
B6
100
AcDbEntity
  8
12_Linie
 62
     7
370
    20
100
AcDbLine
 10
247.3084467579159
 20
94.43597926527696
 30
0.0
 11
247.3084467579159
 21
95.43597926527704
 31
0.0
  0
LINE
  5
115
330
B6
100
AcDbEntity
  8
12_Linie
 62
     7
370
    20
100
AcDbLine
 10
257.3084467579159
 20
94.43597926527696
 30
0.0
 11
257.3084467579159
 21
95.43597926527704
 31
0.0
  0
LINE
  5
116
330
B6
100
AcDbEntity
  8
12_Linie
 62
     7
370
    20
100
AcDbLine
 10
112.3084467579159
 20
109.435979265277
 30
0.0
 11
113.3084467579159
 21
109.435979265277
 31
0.0
  0
LINE
  5
117
330
B6
100
AcDbEntity
  8
12_Linie
 62
     7
370
    20
100
AcDbLine
 10
112.3084467579159
 20
119.435979265277
 30
0.0
 11
113.3084467579159
 21
119.435979265277
 31
0.0
  0
LINE
  5
118
330
B6
100
AcDbEntity
  8
12_Linie
 62
     7
370
    20
100
AcDbLine
 10
112.3084467579159
 20
129.435979265277
 30
0.0
 11
113.3084467579159
 21
129.435979265277
 31
0.0
  0
LINE
  5
119
330
B6
100
AcDbEntity
  8
12_Linie
 62
     7
370
    20
100
AcDbLine
 10
112.3084467579159
 20
139.435979265277
 30
0.0
 11
113.3084467579159
 21
139.435979265277
 31
0.0
  0
LINE
  5
11A
330
B6
100
AcDbEntity
  8
12_Linie
 62
     7
370
    20
100
AcDbLine
 10
108.3084467579159
 20
175.435979265277
 30
0.0
 11
108.3084467579159
 21
174.435979265277
 31
0.0
  0
LINE
  5
11B
330
B6
100
AcDbEntity
  8
12_Linie
 62
     7
370
    20
100
AcDbLine
 10
112.3084467579159
 20
169.435979265277
 30
0.0
 11
113.3084467579159
 21
169.435979265277
 31
0.0
  0
LINE
  5
11C
330
B6
100
AcDbEntity
  8
STANDARD
  6
Continuous
 62
     7
370
    20
100
AcDbLine
 10
125.148446757916
 20
183.798201350359
 30
0.0
 11
125.148446757916
 21
182.698201350359
 31
0.0
  0
LINE
  5
11D
330
B6
100
AcDbEntity
  8
12_Linie
 62
     7
370
    20
100
AcDbLine
 10
97.42465049155213
 20
183.9667302934182
 30
0.0
 11
102.3498818940391
 21
175.435979265277
 31
0.0
  0
LINE
  5
11E
330
B6
100
AcDbEntity
  8
STANDARD
  6
Continuous
 62
     7
370
    60
100
AcDbLine
 10
112.308446757916
 20
174.4359792652771
 30
0.0
 11
112.308446757916
 21
94.43597926527696
 31
0.0
  0
LINE
  5
11F
330
B6
100
AcDbEntity
  8
12_Linie
 62
     7
370
    20
100
AcDbLine
 10
113.308446757916
 20
175.4359792652771
 30
0.0
 11
113.308446757916
 21
95.43597926527708
 31
0.0
  0
LINE
  5
120
330
B6
100
AcDbEntity
  8
12_Linie
 62
     7
370
    20
100
AcDbLine
 10
97.42465049155203
 20
183.9667302934182
 30
0.0
 11
92.49941908906509
 21
175.435979265277
 31
0.0
  0
LINE
  5
121
330
B6
100
AcDbEntity
  8
12_Linie
 62
     7
370
    20
100
AcDbLine
 10
98.30844675791592
 20
175.435979265277
 30
0.0
 11
98.30844675791592
 21
174.435979265277
 31
0.0
  0
LINE
  5
122
330
B6
100
AcDbEntity
  8
STANDARD
  6
Continuous
 62
     7
370
    20
100
AcDbLine
 10
72.16844675791594
 20
183.853756905914
 30
0.0
 11
72.16844675791594
 21
189.6581371333232
 31
0.0
  0
LINE
  5
123
330
B6
100
AcDbEntity
  8
STANDARD
  6
Continuous
 62
     7
370
    40
100
AcDbLine
 10
76.308446757916
 20
184.4359792652766
 30
0.0
 11
76.308446757916
 21
59.716382828739
 31
0.0
  0
LINE
  5
124
330
B6
100
AcDbEntity
  8
12_Linie
 62
     7
370
    20
100
AcDbLine
 10
112.3084467579159
 20
159.435979265277
 30
0.0
 11
113.3084467579159
 21
159.435979265277
 31
0.0
  0
LINE
  5
125
330
B6
100
AcDbEntity
  8
12_Linie
 62
     7
370
    20
100
AcDbLine
 10
113.3084467579159
 20
123.435979265277
 30
0.0
 11
121.308446757916
 21
128.0547814187941
 31
0.0
  0
LINE
  5
126
330
B6
100
AcDbEntity
  8
12_Linie
 62
     7
370
    20
100
AcDbLine
 10
113.3084467579159
 20
132.6735835723111
 30
0.0
 11
121.308446757916
 21
128.0547814187941
 31
0.0
  0
LINE
  5
127
330
B6
100
AcDbEntity
  8
12_Linie
 62
     7
370
    20
100
AcDbLine
 10
113.3084467579159
 20
141.9111878793452
 30
0.0
 11
121.308446757916
 21
137.2923857258282
 31
0.0
  0
LINE
  5
128
330
B6
100
AcDbEntity
  8
12_Linie
 62
     7
370
    20
100
AcDbLine
 10
113.3084467579159
 20
132.6735835723111
 30
0.0
 11
121.308446757916
 21
137.2923857258281
 31
0.0
  0
LINE
  5
129
330
B6
100
AcDbEntity
  8
12_Linie
 62
     7
370
    20
100
AcDbLine
 10
113.3084467579159
 20
160.3863964934133
 30
0.0
 11
121.308446757916
 21
155.7675943398963
 31
0.0
  0
LINE
  5
12A
330
B6
100
AcDbEntity
  8
12_Linie
 62
     7
370
    20
100
AcDbLine
 10
113.3084467579159
 20
151.1487921863792
 30
0.0
 11
121.308446757916
 21
155.7675943398963
 31
0.0
  0
LINE
  5
12B
330
B6
100
AcDbEntity
  8
12_Linie
 62
     7
370
    20
100
AcDbLine
 10
113.3084467579159
 20
141.9111878793452
 30
0.0
 11
121.308446757916
 21
146.5299900328622
 31
0.0
  0
LINE
  5
12C
330
B6
100
AcDbEntity
  8
12_Linie
 62
     7
370
    20
100
AcDbLine
 10
113.3084467579159
 20
151.1487921863792
 30
0.0
 11
121.308446757916
 21
146.5299900328622
 31
0.0
  0
LINE
  5
12D
330
B6
100
AcDbEntity
  8
12_Linie
 62
     7
370
    20
100
AcDbLine
 10
113.3084467579159
 20
160.3863964934134
 30
0.0
 11
121.308446757916
 21
165.0051986469304
 31
0.0
  0
LINE
  5
12E
330
B6
100
AcDbEntity
  8
12_Linie
 62
     7
370
    20
100
AcDbLine
 10
113.3084467579159
 20
169.6240008004474
 30
0.0
 11
121.308446757916
 21
165.0051986469304
 31
0.0
  0
LINE
  5
12F
330
B6
100
AcDbEntity
  8
STANDARD
  6
Continuous
 62
     7
370
    60
100
AcDbLine
 10
112.3084467579159
 20
174.435979265277
 30
0.0
 11
92.308446757916
 21
174.435979265277
 31
0.0
  0
LINE
  5
130
330
B6
100
AcDbEntity
  8
12_Linie
 62
     7
100
AcDbLine
 10
132.7044738973264
 20
124.435979265277
 30
0.0
 11
124.8044738973264
 21
124.435979265277
 31
0.0
  0
LINE
  5
131
330
B6
100
AcDbEntity
  8
12_Linie
 62
     7
370
    20
100
AcDbLine
 10
76.30844675791592
 20
63.31376481826419
 30
0.0
 11
92.308446757916
 21
72.55136912529824
 31
0.0
  0
LINE
  5
132
330
B6
100
AcDbEntity
  8
STANDARD
  6
Continuous
 62
     7
370
    40
100
AcDbLine
 10
121.8971902959723
 20
187.4238836079609
 30
0.0
 11
76.308446757916
 21
188.436966797695
 31
0.0
  0
LINE
  5
133
330
B6
100
AcDbEntity
  8
STANDARD
  6
Continuous
 62
     7
370
    40
100
AcDbLine
 10
76.308446757916
 20
184.4359792652766
 30
0.0
 11
76.308446757916
 21
188.436966797695
 31
0.0
  0
LINE
  5
134
330
B6
100
AcDbEntity
  8
STANDARD
  6
Continuous
 62
     7
370
    40
100
AcDbLine
 10
121.308446757916
 20
186.4367199145909
 30
0.0
 11
76.308446757916
 21
187.4367199145904
 31
0.0
  0
LINE
  5
135
330
B6
100
AcDbEntity
  8
STANDARD
  6
Continuous
 62
     7
370
    40
100
AcDbLine
 10
121.308446757916
 20
124.435979265277
 30
0.0
 11
263.3084467579159
 21
124.435979265277
 31
0.0
  0
ARC
  5
136
330
B6
100
AcDbEntity
  8
STANDARD
  6
Continuous
 62
     7
370
    40
100
AcDbCircle
 10
122.408446757916
 20
125.7859792652769
 30
0.0
 40
0.1
100
AcDbArc
 50
180.0
 51
270.0
  0
LINE
  5
137
330
B6
100
AcDbEntity
  8
STANDARD
  6
Continuous
 62
     7
370
    40
100
AcDbLine
 10
121.308446757916
 20
183.435979265277
 30
0.0
 11
121.308446757916
 21
123.435979265277
 31
0.0
  0
LINE
  5
138
330
B6
100
AcDbEntity
  8
12_Linie
 62
     7
100
AcDbLine
 10
128.7544738973263
 20
95.96815559186382
 30
0.0
 11
128.5544738973263
 21
95.96815559186382
 31
0.0
  0
LINE
  5
139
330
B6
100
AcDbEntity
  8
STANDARD
  6
Continuous
 62
     7
370
    20
100
AcDbLine
 10
125.148446757916
 20
182.698201350359
 30
0.0
 11
125.948446757916
 21
182.698201350359
 31
0.0
  0
LINE
  5
13A
330
B6
100
AcDbEntity
  8
STANDARD
  6
Continuous
 62
     7
370
    20
100
AcDbLine
 10
124.648446757916
 20
183.798201350359
 30
0.0
 11
124.648446757916
 21
182.698201350359
 31
0.0
  0
LINE
  5
13B
330
B6
100
AcDbEntity
  8
STANDARD
  6
Continuous
 62
     7
370
    40
100
AcDbLine
 10
122.308446757916
 20
186.935979265277
 30
0.0
 11
122.308446757916
 21
125.7859792652769
 31
0.0
  0
LINE
  5
13C
330
B6
100
AcDbEntity
  8
STANDARD
  6
Continuous
 62
     7
370
    20
100
AcDbLine
 10
125.148446757916
 20
182.198201350359
 30
0.0
 11
125.948446757916
 21
182.198201350359
 31
0.0
  0
LINE
  5
13D
330
B6
100
AcDbEntity
  8
Folie _ 3
  6
Continuous
 62
    30
420
 16741120
100
AcDbLine
 10
263.3084467579159
 20
124.435979265277
 30
0.0
 11
263.3084467579159
 21
123.435979265277
 31
0.0
  0
LINE
  5
13E
330
B6
100
AcDbEntity
  8
STANDARD
  6
Continuous
 62
     7
370
    20
100
AcDbLine
 10
72.81844675791595
 20
184.003756905914
 30
0.0
 11
73.31844675791595
 21
184.003756905914
 31
0.0
  0
LINE
  5
13F
330
B6
100
AcDbEntity
  8
12_Linie
 62
     7
370
    20
100
AcDbLine
 10
113.3084467579159
 20
169.6240008004474
 30
0.0
 11
121.308446757916
 21
174.2428029539645
 31
0.0
  0
LINE
  5
140
330
B6
100
AcDbEntity
  8
12_Linie
 62
     7
370
    20
100
AcDbLine
 10
119.2418047643348
 20
175.435979265277
 30
0.0
 11
121.308446757916
 21
174.2428029539644
 31
0.0
  0
ARC
  5
141
330
B6
100
AcDbEntity
  8
STANDARD
  6
Continuous
 62
     7
370
    20
100
AcDbCircle
 10
125.798446757916
 20
188.3274334341914
 30
0.0
 40
0.15
100
AcDbArc
 50
0.0
 51
88.7269699799485
  0
LINE
  5
142
330
B6
100
AcDbEntity
  8
STANDARD
  6
Continuous
 62
     7
370
    20
100
AcDbLine
 10
72.82177926850878
 20
189.654729744199
 30
0.0
 11
125.8017792685087
 21
188.4773964108661
 31
0.0
  0
LINE
  5
143
330
B6
100
AcDbEntity
  8
12_Linie
 62
     7
370
    20
100
AcDbLine
 10
121.308446757916
 20
175.435979265277
 30
0.0
 11
92.308446757916
 21
175.435979265277
 31
0.0
  0
LINE
  5
144
330
B6
100
AcDbEntity
  8
12_Linie
 62
     7
370
    20
100
AcDbLine
 10
76.30844675791592
 20
81.78897343233228
 30
0.0
 11
92.308446757916
 21
72.55136912529824
 31
0.0
  0
LINE
  5
145
330
B6
100
AcDbEntity
  8
12_Linie
 62
     7
370
    20
100
AcDbLine
 10
76.30844675791592
 20
100.2641820464004
 30
0.0
 11
92.308446757916
 21
109.5017863534345
 31
0.0
  0
LINE
  5
146
330
B6
100
AcDbEntity
  8
12_Linie
 62
     7
370
    20
100
AcDbLine
 10
76.30844675791592
 20
100.2641820464004
 30
0.0
 11
92.308446757916
 21
91.02657773936635
 31
0.0
  0
LINE
  5
147
330
B6
100
AcDbEntity
  8
12_Linie
 62
     7
370
    20
100
AcDbLine
 10
76.30844675791592
 20
118.7393906604685
 30
0.0
 11
92.308446757916
 21
109.5017863534345
 31
0.0
  0
LINE
  5
148
330
B6
100
AcDbEntity
  8
12_Linie
 62
     7
370
    20
100
AcDbLine
 10
76.30844675791592
 20
81.78897343233226
 30
0.0
 11
92.308446757916
 21
91.02657773936635
 31
0.0
  0
LINE
  5
149
330
B6
100
AcDbEntity
  8
12_Linie
 62
     7
370
    20
100
AcDbLine
 10
76.30844675791592
 20
174.1650165026728
 30
0.0
 11
92.308446757916
 21
183.4026208097068
 31
0.0
  0
LINE
  5
14A
330
B6
100
AcDbEntity
  8
12_Linie
 62
     7
370
    20
100
AcDbLine
 10
76.30844675791592
 20
174.1650165026728
 30
0.0
 11
92.308446757916
 21
164.9274121956387
 31
0.0
  0
LINE
  5
14B
330
B6
100
AcDbEntity
  8
12_Linie
 62
     7
370
    20
100
AcDbLine
 10
76.30844675791592
 20
155.6898078886047
 30
0.0
 11
92.308446757916
 21
164.9274121956387
 31
0.0
  0
LINE
  5
14C
330
B6
100
AcDbEntity
  8
12_Linie
 62
     7
370
    20
100
AcDbLine
 10
76.30844675791592
 20
137.2145992745365
 30
0.0
 11
92.308446757916
 21
127.9769949675025
 31
0.0
  0
LINE
  5
14D
330
B6
100
AcDbEntity
  8
12_Linie
 62
     7
370
    20
100
AcDbLine
 10
76.30844675791592
 20
137.2145992745365
 30
0.0
 11
92.308446757916
 21
146.4522035815706
 31
0.0
  0
LINE
  5
14E
330
B6
100
AcDbEntity
  8
12_Linie
 62
     7
370
    20
100
AcDbLine
 10
76.30844675791592
 20
118.7393906604684
 30
0.0
 11
92.308446757916
 21
127.9769949675025
 31
0.0
  0
LINE
  5
14F
330
B6
100
AcDbEntity
  8
12_Linie
 62
     7
370
    20
100
AcDbLine
 10
76.30844675791592
 20
155.6898078886047
 30
0.0
 11
92.308446757916
 21
146.4522035815706
 31
0.0
  0
ARC
  5
150
330
B6
100
AcDbEntity
  8
STANDARD
  6
Continuous
 62
     7
370
    20
100
AcDbCircle
 10
125.948446757916
 20
188.4741371333238
 30
0.0
 40
0.5
100
AcDbArc
 50
0.0
 51
88.72696997994143
  0
LINE
  5
151
330
B6
100
AcDbEntity
  8
STANDARD
  6
Continuous
 62
     7
370
    20
100
AcDbLine
 10
125.298446757916
 20
187.6428161715737
 30
0.0
 11
125.298446757916
 21
182.848201350359
 31
0.0
  0
ARC
  5
152
330
B6
100
AcDbEntity
  8
STANDARD
  6
Continuous
 62
     7
370
    20
100
AcDbCircle
 10
125.148446757916
 20
182.698201350359
 30
0.0
 40
0.5
100
AcDbArc
 50
180.0
 51
270.0
  0
ARC
  5
153
330
B6
100
AcDbEntity
  8
STANDARD
  6
Continuous
 62
     7
370
    20
100
AcDbCircle
 10
72.81844675791595
 20
189.5047667675242
 30
0.0
 40
0.15
100
AcDbArc
 50
88.72696997993981
 51
180.0
  0
LINE
  5
154
330
B6
100
AcDbEntity
  8
STANDARD
  6
Continuous
 62
     7
370
    20
100
AcDbLine
 10
72.6795551265585
 20
190.158013722239
 30
0.0
 11
125.9595551265586
 21
188.9740137222396
 31
0.0
  0
LINE
  5
155
330
B6
100
AcDbEntity
  8
12_Linie
 62
     7
100
AcDbLine
 10
124.8044738973264
 20
124.685979265277
 30
0.0
 11
132.7044738973264
 21
124.685979265277
 31
0.0
  0
LINE
  5
156
330
B6
100
AcDbEntity
  8
STANDARD
  6
Continuous
 62
     7
370
    20
100
AcDbLine
 10
72.81844675791595
 20
184.003756905914
 30
0.0
 11
72.81844675791595
 21
189.3002729464588
 31
0.0
  0
ARC
  5
157
330
B6
100
AcDbEntity
  8
STANDARD
  6
Continuous
 62
     7
370
    20
100
AcDbCircle
 10
73.01844675791595
 20
189.3002729464588
 30
0.0
 40
0.2
100
AcDbArc
 50
88.72696997994387
 51
180.0
  0
ARC
  5
158
330
B6
100
AcDbEntity
  8
STANDARD
  6
Continuous
 62
     7
370
    20
100
AcDbCircle
 10
125.098446757916
 20
187.6428161715737
 30
0.0
 40
0.2
100
AcDbArc
 50
0.0
 51
88.72696997994387
  0
LINE
  5
159
330
B6
100
AcDbEntity
  8
STANDARD
  6
Continuous
 62
     7
370
    20
100
AcDbLine
 10
73.31844675791595
 20
184.003756905914
 30
0.0
 11
73.31844675791595
 21
188.7890383937954
 31
0.0
  0
ARC
  5
15A
330
B6
100
AcDbEntity
  8
STANDARD
  6
Continuous
 62
     7
370
    20
100
AcDbCircle
 10
73.51844675791595
 20
188.7890383937954
 30
0.0
 40
0.2
100
AcDbArc
 50
88.72696997994387
 51
180.0
  0
LINE
  5
15B
330
B6
100
AcDbEntity
  8
12_Linie
 62
     7
370
    20
100
AcDbLine
 10
116.6296151671001
 20
183.5399533006284
 30
0.0
 11
121.308446757916
 21
175.435979265277
 31
0.0
  0
LINE
  5
15C
330
B6
100
AcDbEntity
  8
12_Linie
 62
     7
370
    20
100
AcDbLine
 10
116.6296151671001
 20
183.5399533006284
 30
0.0
 11
111.9507835762842
 21
175.435979265277
 31
0.0
  0
ARC
  5
15D
330
B6
100
AcDbEntity
  8
STANDARD
  6
Continuous
 62
     7
370
    20
100
AcDbCircle
 10
72.66844675791594
 20
189.6581371333232
 30
0.0
 40
0.5
100
AcDbArc
 50
88.72696997994406
 51
180.0
  0
LINE
  5
15E
330
B6
100
AcDbEntity
  8
STANDARD
  6
Continuous
 62
     7
370
    20
100
AcDbLine
 10
73.02289010537302
 20
189.5002235820251
 30
0.0
 11
125.6028901053729
 21
188.3317791375812
 31
0.0
  0
LINE
  5
15F
330
B6
100
AcDbEntity
  8
STANDARD
  6
Continuous
 62
     7
370
    20
100
AcDbLine
 10
125.798446757916
 20
188.1318285020149
 30
0.0
 11
125.798446757916
 21
182.848201350359
 31
0.0
  0
ARC
  5
160
330
B6
100
AcDbEntity
  8
STANDARD
  6
Continuous
 62
     7
370
    20
100
AcDbCircle
 10
125.598446757916
 20
188.1318285020149
 30
0.0
 40
0.2
100
AcDbArc
 50
0.0
 51
88.72696997994387
  0
LINE
  5
161
330
B6
100
AcDbEntity
  8
STANDARD
  6
Continuous
 62
     7
370
    20
100
AcDbLine
 10
126.448446757916
 20
188.4741371333238
 30
0.0
 11
126.448446757916
 21
182.698201350359
 31
0.0
  0
HATCH
  5
162
330
B6
100
AcDbEntity
  8
Folie _ 3
  6
Continuous
 62
    50
100
AcDbHatch
 10
0.0
 20
0.0
 30
0.0
210
0.0
220
0.0
230
1.0
  2
SOLID
 70
     1
 71
     0
 91
        1
 92
        0
 93
        6
 72
     1
 10
113.308446757916
 20
123.435979265277
 11
113.308446757916
 21
175.4359792652771
 72
     1
 10
113.308446757916
 20
175.4359792652771
 11
92.308446757916
 21
175.435979265277
 72
     1
 10
92.308446757916
 20
175.435979265277
 11
92.308446757916
 21
184.0804237097212
 72
     1
 10
92.308446757916
 20
184.0804237097212
 11
121.308446757916
 21
183.435979265277
 72
     1
 10
121.308446757916
 20
183.435979265277
 11
121.308446757916
 21
123.435979265277
 72
     1
 10
121.308446757916
 20
123.435979265277
 11
113.308446757916
 21
123.435979265277
 97
        0
 75
     0
 76
     1
 98
        0
  0
TEXT
  5
163
330
B6
100
AcDbEntity
  8
Folie _ 3
  6
Continuous
 62
     7
100
AcDbText
 10
132.5160985929472
 20
184.1157852240302
 30
0.0
 40
3.177854776382446
  1
Dreischichtplatte
 41
1.071865229477616
  7
Style0
100
AcDbText
  0
TEXT
  5
164
330
B6
100
AcDbEntity
  8
Folie _ 3
  6
Continuous
 62
     7
100
AcDbText
 10
132.5160985929472
 20
190.0652887884839
 30
0.0
 40
3.177854776382446
  1
Attikablech
 41
1.071865229477616
  7
Style0
100
AcDbText
  0
LINE
  5
165
330
B6
100
AcDbEntity
  8
STANDARD
  6
Continuous
 62
     7
370
    20
100
AcDbLine
 10
124.648446757916
 20
183.798201350359
 30
0.0
 11
125.148446757916
 21
183.798201350359
 31
0.0
  0
LINE
  5
166
330
B6
100
AcDbEntity
  8
STANDARD
  6
Continuous
 62
     7
370
    20
100
AcDbLine
 10
73.46844675791594
 20
183.853756905914
 30
0.0
 11
73.46844675791594
 21
184.953756905914
 31
0.0
  0
LINE
  5
167
330
B6
100
AcDbEntity
  8
STANDARD
  6
Continuous
 62
     7
370
    20
100
AcDbLine
 10
72.66844675791594
 20
183.853756905914
 30
0.0
 11
73.46844675791594
 21
183.853756905914
 31
0.0
  0
LINE
  5
168
330
B6
100
AcDbEntity
  8
STANDARD
  6
Continuous
 62
     7
370
    20
100
AcDbLine
 10
72.66844675791594
 20
183.853756905914
 30
0.0
 11
72.66844675791594
 21
189.5047667675242
 31
0.0
  0
ARC
  5
169
330
B6
100
AcDbEntity
  8
STANDARD
  6
Continuous
 62
     7
370
    20
100
AcDbCircle
 10
72.66844675791594
 20
183.853756905914
 30
0.0
 40
0.5
100
AcDbArc
 50
180.0
 51
270.0
  0
LINE
  5
16A
330
B6
100
AcDbEntity
  8
STANDARD
  6
Continuous
 62
     7
370
    20
100
AcDbLine
 10
72.66844675791594
 20
183.353756905914
 30
0.0
 11
73.46844675791594
 21
183.353756905914
 31
0.0
  0
LINE
  5
16B
330
B6
100
AcDbEntity
  8
STANDARD
  6
Continuous
 62
     7
370
    20
100
AcDbLine
 10
73.96844675791594
 20
183.853756905914
 30
0.0
 11
73.96844675791594
 21
184.953756905914
 31
0.0
  0
ARC
  5
16C
330
B6
100
AcDbEntity
  8
STANDARD
  6
Continuous
 62
     7
370
    20
100
AcDbCircle
 10
73.46844675791594
 20
183.853756905914
 30
0.0
 40
0.5
100
AcDbArc
 50
270.0
 51
0.0
  0
ARC
  5
16D
330
B6
100
AcDbEntity
  8
STANDARD
  6
Continuous
 62
     7
370
    20
100
AcDbCircle
 10
125.948446757916
 20
182.698201350359
 30
0.0
 40
0.5
100
AcDbArc
 50
270.0
 51
0.0
  0
TEXT
  5
16E
330
B6
100
AcDbEntity
  8
Folie _ 3
  6
Continuous
 62
     7
100
AcDbText
 10
132.5160985929472
 20
152.9064184558216
 30
0.0
 40
3.177854776382446
  1
Wärmedämmung
 41
1.071865229477616
  7
Style0
100
AcDbText
  0
TEXT
  5
16F
330
B6
100
AcDbEntity
  8
Folie _ 3
  6
Continuous
 62
     7
100
AcDbText
 10
132.5160985929472
 20
148.9118424787059
 30
0.0
 40
3.177854776382446
  1
einseitig kaschiert
 41
1.071865229477616
  7
Style0
100
AcDbText
  0
LINE
  5
170
330
B6
100
AcDbEntity
  8
Folie _ 3
  6
Continuous
 62
     7
370
    30
100
AcDbLine
 10
132.0144234589729
 20
152.0896972074046
 30
0.0
 11
119.3581650467844
 21
154.6415986689788
 31
0.0
  0
TEXT
  5
171
330
B6
100
AcDbEntity
  8
Folie _ 3
  6
Continuous
 62
     7
100
AcDbText
 10
132.3253736533227
 20
168.744388008173
 30
0.0
 40
3.177854776382446
  1
COVERiT NOVOtan EPDM
 41
1.071865229477616
  7
Style0
100
AcDbText
  0
LINE
  5
172
330
B6
100
AcDbEntity
  8
Folie _ 3
  6
Continuous
 62
     7
370
    30
100
AcDbLine
 10
132.5160985929472
 20
169.7903262726879
 30
0.0
 11
121.8289700414236
 21
163.7750403399671
 31
0.0
  0
LINE
  5
173
330
B6
100
AcDbEntity
  8
Folie _ 3
  6
Continuous
 62
     7
370
    30
100
AcDbLine
 10
132.5160985929472
 20
185.4678489622367
 30
0.0
 11
117.3119663274493
 21
184.1744589818274
 31
0.0
  0
LINE
  5
174
330
B6
100
AcDbEntity
  8
STANDARD
  6
Continuous
 62
     7
370
    20
100
AcDbLine
 10
125.948446757916
 20
188.3274334341914
 30
0.0
 11
125.948446757916
 21
182.698201350359
 31
0.0
  0
LINE
  5
175
330
B6
100
AcDbEntity
  8
Folie _ 3
  6
Continuous
 62
     7
370
    30
100
AcDbLine
 10
132.5958902481171
 20
191.1307858330463
 30
0.0
 11
123.4001801628124
 21
189.0308887214339
 31
0.0
  0
HATCH
  5
176
330
B6
100
AcDbEntity
  8
Folie _ 3
  6
Continuous
 62
     7
370
    20
100
AcDbHatch
 10
0.0
 20
0.0
 30
0.0
210
0.0
220
0.0
230
1.0
  2
ANSI33
 70
     0
 71
     0
 91
        1
 92
        0
 93
        4
 72
     1
 10
92.308446757916
 20
94.43597926527696
 11
263.3084467579159
 21
94.43597926527696
 72
     1
 10
263.3084467579159
 20
94.43597926527696
 11
263.3084467579159
 21
69.43597926527696
 72
     1
 10
263.3084467579159
 20
69.43597926527696
 11
92.30844675791599
 21
69.43597926527696
 72
     1
 10
92.308446757916
 20
69.43597926527696
 11
92.308446757916
 21
94.43597926527696
 97
        0
 75
     0
 76
     1
 52
0.0
 41
25.0
 77
     0
 78
     2
 53
45.0
 43
24.96604895377905
 44
-437.4007798759836
 45
-4.419417382415922
 46
4.419417382415921
 79
     0
 53
45.0
 43
29.38546632877905
 44
-437.4007798759836
 45
-4.419417382415922
 46
4.419417382415921
 79
     2
 49
3.125
 49
-1.5625
 98
        0
  0
LINE
  5
177
330
B6
100
AcDbEntity
  8
STANDARD
  6
Continuous
 62
     7
370
    60
100
AcDbLine
 10
112.308446757916
 20
69.43597926527698
 30
0.0
 11
112.308446757916
 21
59.71638282873917
 31
0.0
  0
HATCH
  5
178
330
B6
100
AcDbEntity
  8
Folie _ 3
  6
Continuous
 62
    50
100
AcDbHatch
 10
0.0
 20
0.0
 30
0.0
210
0.0
220
0.0
230
1.0
  2
SOLID
 70
     1
 71
     0
 91
        1
 92
        0
 93
        4
 72
     1
 10
113.3084467579159
 20
123.435979265277
 11
163.3084467579159
 21
123.435979265277
 72
     1
 10
163.3084467579159
 20
123.435979265277
 11
163.3084467579159
 21
109.435979265277
 72
     1
 10
163.3084467579159
 20
109.435979265277
 11
113.3084467579159
 21
109.435979265277
 72
     1
 10
113.3084467579159
 20
109.435979265277
 11
113.3084467579159
 21
123.435979265277
 97
        0
 75
     0
 76
     1
 98
        0
  0
HATCH
  5
179
330
B6
100
AcDbEntity
  8
Folie _ 3
  6
Continuous
 62
    50
100
AcDbHatch
 10
0.0
 20
0.0
 30
0.0
210
0.0
220
0.0
230
1.0
  2
SOLID
 70
     1
 71
     0
 91
        1
 92
        0
 93
        4
 72
     1
 10
163.3084467579158
 20
109.435979265277
 11
263.3084467579159
 21
109.435979265277
 72
     1
 10
263.3084467579159
 20
109.435979265277
 11
263.3084467579159
 21
123.435979265277
 72
     1
 10
263.3084467579159
 20
123.435979265277
 11
163.3084467579158
 21
123.435979265277
 72
     1
 10
163.3084467579158
 20
123.435979265277
 11
163.3084467579158
 21
109.435979265277
 97
        0
 75
     0
 76
     1
 98
        0
  0
HATCH
  5
17A
330
B6
100
AcDbEntity
  8
Folie _ 3
  6
Continuous
 62
    50
100
AcDbHatch
 10
0.0
 20
0.0
 30
0.0
210
0.0
220
0.0
230
1.0
  2
SOLID
 70
     1
 71
     0
 91
        1
 92
        0
 93
        4
 72
     1
 10
113.3084467579159
 20
109.435979265277
 11
213.3084467579159
 21
109.435979265277
 72
     1
 10
213.3084467579159
 20
109.435979265277
 11
213.3084467579159
 21
95.43597926527713
 72
     1
 10
213.3084467579159
 20
95.43597926527713
 11
113.3084467579159
 21
95.43597926527713
 72
     1
 10
113.3084467579159
 20
95.43597926527713
 11
113.3084467579159
 21
109.435979265277
 97
        0
 75
     0
 76
     1
 98
        0
  0
HATCH
  5
17B
330
B6
100
AcDbEntity
  8
Folie _ 3
  6
Continuous
 62
    50
100
AcDbHatch
 10
0.0
 20
0.0
 30
0.0
210
0.0
220
0.0
230
1.0
  2
SOLID
 70
     1
 71
     0
 91
        1
 92
        0
 93
        4
 72
     1
 10
213.3084467579159
 20
95.43597926527704
 11
263.3084467579159
 21
95.43597926527704
 72
     1
 10
263.3084467579159
 20
95.43597926527704
 11
263.3084467579159
 21
109.435979265277
 72
     1
 10
263.3084467579159
 20
109.435979265277
 11
213.3084467579159
 21
109.435979265277
 72
     1
 10
213.3084467579159
 20
109.435979265277
 11
213.3084467579159
 21
95.43597926527704
 97
        0
 75
     0
 76
     1
 98
        0
  0
LINE
  5
17C
330
B6
100
AcDbEntity
  8
Folie _ 3
  6
Continuous
 62
     7
370
    20
100
AcDbLine
 10
113.3084467579159
 20
109.435979265277
 30
0.0
 11
263.3084467579159
 21
109.435979265277
 31
0.0
  0
LINE
  5
17D
330
B6
100
AcDbEntity
  8
Folie _ 3
  6
Continuous
 62
     7
370
    20
100
AcDbLine
 10
163.3084467579158
 20
123.435979265277
 30
0.0
 11
163.3084467579158
 21
109.435979265277
 31
0.0
  0
LINE
  5
17E
330
B6
100
AcDbEntity
  8
Folie _ 3
  6
Continuous
 62
     7
370
    20
100
AcDbLine
 10
213.3084467579159
 20
109.435979265277
 30
0.0
 11
213.3084467579159
 21
95.43597926527704
 31
0.0
  0
LINE
  5
17F
330
B6
100
AcDbEntity
  8
STANDARD
  6
Continuous
 62
     7
370
    40
100
AcDbLine
 10
121.3084467579159
 20
183.435979265277
 30
0.0
 11
76.31955375549356
 21
184.4357324431082
 31
0.0
  0
LINE
  5
180
330
B6
100
AcDbEntity
  8
STANDARD
  6
Continuous
 62
     7
370
    40
100
AcDbLine
 10
121.308446757916
 20
183.435979265277
 30
0.0
 11
121.308446757916
 21
186.4367199145909
 31
0.0
  0
ARC
  5
181
330
B6
100
AcDbEntity
  8
STANDARD
  6
Continuous
 62
     7
370
    40
100
AcDbCircle
 10
121.8084640666808
 20
186.931818920917
 30
0.0
 40
0.5
100
AcDbArc
 50
0.4767458475681901
 51
79.77859225026454
  0
LINE
  5
182
330
B6
100
AcDbEntity
  8
STANDARD
  6
Continuous
 62
     7
370
    40
100
AcDbLine
 10
92.308446757916
 20
175.435979265277
 30
0.0
 11
92.308446757916
 21
184.0804237097212
 31
0.0
  0
LINE
  5
183
330
B6
100
AcDbEntity
  8
12_Linie
 62
     7
100
AcDbLine
 10
132.7544738973264
 20
124.635979265277
 30
0.0
 11
132.7544738973264
 21
124.485979265277
 31
0.0
  0
LINE
  5
184
330
B6
100
AcDbEntity
  8
12_Linie
 62
     7
100
AcDbLine
 10
124.7544738973264
 20
124.485979265277
 30
0.0
 11
124.7544738973264
 21
124.635979265277
 31
0.0
  0
ARC
  5
185
330
B6
100
AcDbEntity
  8
14_Kreis
  6
Continuous
 62
     7
370
     0
100
AcDbCircle
 10
124.8044738973264
 20
124.635979265277
 30
0.0
 40
0.05
100
AcDbArc
 50
90.0
 51
180.0
  0
ARC
  5
186
330
B6
100
AcDbEntity
  8
14_Kreis
  6
Continuous
 62
     7
370
     0
100
AcDbCircle
 10
124.8044738973264
 20
124.485979265277
 30
0.0
 40
0.05
100
AcDbArc
 50
180.0
 51
270.0
  0
ARC
  5
187
330
B6
100
AcDbEntity
  8
14_Kreis
  6
Continuous
 62
     7
370
     0
100
AcDbCircle
 10
132.7044738973264
 20
124.635979265277
 30
0.0
 40
0.05
100
AcDbArc
 50
0.0
 51
90.0
  0
ARC
  5
188
330
B6
100
AcDbEntity
  8
14_Kreis
  6
Continuous
 62
     7
370
     0
100
AcDbCircle
 10
132.7044738973264
 20
124.485979265277
 30
0.0
 40
0.05
100
AcDbArc
 50
270.0
 51
0.0
  0
LINE
  5
189
330
B6
100
AcDbEntity
  8
12_Linie
 62
     7
100
AcDbLine
 10
128.7544738973263
 20
124.435979265277
 30
0.0
 11
128.7544738973262
 21
95.96815559186375
 31
0.0
  0
LINE
  5
18A
330
B6
100
AcDbEntity
  8
12_Linie
 62
     7
100
AcDbLine
 10
129.2544738973265
 20
124.4359792652766
 30
0.0
 11
129.2544738973264
 21
96.72679787259086
 31
0.0
  0
LINE
  5
18B
330
B6
100
AcDbEntity
  8
12_Linie
 62
     7
100
AcDbLine
 10
128.2544738973265
 20
124.4359792652768
 30
0.0
 11
128.2544738973264
 21
96.72679787259112
 31
0.0
  0
LINE
  5
18C
330
B6
100
AcDbEntity
  8
12_Linie
 62
     7
100
AcDbLine
 10
128.7544738973262
 20
95.96815559186382
 30
0.0
 11
128.9544738973262
 21
95.96815559186382
 31
0.0
  0
LINE
  5
18D
330
B6
100
AcDbEntity
  8
12_Linie
 62
     7
100
AcDbLine
 10
128.5544738973263
 20
95.96815559186382
 30
0.0
 11
128.2544738973263
 21
96.72679787259125
 31
0.0
  0
LINE
  5
18E
330
B6
100
AcDbEntity
  8
12_Linie
 62
     7
100
AcDbLine
 10
128.9544738973263
 20
95.96815559186382
 30
0.0
 11
129.2544738973263
 21
96.72679787259125
 31
0.0
  0
HATCH
  5
18F
330
B6
100
AcDbEntity
  8
18_Schraffur
 62
     8
420
  8421504
100
AcDbHatch
 10
0.0
 20
0.0
 30
0.0
210
0.0
220
0.0
230
1.0
  2
SOLID
 70
     1
 71
     0
 91
        1
 92
        0
 93
        8
 72
     2
 10
132.7044738973264
 20
124.635979265277
 40
0.05
 50
0.0
 51
90.0
 73
     1
 72
     1
 10
132.7044738973264
 20
124.685979265277
 11
124.8044738973264
 21
124.685979265277
 72
     2
 10
124.8044738973264
 20
124.635979265277
 40
0.05
 50
90.0
 51
180.0
 73
     1
 72
     1
 10
124.7544738973264
 20
124.635979265277
 11
124.7544738973264
 21
124.485979265277
 72
     2
 10
124.8044738973264
 20
124.485979265277
 40
0.05
 50
180.0
 51
270.0
 73
     1
 72
     1
 10
124.8044738973264
 20
124.435979265277
 11
132.7044738973264
 21
124.435979265277
 72
     2
 10
132.7044738973264
 20
124.485979265277
 40
0.05
 50
270.0
 51
360.0
 73
     1
 72
     1
 10
132.7544738973264
 20
124.485979265277
 11
132.7544738973264
 21
124.635979265277
 97
        0
 75
     0
 76
     1
 98
        0
  0
LINE
  5
190
330
B6
100
AcDbEntity
  8
12_Linie
 62
     7
100
AcDbLine
 10
128.591162950797
 20
95.96815559186376
 30
0.0
 11
128.591162950797
 21
84.95125869818395
 31
0.0
  0
LINE
  5
191
330
B6
100
AcDbEntity
  8
12_Linie
 62
     7
100
AcDbLine
 10
128.9177848438556
 20
95.96815559186376
 30
0.0
 11
128.9177848438556
 21
84.95125869818395
 31
0.0
  0
LINE
  5
192
330
B6
100
AcDbEntity
  8
12_Linie
 62
     7
100
AcDbLine
 10
128.591162950797
 20
84.95125869818398
 30
0.0
 11
128.7544738973264
 21
84.6371824305909
 31
0.0
  0
LINE
  5
193
330
B6
100
AcDbEntity
  8
12_Linie
 62
     7
100
AcDbLine
 10
128.9177848438558
 20
84.95125869818398
 30
0.0
 11
128.7544738973264
 21
84.6371824305909
 31
0.0
  0
LINE
  5
194
330
B6
100
AcDbEntity
  8
12_Linie
 62
     7
100
AcDbLine
 10
128.7544738973265
 20
84.6371824305909
 30
0.0
 11
128.7544738973264
 21
95.96815559186382
 31
0.0
  0
HATCH
  5
195
330
B6
100
AcDbEntity
  8
18_Schraffur
 62
     7
100
AcDbHatch
 10
0.0
 20
0.0
 30
0.0
210
0.0
220
0.0
230
1.0
  2
ANSI31
 70
     0
 71
     0
 91
        1
 92
        0
 93
        5
 72
     1
 10
128.9177848438556
 20
95.96815559186382
 11
128.591162950797
 21
95.96815559186382
 72
     1
 10
128.591162950797
 20
95.96815559186376
 11
128.591162950797
 21
84.95125869818395
 72
     1
 10
128.591162950797
 20
84.95125869818398
 11
128.7544738973264
 21
84.6371824305909
 72
     1
 10
128.7544738973264
 20
84.6371824305909
 11
128.9177848438556
 21
84.95125869818398
 72
     1
 10
128.9177848438555
 20
84.95125869818382
 11
128.9177848438555
 21
95.96815559186363
 97
        0
 75
     0
 76
     1
 52
0.0
 41
4.0
 77
     0
 78
     1
 53
45.0
 43
-390.3610385314103
 44
-83.91447857311704
 45
-0.3535533905932736
 46
0.3535533905932736
 79
     0
 98
        0
  0
HATCH
  5
196
330
B6
100
AcDbEntity
  8
18_Schraffur
 62
     8
420
  8421504
100
AcDbHatch
 10
0.0
 20
0.0
 30
0.0
210
0.0
220
0.0
230
1.0
  2
SOLID
 70
     1
 71
     0
 91
        4
 92
        0
 93
        4
 72
     1
 10
128.7544738973264
 20
124.435979265277
 11
128.2544738973264
 21
124.435979265277
 72
     1
 10
128.2544738973264
 20
124.4359792652758
 11
128.2544738973264
 21
99.43597926527579
 72
     1
 10
128.2544738973264
 20
99.43597926527711
 11
128.7544738973264
 21
99.43597926527711
 72
     1
 10
128.7544738973264
 20
99.43597926527434
 11
128.7544738973264
 21
124.4359792652743
 97
        0
 92
        0
 93
        4
 72
     1
 10
129.2544738973264
 20
124.435979265277
 11
128.7544738973264
 21
124.435979265277
 72
     1
 10
128.7544738973264
 20
124.4359792652772
 11
128.7544738973264
 21
99.43597926527724
 72
     1
 10
128.7544738973264
 20
99.43597926527711
 11
129.2544738973264
 21
99.43597926527711
 72
     1
 10
129.2544738973264
 20
99.43597926527434
 11
129.2544738973264
 21
124.4359792652743
 97
        0
 92
        0
 93
        5
 72
     1
 10
128.7544738973264
 20
99.43597926527711
 11
128.2544738973264
 21
99.43597926527711
 72
     1
 10
128.2544738973264
 20
99.43597926527718
 11
128.2544738973263
 21
96.72679787259132
 72
     1
 10
128.2544738973263
 20
96.72679787259125
 11
128.5544738973263
 21
95.96815559186382
 72
     1
 10
128.5544738973263
 20
95.96815559186382
 11
128.7544738973263
 21
95.96815559186382
 72
     1
 10
128.7544738973264
 20
95.96815559186376
 11
128.7544738973265
 21
99.43597926527704
 97
        0
 92
        0
 93
        5
 72
     1
 10
129.2544738973264
 20
99.43597926527711
 11
128.7544738973264
 21
99.43597926527711
 72
     1
 10
128.7544738973264
 20
99.43597926527711
 11
128.7544738973263
 21
95.96815559186382
 72
     1
 10
128.7544738973262
 20
95.96815559186382
 11
128.9544738973263
 21
95.96815559186382
 72
     1
 10
128.9544738973263
 20
95.96815559186382
 11
129.2544738973263
 21
96.72679787259125
 72
     1
 10
129.2544738973263
 20
96.72679787259116
 11
129.2544738973264
 21
99.43597926527701
 97
        0
 75
     0
 76
     1
 98
        0
  0
ARC
  5
197
330
B6
100
AcDbEntity
  8
STANDARD
  6
Continuous
 62
     7
370
    40
100
AcDbCircle
 10
132.6695128036352
 20
123.0886407595867
 30
0.0
 40
1.597721058205452
100
AcDbArc
 50
57.4889378642061
 51
88.74616223263214
  0
LINE
  5
198
330
B6
100
AcDbEntity
  8
Folie _ 3
  6
Continuous
 62
     7
100
AcDbLine
 10
121.408446757916
 20
124.435979265277
 30
0.0
 11
135.7544738973264
 21
124.435979265277
 31
0.0
  0
LINE
  5
199
330
B6
100
AcDbEntity
  8
STANDARD
  6
Continuous
 62
     7
370
    40
100
AcDbLine
 10
133.5282278500373
 20
125.435979265277
 30
0.0
 11
135.2544738973264
 21
125.435979265277
 31
0.0
  0
LINE
  5
19A
330
B6
100
AcDbEntity
  8
STANDARD
  6
Continuous
 62
     7
370
    40
100
AcDbLine
 10
135.7544738973264
 20
124.935979265277
 30
0.0
 11
135.7544738973264
 21
124.435979265277
 31
0.0
  0
ARC
  5
19B
330
B6
100
AcDbEntity
  8
STANDARD
  6
Continuous
 62
     7
370
    40
100
AcDbCircle
 10
132.6695128036352
 20
124.0886407595866
 30
0.0
 40
1.597721058205452
100
AcDbArc
 50
57.4889378642061
 51
88.74616223263214
  0
ARC
  5
19C
330
B6
100
AcDbEntity
  8
STANDARD
  6
Continuous
 62
     7
370
    40
100
AcDbCircle
 10
135.2544738973264
 20
124.935979265277
 30
0.0
 40
0.5
100
AcDbArc
 50
0.0
 51
90.0
  0
HATCH
  5
19D
330
B6
100
AcDbEntity
  8
Folie _ 3
  6
Continuous
 62
    30
100
AcDbHatch
 10
0.0
 20
0.0
 30
0.0
210
0.0
220
0.0
230
1.0
  2
SOLID
 70
     1
 71
     0
 91
        1
 92
        0
 93
       14
 72
     1
 10
135.2544738973264
 20
125.435979265277
 11
133.5282278500373
 21
125.435979265277
 72
     2
 10
132.6695128036352
 20
124.0886407595866
 40
1.597721058205452
 50
57.4889378642061
 51
88.74616223263459
 73
     1
 72
     1
 10
132.7044738973266
 20
125.685979265277
 11
122.408446757916
 21
125.685979265277
 72
     2
 10
122.408446757916
 20
125.7859792652769
 40
0.1
 50
90.0
 51
180.0
 73
     0
 72
     1
 10
122.308446757916
 20
125.7859792652769
 11
122.308446757916
 21
154.046728687228
 72
     1
 10
122.308446757916
 20
154.046728687228
 11
121.308446757916
 21
154.2483602736309
 72
     1
 10
121.308446757916
 20
154.2483602736309
 11
121.308446757916
 21
124.7859792652769
 72
     2
 10
121.408446757916
 20
124.7859792652769
 40
0.1
 50
180.0
 51
270.0
 73
     1
 72
     1
 10
121.408446757916
 20
124.685979265277
 11
132.7044738973297
 21
124.685979265277
 72
     2
 10
132.7044738973264
 20
124.635979265277
 40
0.05
 50
270.0
 51
272.5886802985337
 73
     0
 72
     2
 10
132.6695128036352
 20
123.0886407595867
 40
1.597721058205452
 50
271.3348425311743
 51
302.5110621357979
 73
     0
 72
     1
 10
133.5282278500373
 20
124.435979265277
 11
135.7544738973264
 21
124.435979265277
 72
     1
 10
135.7544738973264
 20
124.435979265277
 11
135.7544738973264
 21
124.935979265277
 72
     2
 10
135.2544738973264
 20
124.935979265277
 40
0.5
 50
0.0
 51
90.0
 73
     1
 97
        0
 75
     0
 76
     1
 98
        0
  0
HATCH
  5
19E
330
B6
100
AcDbEntity
  8
Folie _ 3
  6
Continuous
 62
    30
100
AcDbHatch
 10
0.0
 20
0.0
 30
0.0
210
0.0
220
0.0
230
1.0
  2
SOLID
 70
     1
 71
     0
 91
        2
 92
        0
 93
        4
 72
     1
 10
189.6225908531188
 20
124.435979265277
 11
129.2544738973265
 21
124.435979265277
 72
     1
 10
129.2544738973265
 20
124.435979265277
 11
129.2544738973265
 21
123.435979265277
 72
     1
 10
129.2544738973265
 20
123.435979265277
 11
189.6225908531188
 21
123.435979265277
 72
     1
 10
189.6225908531188
 20
123.435979265277
 11
189.6225908531188
 21
124.435979265277
 97
        0
 92
        0
 93
        5
 72
     1
 10
128.2544738973265
 20
124.435979265277
 11
121.308446757916
 21
124.435979265277
 72
     1
 10
121.308446757916
 20
124.435979265277
 11
121.308446757916
 21
123.535979265277
 72
     2
 10
121.408446757916
 20
123.535979265277
 40
0.1
 50
180.0
 51
270.0
 73
     1
 72
     1
 10
121.408446757916
 20
123.435979265277
 11
128.2544738973265
 21
123.435979265277
 72
     1
 10
128.2544738973265
 20
123.435979265277
 11
128.2544738973265
 21
124.435979265277
 97
        0
 75
     0
 76
     1
 98
        0
  0
HATCH
  5
19F
330
B6
100
AcDbEntity
  8
Folie _ 3
  6
Continuous
 62
    30
100
AcDbHatch
 10
0.0
 20
0.0
 30
0.0
210
0.0
220
0.0
230
1.0
  2
SOLID
 70
     1
 71
     0
 91
        2
 92
        0
 93
        4
 72
     1
 10
122.308446757916
 20
184.7758534532969
 11
121.308446757916
 21
184.6554898333771
 72
     1
 10
121.308446757916
 20
184.6554898333771
 11
121.308446757916
 21
154.2483602736309
 72
     1
 10
121.308446757916
 20
154.2483602736309
 11
122.308446757916
 21
154.046728687228
 72
     1
 10
122.308446757916
 20
154.046728687228
 11
122.308446757916
 21
184.7758534532969
 97
        0
 92
        0
 93
        7
 72
     2
 10
121.8084640666808
 20
186.931818920917
 40
0.5
 50
0.4767458475681901
 51
79.77859225026454
 73
     1
 72
     1
 10
121.8971902959723
 20
187.4238836079609
 11
76.308446757916
 21
188.436966797695
 72
     1
 10
76.308446757916
 20
188.436966797695
 11
76.308446757916
 21
187.4367199145904
 72
     1
 10
76.308446757916
 20
187.4367199145904
 11
121.308446757916
 21
186.4367199145909
 72
     1
 10
121.308446757916
 20
186.4367199145909
 11
121.308446757916
 21
184.6554898333771
 72
     1
 10
121.308446757916
 20
184.6554898333771
 11
122.308446757916
 21
184.7758534532969
 72
     1
 10
122.308446757916
 20
184.7758534532969
 11
122.308446757916
 21
186.935979265277
 97
        0
 75
     0
 76
     1
 98
        0
  0
HATCH
  5
1A0
330
B6
100
AcDbEntity
  8
Folie _ 3
  6
Continuous
 62
    30
100
AcDbHatch
 10
0.0
 20
0.0
 30
0.0
210
0.0
220
0.0
230
1.0
  2
SOLID
 70
     1
 71
     0
 91
        1
 92
        0
 93
        4
 72
     1
 10
263.3084467579159
 20
124.435979265277
 11
189.6225908531188
 21
124.435979265277
 72
     1
 10
189.6225908531188
 20
124.435979265277
 11
189.6225908531188
 21
123.435979265277
 72
     1
 10
189.6225908531188
 20
123.435979265277
 11
263.3084467579159
 21
123.435979265277
 72
     1
 10
263.3084467579159
 20
123.435979265277
 11
263.3084467579159
 21
124.435979265277
 97
        0
 75
     0
 76
     1
 98
        0
  0
IMAGE
  5
1A1
330
B6
100
AcDbEntity
  8
37_Bilder
  6
Continuous
 62
     7
370
     0
160
               140
310
8C00000001000000840000000600000005000000663F38DD7DC76E40807D7E0819A431400000000000000000B31F9CDEEF237240807D7E0819A431400000000000000000B31F9CDEEF237240C03E3F74D92D40400000000000000000663F38DD7DC76E40C03E3F74D92D40400000000000000000663F38DD7DC76E40807D7E
310
0819A431400000000000000000
100
AcDbRasterImage
 90
        0
 10
246.2341142748439
 20
17.64100697601452
 30
0.0
 11
0.0279263627105558
 21
0.0
 31
0.0
 12
0.0
 22
0.02792635995477608
 32
0.0
 13
1576.0
 23
527.0
340
B5
 70
     3
280
     0
281
    50
282
    50
283
     0
360
0
 71
     1
 91
        2
 14
-0.5
 24
-0.5
 14
1575.5
 24
526.5
290
     0
  0
HATCH
  5
1A2
330
B6
100
AcDbEntity
  8
Folie _ 3
  6
Continuous
 62
     7
370
    20
100
AcDbHatch
 10
0.0
 20
0.0
 30
0.0
210
0.0
220
0.0
230
1.0
  2
ANSI33
 70
     0
 71
     0
 91
        1
 92
        0
 93
        6
 72
     1
 10
112.3084467579159
 20
69.43597926527698
 11
92.308446757916
 21
69.43597926527698
 72
     1
 10
92.308446757916
 20
69.43597926527696
 11
92.308446757916
 21
59.71638282873906
 72
     1
 10
92.308446757916
 20
59.71638282873906
 11
96.38936364052694
 21
53.27389973450926
 72
     1
 10
96.38936364052694
 20
53.27389973450926
 11
105.0214834692581
 21
54.09600638486569
 72
     1
 10
105.0214834692581
 20
54.09600638486569
 11
112.3084467579159
 21
56.50443632597239
 72
     1
 10
112.3084467579159
 20
56.50443632597239
 11
112.3084467579159
 21
69.43597926527696
 97
        0
 75
     0
 76
     1
 52
0.0
 41
25.0
 77
     0
 78
     2
 53
45.0
 43
-55.44554455445537
 44
-153.7004031626102
 45
-4.419417382415922
 46
4.419417382415921
 79
     0
 53
45.0
 43
-51.02612717945537
 44
-153.7004031626102
 45
-4.419417382415922
 46
4.419417382415921
 79
     2
 49
3.125
 49
-1.5625
 98
        0
  0
LINE
  5
1A3
330
B6
100
AcDbEntity
  8
Folie _ 3
  6
Continuous
 62
     7
370
    20
100
AcDbLine
 10
98.30427406204404
 20
186.6009400509909
 30
0.0
 11
82.58421057208712
 21
186.6646043235299
 31
0.0
  0
LINE
  5
1A4
330
B6
100
AcDbEntity
  8
Folie _ 3
  6
Continuous
 62
     7
370
    20
100
AcDbLine
 10
100.5888293162219
 20
184.8361491027882
 30
0.0
 11
88.25038265045482
 21
184.5389957736785
 31
0.0
  0
LINE
  5
1A5
330
B6
100
AcDbEntity
  8
Folie _ 3
  6
Continuous
 62
     7
370
    20
100
AcDbLine
 10
112.7194178975214
 20
185.5138376394131
 30
0.0
 11
102.1645834110192
 21
184.8913777888427
 31
0.0
  0
LINE
  5
1A6
330
B6
100
AcDbEntity
  8
Folie _ 3
  6
Continuous
 62
     7
370
    20
100
AcDbLine
 10
103.3236755675895
 20
186.4457697051716
 30
0.0
 11
97.43019660218839
 21
186.0490230064644
 31
0.0
  0
LINE
  5
1A7
330
B6
100
AcDbEntity
  8
Folie _ 3
  6
Continuous
 62
     7
370
    20
100
AcDbLine
 10
101.0055096506965
 20
185.7741467115647
 30
0.0
 11
99.32677976586879
 21
185.5257811248617
 31
0.0
  0
LINE
  5
1A8
330
B6
100
AcDbEntity
  8
Folie _ 3
  6
Continuous
 62
     7
370
    20
100
AcDbLine
 10
82.58421057208712
 20
186.6646043235299
 30
0.0
 11
81.71146369485291
 21
185.9566191935169
 31
0.0
  0
LINE
  5
1A9
330
B6
100
AcDbEntity
  8
Folie _ 3
  6
Continuous
 62
     7
370
    20
100
AcDbLine
 10
101.0055096506964
 20
185.7741467115646
 30
0.0
 11
102.1645834110192
 21
184.8913777888427
 31
0.0
  0
LINE
  5
1AA
330
B6
100
AcDbEntity
  8
Folie _ 3
  6
Continuous
 62
     7
370
    20
100
AcDbLine
 10
86.55624336917185
 20
185.4336548624524
 30
0.0
 11
88.25038265045482
 21
184.5389957736785
 31
0.0
  0
LINE
  5
1AB
330
B6
100
AcDbEntity
  8
Folie _ 3
  6
Continuous
 62
     7
370
    20
100
AcDbLine
 10
76.62648380956193
 20
186.7969982515859
 30
0.0
 11
81.71146369485291
 21
185.9566191935169
 31
0.0
  0
LINE
  5
1AC
330
B6
100
AcDbEntity
  8
Folie _ 3
  6
Continuous
 62
     7
370
    20
100
AcDbLine
 10
76.59475830798779
 20
185.3693506807487
 30
0.0
 11
84.5409007385289
 21
184.6214287050546
 31
0.0
  0
LINE
  5
1AD
330
B6
100
AcDbEntity
  8
Folie _ 3
  6
Continuous
 62
     7
370
    20
100
AcDbLine
 10
112.7194178975213
 20
185.513837639413
 30
0.0
 11
120.5088922915486
 21
185.1308397360569
 31
0.0
  0
LINE
  5
1AE
330
B6
100
AcDbEntity
  8
Folie _ 3
  6
Continuous
 62
     7
370
    20
100
AcDbLine
 10
120.396577993891
 20
184.2487473141048
 30
0.0
 11
114.2273546610074
 21
184.1001706495499
 31
0.0
  0
LINE
  5
1AF
330
B6
100
AcDbEntity
  8
Folie _ 3
  6
Continuous
 62
     7
370
    20
100
AcDbLine
 10
112.5332153797245
 20
184.9948297383239
 30
0.0
 11
114.2273546610074
 21
184.1001706495499
 31
0.0
  0
LINE
  5
1B0
330
B6
100
AcDbEntity
  8
Folie _ 3
  6
Continuous
 62
     7
370
    20
100
AcDbLine
 10
107.7648327780472
 20
184.6047880494905
 30
0.0
 11
104.5744745624396
 21
184.3900143823295
 31
0.0
  0
LINE
  5
1B1
330
B6
100
AcDbEntity
  8
Folie _ 3
  6
Continuous
 62
     7
370
    20
100
AcDbLine
 10
117.2468521151187
 20
185.9060420247716
 30
0.0
 11
104.9084054493517
 21
185.6088886956618
 31
0.0
  0
LINE
  5
1B2
330
B6
100
AcDbEntity
  8
Folie _ 3
  6
Continuous
 62
     7
370
    20
100
AcDbLine
 10
103.3236755675895
 20
186.4457697051716
 30
0.0
 11
104.9084054493517
 21
185.6088886956618
 31
0.0
  0
LINE
  5
1B3
330
B6
100
AcDbEntity
  8
Folie _ 3
  6
Continuous
 62
     7
370
    20
100
AcDbLine
 10
92.24989951029897
 20
185.6687905467097
 30
0.0
 11
89.05954129469124
 21
185.4540168795487
 31
0.0
  0
LINE
  5
1B4
330
B6
100
AcDbEntity
  8
Folie _ 3
  6
Continuous
 62
     7
370
    20
100
AcDbLine
 10
97.75673825249766
 20
185.3630655598655
 30
0.0
 11
94.56638003688991
 21
185.1482918927044
 31
0.0
  0
LINE
  5
1B5
330
B6
100
AcDbEntity
  8
Folie _ 3
  6
Continuous
 62
     7
370
    20
100
AcDbLine
 10
86.19824878079167
 20
185.7232104973238
 30
0.0
 11
83.00789056518403
 21
185.5084368301627
 31
0.0
  0
TEXT
  5
1B6
330
B6
100
AcDbEntity
  8
Folie _ 3
  6
Continuous
 62
     7
100
AcDbText
 10
159.0000000000001
 20
36.42606165236779
 30
0.0
 40
3.177854776382446
  1
NOVOtan EPDM Rollenware vlieskaschiert
 41
1.021345735900753
  7
Style0
100
AcDbText
  0
LINE
  5
1B7
330
B6
100
AcDbEntity
  8
Folie _ 3
  6
Continuous
 62
     7
370
    20
100
AcDbLine
 10
113.3084467579159
 20
109.435979265277
 30
0.0
 11
118.9084468413624
 21
123.435979265277
 31
0.0
  0
LINE
  5
1B8
330
B6
100
AcDbEntity
  8
Folie _ 3
  6
Continuous
 62
     7
370
    20
100
AcDbLine
 10
118.9084468413624
 20
123.435979265277
 30
0.0
 11
124.5084469248089
 21
109.435979265277
 31
0.0
  0
LINE
  5
1B9
330
B6
100
AcDbEntity
  8
Folie _ 3
  6
Continuous
 62
     7
370
    20
100
AcDbLine
 10
124.5084469248089
 20
109.435979265277
 30
0.0
 11
130.1084470082554
 21
123.435979265277
 31
0.0
  0
LINE
  5
1BA
330
B6
100
AcDbEntity
  8
Folie _ 3
  6
Continuous
 62
     7
370
    20
100
AcDbLine
 10
130.1084470082554
 20
123.435979265277
 30
0.0
 11
135.7084470917018
 21
109.435979265277
 31
0.0
  0
LINE
  5
1BB
330
B6
100
AcDbEntity
  8
Folie _ 3
  6
Continuous
 62
     7
370
    20
100
AcDbLine
 10
135.7084470917018
 20
109.435979265277
 30
0.0
 11
141.3084471751484
 21
123.435979265277
 31
0.0
  0
LINE
  5
1BC
330
B6
100
AcDbEntity
  8
Folie _ 3
  6
Continuous
 62
     7
370
    20
100
AcDbLine
 10
141.3084471751484
 20
123.435979265277
 30
0.0
 11
146.9084472585948
 21
109.435979265277
 31
0.0
  0
LINE
  5
1BD
330
B6
100
AcDbEntity
  8
Folie _ 3
  6
Continuous
 62
     7
370
    20
100
AcDbLine
 10
146.9084472585948
 20
109.435979265277
 30
0.0
 11
152.5084473420413
 21
123.435979265277
 31
0.0
  0
LINE
  5
1BE
330
B6
100
AcDbEntity
  8
Folie _ 3
  6
Continuous
 62
     7
370
    20
100
AcDbLine
 10
152.5084473420413
 20
123.435979265277
 30
0.0
 11
158.1084474254878
 21
109.435979265277
 31
0.0
  0
LINE
  5
1BF
330
B6
100
AcDbEntity
  8
Folie _ 3
  6
Continuous
 62
     7
370
    20
100
AcDbLine
 10
158.1084474254878
 20
109.435979265277
 30
0.0
 11
163.3084467579159
 21
122.435977402632
 31
0.0
  0
LINE
  5
1C0
330
B6
100
AcDbEntity
  8
Folie _ 3
  6
Continuous
 62
     7
370
    20
100
AcDbLine
 10
163.3084467579158
 20
109.435979265277
 30
0.0
 11
168.9084468413623
 21
123.435979265277
 31
0.0
  0
LINE
  5
1C1
330
B6
100
AcDbEntity
  8
Folie _ 3
  6
Continuous
 62
     7
370
    20
100
AcDbLine
 10
168.9084468413623
 20
123.435979265277
 30
0.0
 11
174.5084469248088
 21
109.435979265277
 31
0.0
  0
LINE
  5
1C2
330
B6
100
AcDbEntity
  8
Folie _ 3
  6
Continuous
 62
     7
370
    20
100
AcDbLine
 10
174.5084469248088
 20
109.435979265277
 30
0.0
 11
180.1084470082553
 21
123.435979265277
 31
0.0
  0
LINE
  5
1C3
330
B6
100
AcDbEntity
  8
Folie _ 3
  6
Continuous
 62
     7
370
    20
100
AcDbLine
 10
180.1084470082553
 20
123.435979265277
 30
0.0
 11
185.7084470917018
 21
109.435979265277
 31
0.0
  0
LINE
  5
1C4
330
B6
100
AcDbEntity
  8
Folie _ 3
  6
Continuous
 62
     7
370
    20
100
AcDbLine
 10
185.7084470917018
 20
109.435979265277
 30
0.0
 11
191.3084471751483
 21
123.435979265277
 31
0.0
  0
LINE
  5
1C5
330
B6
100
AcDbEntity
  8
Folie _ 3
  6
Continuous
 62
     7
370
    20
100
AcDbLine
 10
191.3084471751483
 20
123.435979265277
 30
0.0
 11
196.9084472585948
 21
109.435979265277
 31
0.0
  0
LINE
  5
1C6
330
B6
100
AcDbEntity
  8
Folie _ 3
  6
Continuous
 62
     7
370
    20
100
AcDbLine
 10
196.9084472585948
 20
109.435979265277
 30
0.0
 11
202.5084473420413
 21
123.435979265277
 31
0.0
  0
LINE
  5
1C7
330
B6
100
AcDbEntity
  8
Folie _ 3
  6
Continuous
 62
     7
370
    20
100
AcDbLine
 10
202.5084473420413
 20
123.435979265277
 30
0.0
 11
208.1084474254878
 21
109.435979265277
 31
0.0
  0
LINE
  5
1C8
330
B6
100
AcDbEntity
  8
Folie _ 3
  6
Continuous
 62
     7
370
    20
100
AcDbLine
 10
208.1084474254878
 20
109.435979265277
 30
0.0
 11
213.7084475089343
 21
123.435979265277
 31
0.0
  0
LINE
  5
1C9
330
B6
100
AcDbEntity
  8
Folie _ 3
  6
Continuous
 62
     7
370
    20
100
AcDbLine
 10
213.7084475089343
 20
123.435979265277
 30
0.0
 11
219.3084475923808
 21
109.435979265277
 31
0.0
  0
LINE
  5
1CA
330
B6
100
AcDbEntity
  8
Folie _ 3
  6
Continuous
 62
     7
370
    20
100
AcDbLine
 10
219.3084475923808
 20
109.435979265277
 30
0.0
 11
224.9084476758273
 21
123.435979265277
 31
0.0
  0
LINE
  5
1CB
330
B6
100
AcDbEntity
  8
Folie _ 3
  6
Continuous
 62
     7
370
    20
100
AcDbLine
 10
224.9084476758273
 20
123.435979265277
 30
0.0
 11
230.5084477592738
 21
109.435979265277
 31
0.0
  0
LINE
  5
1CC
330
B6
100
AcDbEntity
  8
Folie _ 3
  6
Continuous
 62
     7
370
    20
100
AcDbLine
 10
230.5084477592738
 20
109.435979265277
 30
0.0
 11
236.1084478427204
 21
123.435979265277
 31
0.0
  0
LINE
  5
1CD
330
B6
100
AcDbEntity
  8
Folie _ 3
  6
Continuous
 62
     7
370
    20
100
AcDbLine
 10
236.1084478427204
 20
123.435979265277
 30
0.0
 11
241.7084479261669
 21
109.435979265277
 31
0.0
  0
LINE
  5
1CE
330
B6
100
AcDbEntity
  8
Folie _ 3
  6
Continuous
 62
     7
370
    20
100
AcDbLine
 10
241.7084479261669
 20
109.435979265277
 30
0.0
 11
247.3084480096134
 21
123.435979265277
 31
0.0
  0
LINE
  5
1CF
330
B6
100
AcDbEntity
  8
Folie _ 3
  6
Continuous
 62
     7
370
    20
100
AcDbLine
 10
247.3084480096134
 20
123.435979265277
 30
0.0
 11
252.9084480930599
 21
109.435979265277
 31
0.0
  0
LINE
  5
1D0
330
B6
100
AcDbEntity
  8
Folie _ 3
  6
Continuous
 62
     7
370
    20
100
AcDbLine
 10
252.9084480930599
 20
109.435979265277
 30
0.0
 11
258.5084481765064
 21
123.435979265277
 31
0.0
  0
LINE
  5
1D1
330
B6
100
AcDbEntity
  8
Folie _ 3
  6
Continuous
 62
     7
370
    20
100
AcDbLine
 10
258.5084481765064
 20
123.435979265277
 30
0.0
 11
263.3084467579159
 21
111.4359829905669
 31
0.0
  0
LINE
  5
1D2
330
B6
100
AcDbEntity
  8
Folie _ 3
  6
Continuous
 62
     7
370
    20
100
AcDbLine
 10
113.3084467579159
 20
95.43597926527704
 30
0.0
 11
118.9084468413624
 21
109.435979265277
 31
0.0
  0
LINE
  5
1D3
330
B6
100
AcDbEntity
  8
Folie _ 3
  6
Continuous
 62
     7
370
    20
100
AcDbLine
 10
118.9084468413624
 20
109.435979265277
 30
0.0
 11
124.5084469248089
 21
95.43597926527704
 31
0.0
  0
LINE
  5
1D4
330
B6
100
AcDbEntity
  8
Folie _ 3
  6
Continuous
 62
     7
370
    20
100
AcDbLine
 10
124.5084469248089
 20
95.43597926527704
 30
0.0
 11
130.1084470082554
 21
109.435979265277
 31
0.0
  0
LINE
  5
1D5
330
B6
100
AcDbEntity
  8
Folie _ 3
  6
Continuous
 62
     7
370
    20
100
AcDbLine
 10
130.1084470082554
 20
109.435979265277
 30
0.0
 11
135.7084470917018
 21
95.43597926527704
 31
0.0
  0
LINE
  5
1D6
330
B6
100
AcDbEntity
  8
Folie _ 3
  6
Continuous
 62
     7
370
    20
100
AcDbLine
 10
135.7084470917018
 20
95.43597926527704
 30
0.0
 11
141.3084471751484
 21
109.435979265277
 31
0.0
  0
LINE
  5
1D7
330
B6
100
AcDbEntity
  8
Folie _ 3
  6
Continuous
 62
     7
370
    20
100
AcDbLine
 10
141.3084471751484
 20
109.435979265277
 30
0.0
 11
146.9084472585948
 21
95.43597926527704
 31
0.0
  0
LINE
  5
1D8
330
B6
100
AcDbEntity
  8
Folie _ 3
  6
Continuous
 62
     7
370
    20
100
AcDbLine
 10
146.9084472585948
 20
95.43597926527704
 30
0.0
 11
152.5084473420413
 21
109.435979265277
 31
0.0
  0
LINE
  5
1D9
330
B6
100
AcDbEntity
  8
Folie _ 3
  6
Continuous
 62
     7
370
    20
100
AcDbLine
 10
152.5084473420413
 20
109.435979265277
 30
0.0
 11
158.1084474254878
 21
95.43597926527704
 31
0.0
  0
LINE
  5
1DA
330
B6
100
AcDbEntity
  8
Folie _ 3
  6
Continuous
 62
     7
370
    20
100
AcDbLine
 10
158.1084474254878
 20
95.43597926527704
 30
0.0
 11
163.7084475089343
 21
109.435979265277
 31
0.0
  0
LINE
  5
1DB
330
B6
100
AcDbEntity
  8
Folie _ 3
  6
Continuous
 62
     7
370
    20
100
AcDbLine
 10
163.7084475089343
 20
109.435979265277
 30
0.0
 11
169.3084475923808
 21
95.43597926527704
 31
0.0
  0
LINE
  5
1DC
330
B6
100
AcDbEntity
  8
Folie _ 3
  6
Continuous
 62
     7
370
    20
100
AcDbLine
 10
169.3084475923808
 20
95.43597926527704
 30
0.0
 11
174.9084476758273
 21
109.435979265277
 31
0.0
  0
LINE
  5
1DD
330
B6
100
AcDbEntity
  8
Folie _ 3
  6
Continuous
 62
     7
370
    20
100
AcDbLine
 10
174.9084476758273
 20
109.435979265277
 30
0.0
 11
180.5084477592738
 21
95.43597926527704
 31
0.0
  0
LINE
  5
1DE
330
B6
100
AcDbEntity
  8
Folie _ 3
  6
Continuous
 62
     7
370
    20
100
AcDbLine
 10
180.5084477592738
 20
95.43597926527704
 30
0.0
 11
186.1084478427204
 21
109.435979265277
 31
0.0
  0
LINE
  5
1DF
330
B6
100
AcDbEntity
  8
Folie _ 3
  6
Continuous
 62
     7
370
    20
100
AcDbLine
 10
186.1084478427204
 20
109.435979265277
 30
0.0
 11
191.7084479261669
 21
95.43597926527704
 31
0.0
  0
LINE
  5
1E0
330
B6
100
AcDbEntity
  8
Folie _ 3
  6
Continuous
 62
     7
370
    20
100
AcDbLine
 10
191.7084479261669
 20
95.43597926527704
 30
0.0
 11
197.3084480096134
 21
109.435979265277
 31
0.0
  0
LINE
  5
1E1
330
B6
100
AcDbEntity
  8
Folie _ 3
  6
Continuous
 62
     7
370
    20
100
AcDbLine
 10
197.3084480096134
 20
109.435979265277
 30
0.0
 11
202.9084480930599
 21
95.43597926527704
 31
0.0
  0
LINE
  5
1E2
330
B6
100
AcDbEntity
  8
Folie _ 3
  6
Continuous
 62
     7
370
    20
100
AcDbLine
 10
202.9084480930599
 20
95.43597926527704
 30
0.0
 11
208.5084481765064
 21
109.435979265277
 31
0.0
  0
LINE
  5
1E3
330
B6
100
AcDbEntity
  8
Folie _ 3
  6
Continuous
 62
     7
370
    20
100
AcDbLine
 10
208.5084481765064
 20
109.435979265277
 30
0.0
 11
213.3084467579159
 21
97.43598299056707
 31
0.0
  0
LINE
  5
1E4
330
B6
100
AcDbEntity
  8
Folie _ 3
  6
Continuous
 62
     7
370
    20
100
AcDbLine
 10
213.3084467579159
 20
95.43597926527704
 30
0.0
 11
218.9084468413624
 21
109.435979265277
 31
0.0
  0
LINE
  5
1E5
330
B6
100
AcDbEntity
  8
Folie _ 3
  6
Continuous
 62
     7
370
    20
100
AcDbLine
 10
218.9084468413624
 20
109.435979265277
 30
0.0
 11
224.5084469248089
 21
95.43597926527704
 31
0.0
  0
LINE
  5
1E6
330
B6
100
AcDbEntity
  8
Folie _ 3
  6
Continuous
 62
     7
370
    20
100
AcDbLine
 10
224.5084469248089
 20
95.43597926527704
 30
0.0
 11
230.1084470082554
 21
109.435979265277
 31
0.0
  0
LINE
  5
1E7
330
B6
100
AcDbEntity
  8
Folie _ 3
  6
Continuous
 62
     7
370
    20
100
AcDbLine
 10
230.1084470082554
 20
109.435979265277
 30
0.0
 11
235.7084470917019
 21
95.43597926527704
 31
0.0
  0
LINE
  5
1E8
330
B6
100
AcDbEntity
  8
Folie _ 3
  6
Continuous
 62
     7
370
    20
100
AcDbLine
 10
235.7084470917019
 20
95.43597926527704
 30
0.0
 11
241.3084471751483
 21
109.435979265277
 31
0.0
  0
LINE
  5
1E9
330
B6
100
AcDbEntity
  8
Folie _ 3
  6
Continuous
 62
     7
370
    20
100
AcDbLine
 10
241.3084471751483
 20
109.435979265277
 30
0.0
 11
246.9084472585949
 21
95.43597926527704
 31
0.0
  0
LINE
  5
1EA
330
B6
100
AcDbEntity
  8
Folie _ 3
  6
Continuous
 62
     7
370
    20
100
AcDbLine
 10
246.9084472585949
 20
95.43597926527704
 30
0.0
 11
252.5084473420413
 21
109.435979265277
 31
0.0
  0
LINE
  5
1EB
330
B6
100
AcDbEntity
  8
Folie _ 3
  6
Continuous
 62
     7
370
    20
100
AcDbLine
 10
252.5084473420413
 20
109.435979265277
 30
0.0
 11
258.108447425488
 21
95.43597926527704
 31
0.0
  0
LINE
  5
1EC
330
B6
100
AcDbEntity
  8
Folie _ 3
  6
Continuous
 62
     7
370
    20
100
AcDbLine
 10
258.108447425488
 20
95.43597926527704
 30
0.0
 11
263.3084467579159
 21
108.435977402632
 31
0.0
  0
LINE
  5
1ED
330
B6
100
AcDbEntity
  8
STANDARD
  6
Continuous
 62
     7
370
    40
100
AcDbLine
 10
121.408446757916
 20
124.685979265277
 30
0.0
 11
132.7044738973297
 21
124.685979265277
 31
0.0
  0
LINE
  5
1EE
330
B6
100
AcDbEntity
  8
STANDARD
  6
Continuous
 62
     7
370
    40
100
AcDbLine
 10
122.4084467579159
 20
125.685979265277
 30
0.0
 11
132.7044738973267
 21
125.685979265277
 31
0.0
  0
TEXT
  5
1EF
330
B6
100
AcDbEntity
  8
Folie _ 3
  6
Continuous
 62
     7
100
AcDbText
 10
159.0000000000001
 20
41.85509761350525
 30
0.0
 40
3.177854776382446
  1
Attika Wärmegedämmt verklebt
 41
1.021345735900753
  7
Style0
100
AcDbText
  0
TEXT
  5
1F0
330
B6
100
AcDbEntity
  8
Folie _ 3
  6
Continuous
 62
     7
100
AcDbText
 10
195.1924658159106
 20
152.2464922030589
 30
0.0
 40
3.177854776382446
  1
- Voranstrich
 41
1.071865229477616
  7
Style0
100
AcDbText
  0
TEXT
  5
1F1
330
B6
100
AcDbEntity
  8
Folie _ 3
  6
Continuous
 62
     7
100
AcDbText
 10
195.1924658159106
 20
158.4610472559224
 30
0.0
 40
3.177854776382446
  1
- Dampfsperre (*3)
 41
1.071865229477616
  7
Style0
100
AcDbText
  0
TEXT
  5
1F2
330
B6
100
AcDbEntity
  8
Folie _ 3
  6
Continuous
 62
     7
100
AcDbText
 10
195.1924658159106
 20
163.9216008891405
 30
0.0
 40
3.177854776382446
  1
- Wärmedämmung (*2)
 41
1.071865229477616
  7
Style0
100
AcDbText
  0
TEXT
  5
1F3
330
B6
100
AcDbEntity
  8
Folie _ 3
  6
Continuous
 62
    30
100
AcDbText
 10
195.1924658159106
 20
169.2118597135637
 30
0.0
 40
3.177854776382446
  1
- COVERiT NOVOtan EPDM vk  1,3/ 1,5 mm
 41
0.966666678754029
  7
Style0
100
AcDbText
  0
LINE
  5
1F4
330
B6
100
AcDbEntity
  8
Folie _ 3
  6
Continuous
 62
     7
370
    30
100
AcDbLine
 10
195.1924658159106
 20
78.07159367628537
 30
0.0
 11
195.1924658159106
 21
170.8250170487478
 31
0.0
  0
TEXT
  5
1F5
330
B6
100
AcDbEntity
  8
Folie _ 3
  6
Continuous
 62
     7
100
AcDbText
 10
195.1924658159106
 20
146.0319371501954
 30
0.0
 40
3.177854776382446
  1
- Stahlbetondecke
 41
1.071865229477616
  7
Style0
100
AcDbText
  0
TEXT
  5
1F6
330
B6
100
AcDbEntity
  8
34_Gruppe
  6
Continuous
 62
     7
100
AcDbText
 10
33.25164199587885
 20
41.34734781664301
 30
0.0
 40
3.177854776382446
  1
(*2) Wärmedämmung entsprechend druckfest,
 41
0.9804659138007177
  7
Style0
100
AcDbText
  0
TEXT
  5
1F7
330
B6
100
AcDbEntity
  8
34_Gruppe
  6
Continuous
 62
     7
100
AcDbText
 10
33.25164199587885
 20
35.88679418342508
 30
0.0
 40
3.177854776382446
  1
2-lagig lt. ÖNORM B 3691
 41
0.9804659138007177
  7
Style0
100
AcDbText
  0
TEXT
  5
1F8
330
B6
100
AcDbEntity
  8
34_Gruppe
  6
Continuous
 62
     7
100
AcDbText
 10
33.25164199587885
 20
30.6908708527364
 30
0.0
 40
3.177854776382446
  1
(*3) Ohne vorhandene bauphysikalische
 41
0.9804659138007177
  7
Style0
100
AcDbText
  0
TEXT
  5
1F9
330
B6
100
AcDbEntity
  8
34_Gruppe
  6
Continuous
 62
     7
100
AcDbText
 10
33.25164199587885
 20
25.23031721951847
 30
0.0
 40
3.177854776382446
  1
Berechnung, Dampfsperre >1000m sd-Wert
 41
0.9804659138007177
  7
Style0
100
AcDbText
  0
TEXT
  5
1FA
330
B6
100
AcDbEntity
  8
34_Gruppe
  6
Continuous
 62
     7
100
AcDbText
 10
33.25164199587885
 20
19.76976358630054
 30
0.0
 40
3.177854776382446
  1
lt. ÖNORM B 3691 erforderlich
 41
0.9804659138007177
  7
Style0
100
AcDbText
  0
TEXT
  5
1FB
330
B6
100
AcDbEntity
  8
34_Gruppe
  6
Continuous
 62
     7
100
AcDbText
 10
33.25164199587885
 20
46.87403652082574
 30
0.0
 40
3.177854776382446
  1
(*1) Schutzlage lt. ÖNORM B 3691 erforderlich
 41
0.9804659138007177
  7
Style0
100
AcDbText
  0
HATCH
  5
1FC
330
B6
100
AcDbEntity
  8
18_Schraffur
 62
   251
100
AcDbHatch
 10
0.0
 20
0.0
 30
0.0
210
0.0
220
0.0
230
1.0
  2
SOLID
 70
     1
 71
     0
 91
        1
 92
        0
 93
        4
 72
     1
 10
257.3084467579159
 20
95.43597926527704
 11
247.3084467579159
 21
95.43597926527704
 72
     1
 10
247.3084467579159
 20
95.43597926527704
 11
247.3084467579159
 21
94.43597926527696
 72
     1
 10
247.3084467579159
 20
94.43597926527696
 11
257.3084467579159
 21
94.43597926527696
 72
     1
 10
257.3084467579159
 20
94.43597926527696
 11
257.3084467579159
 21
95.43597926527704
 97
        0
 75
     0
 76
     1
 98
        0
  0
LINE
  5
1FD
330
B6
100
AcDbEntity
  8
34_Gruppe
  6
Continuous
 62
     7
370
    40
100
AcDbLine
 10
106.8732489879945
 20
195.0107960822672
 30
0.0
 11
106.8997323905943
 21
195.6836727704016
 31
0.0
  0
TEXT
  5
1FE
330
B6
100
AcDbEntity
  8
34_Gruppe
  6
Continuous
 62
     7
370
     0
100
AcDbText
 10
94.32534870712402
 20
191.1357739901292
 30
0.0
 40
3.179999828338623
  1
Gefälle
 50
357.74609375
  7
Style0
100
AcDbText
  0
LINE
  5
1FF
330
B6
100
AcDbEntity
  8
34_Gruppe
  6
Continuous
 62
     7
370
    40
100
AcDbLine
 10
98.39355348440017
 20
195.6815035119161
 30
0.0
 11
106.8864906892944
 21
195.3472344263344
 31
0.0
  0
LINE
  5
200
330
B6
100
AcDbEntity
  8
34_Gruppe
  6
Continuous
 62
     7
370
    40
100
AcDbLine
 10
106.8732489879945
 20
195.0107960822672
 30
0.0
 11
107.9749676848061
 21
195.3043936280112
 31
0.0
  0
LINE
  5
201
330
B6
100
AcDbEntity
  8
34_Gruppe
  6
Continuous
 62
     7
370
    40
100
AcDbLine
 10
106.8997323905943
 20
195.6836727704016
 30
0.0
 11
107.9749676848061
 21
195.3043936280112
 31
0.0
  0
ENDBLK
  5
204
330
B6
100
AcDbEntity
  8
0
100
AcDbBlockEnd
  0
ENDSEC
  0
SECTION
  2
ENTITIES
  0
INSERT
  5
AF
330
1F
100
AcDbEntity
  8
00_Allgemein
  6
Continuous
 62
     7
370
     0
100
AcDbBlockReference
  2
printlayout(id_1)
 10
0.0
 20
0.0
 30
0.0
  0
INSERT
  5
202
330
1F
100
AcDbEntity
  8
34_Gruppe
  6
Continuous
 62
     7
370
     0
100
AcDbBlockReference
  2
dokument alle 2d details_asc(id_4)
 10
0.0
 20
0.0
 30
0.0
  0
IMAGE
  5
206
330
1F
100
AcDbEntity
  8
37_Bilder
  6
Continuous
 62
     7
370
     0
160
               140
310
8C00000001000000840000000600000005000000663F38DD7DC76E40807D7E0819A431400000000000000000B31F9CDEEF237240807D7E0819A431400000000000000000B31F9CDEEF237240C03E3F74D92D40400000000000000000663F38DD7DC76E40C03E3F74D92D40400000000000000000663F38DD7DC76E40807D7E
310
0819A431400000000000000000
100
AcDbRasterImage
 90
        0
 10
246.2341142748439
 20
17.64100697601452
 30
0.0
 11
0.0279263627105558
 21
0.0
 31
0.0
 12
0.0
 22
0.02792635995477608
 32
0.0
 13
1576.0
 23
527.0
340
205
 70
     3
280
     0
281
    50
282
    50
283
     0
360
207
 71
     1
 91
        2
 14
-0.5
 24
-0.5
 14
1575.5
 24
526.5
290
     0
  0
ENDSEC
  0
SECTION
  2
OBJECTS
  0
DICTIONARY
  5
C
330
0
100
AcDbDictionary
281
     1
  3
ACAD_GROUP
350
D
  3
ACAD_IMAGE_DICT
350
B4
  3
ACAD_LAYOUT
350
1A
  3
ACAD_MATERIAL
350
3B
  3
ACAD_MLEADERSTYLE
350
209
  3
ACAD_MLINESTYLE
350
17
  3
ACAD_PLOTSETTINGS
350
19
  3
ACAD_PLOTSTYLENAME
350
E
  3
ACAD_TABLESTYLE
350
208
  3
ACAD_VISUALSTYLE
350
2A
  0
IMAGEDEF_REACTOR
  5
207
330
206
100
AcDbRasterImageDefReactor
 90
        2
330
206
  0
DICTIONARY
  5
D
102
{ACAD_REACTORS
330
C
102
}
330
C
100
AcDbDictionary
281
     1
  0
DICTIONARY
  5
B4
102
{ACAD_REACTORS
330
C
102
}
330
C
100
AcDbDictionary
281
     1
  3
Image0
350
B5
  3
Image1
350
205
  0
DICTIONARY
  5
1A
102
{ACAD_REACTORS
330
C
102
}
330
C
100
AcDbDictionary
281
     1
  3
Layout1
350
1E
  3
Layout2
350
26
  3
Model
350
22
  0
DICTIONARY
  5
3B
102
{ACAD_REACTORS
330
C
102
}
330
C
100
AcDbDictionary
281
     1
  3
ByBlock
350
3D
  3
ByLayer
350
3C
  3
Global
350
3E
  0
DICTIONARY
  5
209
102
{ACAD_REACTORS
330
C
102
}
330
C
100
AcDbDictionary
281
     1
  0
DICTIONARY
  5
17
102
{ACAD_REACTORS
330
C
102
}
330
C
100
AcDbDictionary
281
     1
  3
Standard
350
18
  0
DICTIONARY
  5
19
102
{ACAD_REACTORS
330
C
102
}
330
C
100
AcDbDictionary
281
     1
  0
ACDBDICTIONARYWDFLT
  5
E
102
{ACAD_REACTORS
330
C
102
}
330
C
100
AcDbDictionary
281
     1
  3
Normal
350
F
100
AcDbDictionaryWithDefault
340
F
  0
DICTIONARY
  5
208
102
{ACAD_REACTORS
330
C
102
}
330
C
100
AcDbDictionary
281
     1
  0
DICTIONARY
  5
2A
102
{ACAD_REACTORS
330
C
102
}
330
C
100
AcDbDictionary
281
     1
  3
2dWireframe
350
2F
  3
3D Hidden
350
31
  3
3dWireframe
350
30
  3
Basic
350
32
  3
Brighten
350
36
  3
ColorChange
350
3A
  3
Conceptual
350
34
  3
Dim
350
35
  3
Facepattern
350
39
  3
Flat
350
2B
  3
FlatWithEdges
350
2C
  3
Gouraud
350
2D
  3
GouraudWithEdges
350
2E
  3
Linepattern
350
38
  3
Realistic
350
33
  3
Thicken
350
37
  0
IMAGEDEF
  5
B5
102
{ACAD_REACTORS
330
B4
102
}
330
B4
100
AcDbRasterImageDef
 90
        0
  1
__ID2_Coverit+www.bmp
 10
1576.0
 20
527.0
 11
0.0006345177664974619
 21
0.0006345177664974619
280
     1
281
     1
  0
IMAGEDEF
  5
205
102
{ACAD_REACTORS
330
B4
330
207
102
}
330
B4
100
AcDbRasterImageDef
 90
        0
  1
__ID2_Coverit+www.bmp
 10
1576.0
 20
527.0
 11
0.0006345177664974619
 21
0.0006345177664974619
280
     1
281
     1
  0
LAYOUT
  5
1E
102
{ACAD_REACTORS
330
1A
102
}
330
1A
100
AcDbPlotSettings
  1

  2
none_device
  4

  6

 40
0.0
 41
0.0
 42
0.0
 43
0.0
 44
0.0
 45
0.0
 46
0.0
 47
0.0
 48
0.0
 49
0.0
140
0.0
141
0.0
142
1.0
143
1.0
 70
   688
 72
     0
 73
     0
 74
     5
  7

 75
    16
 76
     0
 77
     2
 78
   300
147
1.0
148
0.0
149
0.0
100
AcDbLayout
  1
Layout1
 70
     1
 71
     1
 10
0.0
 20
0.0
 11
12.0
 21
9.0
 12
0.0
 22
0.0
 32
0.0
 14
1.000000000000000E+20
 24
1.000000000000000E+20
 34
1.000000000000000E+20
 15
-1.000000000000000E+20
 25
-1.000000000000000E+20
 35
-1.000000000000000E+20
146
0.0
 13
0.0
 23
0.0
 33
0.0
 16
1.0
 26
0.0
 36
0.0
 17
0.0
 27
1.0
 37
0.0
 76
     0
330
1B
  0
LAYOUT
  5
26
102
{ACAD_REACTORS
330
1A
102
}
330
1A
100
AcDbPlotSettings
  1

  2
none_device
  4

  6

 40
0.0
 41
0.0
 42
0.0
 43
0.0
 44
0.0
 45
0.0
 46
0.0
 47
0.0
 48
0.0
 49
0.0
140
0.0
141
0.0
142
1.0
143
1.0
 70
   688
 72
     0
 73
     0
 74
     5
  7

 75
    16
 76
     0
 77
     2
 78
   300
147
1.0
148
0.0
149
0.0
100
AcDbLayout
  1
Layout2
 70
     1
 71
     2
 10
0.0
 20
0.0
 11
0.0
 21
0.0
 12
0.0
 22
0.0
 32
0.0
 14
0.0
 24
0.0
 34
0.0
 15
0.0
 25
0.0
 35
0.0
146
0.0
 13
0.0
 23
0.0
 33
0.0
 16
1.0
 26
0.0
 36
0.0
 17
0.0
 27
1.0
 37
0.0
 76
     0
330
23
  0
LAYOUT
  5
22
102
{ACAD_REACTORS
330
1A
102
}
330
1A
100
AcDbPlotSettings
  1

  2
none_device
  4

  6

 40
0.0
 41
0.0
 42
0.0
 43
0.0
 44
0.0
 45
0.0
 46
0.0
 47
0.0
 48
0.0
 49
0.0
140
0.0
141
0.0
142
1.0
143
1.0
 70
  1712
 72
     0
 73
     0
 74
     0
  7

 75
     0
 76
     0
 77
     2
 78
   300
147
1.0
148
0.0
149
0.0
100
AcDbLayout
  1
Model
 70
     1
 71
     0
 10
0.0
 20
0.0
 11
12.0
 21
9.0
 12
0.0
 22
0.0
 32
0.0
 14
-0.0000000000001137
 24
0.0
 34
0.0
 15
297.0
 25
210.0
 35
0.0
146
0.0
 13
0.0
 23
0.0
 33
0.0
 16
1.0
 26
0.0
 36
0.0
 17
0.0
 27
1.0
 37
0.0
 76
     0
330
1F
331
29
  0
MATERIAL
  5
3D
102
{ACAD_REACTORS
330
3B
102
}
330
3B
100
AcDbMaterial
  1
ByBlock
 72
     1
 94
      127
  0
MATERIAL
  5
3C
102
{ACAD_REACTORS
330
3B
102
}
330
3B
100
AcDbMaterial
  1
ByLayer
 72
     1
 94
      127
  0
MATERIAL
  5
3E
102
{ACAD_REACTORS
330
3B
102
}
330
3B
100
AcDbMaterial
  1
Global
 72
     1
 94
      127
  0
MLINESTYLE
  5
18
102
{ACAD_REACTORS
330
17
102
}
330
17
100
AcDbMlineStyle
  2
Standard
 70
     0
  3

 62
   256
 51
90.0
 52
90.0
 71
     2
 49
0.5
 62
   256
  6
BYLAYER
 49
-0.5
 62
   256
  6
BYLAYER
  0
ACDBPLACEHOLDER
  5
F
102
{ACAD_REACTORS
330
E
102
}
330
E
  0
VISUALSTYLE
  5
2F
102
{ACAD_REACTORS
330
2A
102
}
330
2A
100
AcDbVisualStyle
  2
2dWireframe
 70
     4
177
     2
291
     0
 71
     0
176
     1
 72
     2
176
     1
 73
     0
176
     1
 90
        0
176
     1
 40
-0.6
176
     1
 41
-30.0
176
     1
 62
     5
 63
     7
421
 16777215
176
     1
 74
     1
176
     1
 91
        4
176
     1
 64
     7
176
     1
 65
   257
176
     1
 75
     1
176
     1
175
     1
176
     1
 42
1.0
176
     1
 92
        0
176
     1
 66
   257
176
     1
 43
1.0
176
     1
 76
     1
176
     1
 77
     6
176
     1
 78
     2
176
     1
 67
     7
176
     1
 79
     5
176
     1
170
     0
176
     1
171
     0
176
     1
290
     0
176
     1
 93
        1
176
     1
 44
0.0
176
     1
173
     0
176
     1
  0
VISUALSTYLE
  5
31
102
{ACAD_REACTORS
330
2A
102
}
330
2A
100
AcDbVisualStyle
  2
3D Hidden
 70
     6
177
     2
291
     0
 71
     1
176
     1
 72
     2
176
     1
 73
     2
176
     1
 90
        0
176
     1
 40
-0.6
176
     1
 41
-30.0
176
     1
 62
     5
 63
     7
421
 16777215
176
     1
 74
     2
176
     1
 91
        2
176
     1
 64
     7
176
     1
 65
   257
176
     1
 75
     2
176
     1
175
     1
176
     1
 42
40.0
176
     1
 92
        0
176
     1
 66
   257
176
     1
 43
1.0
176
     1
 76
     1
176
     1
 77
     6
176
     1
 78
     2
176
     1
 67
     7
176
     1
 79
     3
176
     1
170
     0
176
     1
171
     0
176
     1
290
     0
176
     1
 93
        1
176
     1
 44
0.0
176
     1
173
     0
176
     1
  0
VISUALSTYLE
  5
30
102
{ACAD_REACTORS
330
2A
102
}
330
2A
100
AcDbVisualStyle
  2
3dWireframe
 70
     5
177
     2
291
     0
 71
     0
176
     1
 72
     2
176
     1
 73
     0
176
     1
 90
        0
176
     1
 40
-0.6
176
     1
 41
-30.0
176
     1
 62
     5
 63
     7
421
 16777215
176
     1
 74
     1
176
     1
 91
        4
176
     1
 64
     7
176
     1
 65
   257
176
     1
 75
     1
176
     1
175
     1
176
     1
 42
1.0
176
     1
 92
        0
176
     1
 66
   257
176
     1
 43
1.0
176
     1
 76
     1
176
     1
 77
     6
176
     1
 78
     2
176
     1
 67
     7
176
     1
 79
     5
176
     1
170
     0
176
     1
171
     0
176
     1
290
     0
176
     1
 93
        1
176
     1
 44
0.0
176
     1
173
     0
176
     1
  0
VISUALSTYLE
  5
32
102
{ACAD_REACTORS
330
2A
102
}
330
2A
100
AcDbVisualStyle
  2
Basic
 70
     7
177
     2
291
     1
 71
     1
176
     1
 72
     0
176
     1
 73
     1
176
     1
 90
        0
176
     1
 40
-0.6
176
     1
 41
-30.0
176
     1
 62
     5
 63
     7
421
 16777215
176
     1
 74
     0
176
     1
 91
        4
176
     1
 64
     7
176
     1
 65
   257
176
     1
 75
     1
176
     1
175
     1
176
     1
 42
1.0
176
     1
 92
        8
176
     1
 66
     7
176
     1
 43
1.0
176
     1
 76
     1
176
     1
 77
     6
176
     1
 78
     2
176
     1
 67
     7
176
     1
 79
     5
176
     1
170
     0
176
     1
171
     0
176
     1
290
     0
176
     1
 93
        1
176
     1
 44
0.0
176
     1
173
     0
176
     1
  0
VISUALSTYLE
  5
36
102
{ACAD_REACTORS
330
2A
102
}
330
2A
100
AcDbVisualStyle
  2
Brighten
 70
    12
177
     2
291
     1
 71
     2
176
     1
 72
     2
176
     1
 73
     0
176
     1
 90
        0
176
     1
 40
-0.6
176
     1
 41
-30.0
176
     1
 62
     5
 63
     7
421
 16777215
176
     1
 74
     1
176
     1
 91
        4
176
     1
 64
     7
176
     1
 65
   257
176
     1
 75
     1
176
     1
175
     1
176
     1
 42
1.0
176
     1
 92
        8
176
     1
 66
     7
176
     1
 43
1.0
176
     1
 76
     1
176
     1
 77
     6
176
     1
 78
     2
176
     1
 67
     7
176
     1
 79
     5
176
     1
170
     0
176
     1
171
     0
176
     1
290
     0
176
     1
 93
        1
176
     1
 44
50.0
176
     1
173
     0
176
     1
  0
VISUALSTYLE
  5
3A
102
{ACAD_REACTORS
330
2A
102
}
330
2A
100
AcDbVisualStyle
  2
ColorChange
 70
    16
177
     2
291
     1
 71
     2
176
     1
 72
     2
176
     1
 73
     3
176
     1
 90
        0
176
     1
 40
-0.6
176
     1
 41
-30.0
176
     1
 62
     5
 63
     8
421
  8421504
176
     1
 74
     1
176
     1
 91
        4
176
     1
 64
     7
176
     1
 65
   257
176
     1
 75
     1
176
     1
175
     1
176
     1
 42
1.0
176
     1
 92
        8
176
     1
 66
     8
424
  8421504
176
     1
 43
1.0
176
     1
 76
     1
176
     1
 77
     6
176
     1
 78
     2
176
     1
 67
     7
176
     1
 79
     5
176
     1
170
     0
176
     1
171
     0
176
     1
290
     0
176
     1
 93
        1
176
     1
 44
0.0
176
     1
173
     0
176
     1
  0
VISUALSTYLE
  5
34
102
{ACAD_REACTORS
330
2A
102
}
330
2A
100
AcDbVisualStyle
  2
Conceptual
 70
     9
177
     2
291
     0
 71
     3
176
     1
 72
     2
176
     1
 73
     0
176
     1
 90
        0
176
     1
 40
-0.6
176
     1
 41
-30.0
176
     1
 62
     5
 63
     7
421
 16777215
176
     1
 74
     2
176
     1
 91
        2
176
     1
 64
     7
176
     1
 65
   257
176
     1
 75
     1
176
     1
175
     1
176
     1
 42
40.0
176
     1
 92
        8
176
     1
 66
     7
176
     1
 43
1.0
176
     1
 76
     1
176
     1
 77
     6
176
     1
 78
     2
176
     1
 67
     7
176
     1
 79
     3
176
     1
170
     0
176
     1
171
     0
176
     1
290
     0
176
     1
 93
        1
176
     1
 44
0.0
176
     1
173
     0
176
     1
  0
VISUALSTYLE
  5
35
102
{ACAD_REACTORS
330
2A
102
}
330
2A
100
AcDbVisualStyle
  2
Dim
 70
    11
177
     2
291
     1
 71
     2
176
     1
 72
     2
176
     1
 73
     0
176
     1
 90
        0
176
     1
 40
-0.6
176
     1
 41
-30.0
176
     1
 62
     5
 63
     7
421
 16777215
176
     1
 74
     1
176
     1
 91
        4
176
     1
 64
     7
176
     1
 65
   257
176
     1
 75
     1
176
     1
175
     1
176
     1
 42
1.0
176
     1
 92
        8
176
     1
 66
     7
176
     1
 43
1.0
176
     1
 76
     1
176
     1
 77
     6
176
     1
 78
     2
176
     1
 67
     7
176
     1
 79
     5
176
     1
170
     0
176
     1
171
     0
176
     1
290
     0
176
     1
 93
        1
176
     1
 44
-50.0
176
     1
173
     0
176
     1
  0
VISUALSTYLE
  5
39
102
{ACAD_REACTORS
330
2A
102
}
330
2A
100
AcDbVisualStyle
  2
Facepattern
 70
    15
177
     2
291
     1
 71
     2
176
     1
 72
     2
176
     1
 73
     0
176
     1
 90
        0
176
     1
 40
-0.6
176
     1
 41
-30.0
176
     1
 62
     5
 63
     7
421
 16777215
176
     1
 74
     1
176
     1
 91
        4
176
     1
 64
     7
176
     1
 65
   257
176
     1
 75
     1
176
     1
175
     1
176
     1
 42
1.0
176
     1
 92
        8
176
     1
 66
     7
176
     1
 43
1.0
176
     1
 76
     1
176
     1
 77
     6
176
     1
 78
     2
176
     1
 67
     7
176
     1
 79
     5
176
     1
170
     0
176
     1
171
     0
176
     1
290
     0
176
     1
 93
        1
176
     1
 44
0.0
176
     1
173
     0
176
     1
  0
VISUALSTYLE
  5
2B
102
{ACAD_REACTORS
330
2A
102
}
330
2A
100
AcDbVisualStyle
  2
Flat
 70
     0
177
     2
291
     1
 71
     2
176
     1
 72
     1
176
     1
 73
     1
176
     1
 90
        2
176
     1
 40
-0.6
176
     1
 41
30.0
176
     1
 62
     5
 63
     7
421
 16777215
176
     1
 74
     0
176
     1
 91
        4
176
     1
 64
     7
176
     1
 65
   257
176
     1
 75
     1
176
     1
175
     1
176
     1
 42
1.0
176
     1
 92
        8
176
     1
 66
     7
176
     1
 43
1.0
176
     1
 76
     1
176
     1
 77
     6
176
     1
 78
     2
176
     1
 67
     7
176
     1
 79
     5
176
     1
170
     0
176
     1
171
     0
176
     1
290
     0
176
     1
 93
       13
176
     1
 44
0.0
176
     1
173
     0
176
     1
  0
VISUALSTYLE
  5
2C
102
{ACAD_REACTORS
330
2A
102
}
330
2A
100
AcDbVisualStyle
  2
FlatWithEdges
 70
     1
177
     2
291
     1
 71
     2
176
     1
 72
     1
176
     1
 73
     1
176
     1
 90
        2
176
     1
 40
-0.6
176
     1
 41
30.0
176
     1
 62
     5
 63
     7
421
 16777215
176
     1
 74
     1
176
     1
 91
        4
176
     1
 64
     7
176
     1
 65
   257
176
     1
 75
     1
176
     1
175
     1
176
     1
 42
1.0
176
     1
 92
        0
176
     1
 66
   257
176
     1
 43
1.0
176
     1
 76
     1
176
     1
 77
     6
176
     1
 78
     2
176
     1
 67
     7
176
     1
 79
     5
176
     1
170
     0
176
     1
171
     0
176
     1
290
     0
176
     1
 93
       13
176
     1
 44
0.0
176
     1
173
     0
176
     1
  0
VISUALSTYLE
  5
2D
102
{ACAD_REACTORS
330
2A
102
}
330
2A
100
AcDbVisualStyle
  2
Gouraud
 70
     2
177
     2
291
     1
 71
     2
176
     1
 72
     2
176
     1
 73
     1
176
     1
 90
        2
176
     1
 40
-0.6
176
     1
 41
30.0
176
     1
 62
     5
 63
     7
421
 16777215
176
     1
 74
     0
176
     1
 91
        4
176
     1
 64
     7
176
     1
 65
   257
176
     1
 75
     1
176
     1
175
     1
176
     1
 42
1.0
176
     1
 92
        0
176
     1
 66
     7
176
     1
 43
1.0
176
     1
 76
     1
176
     1
 77
     6
176
     1
 78
     2
176
     1
 67
     7
176
     1
 79
     5
176
     1
170
     0
176
     1
171
     0
176
     1
290
     0
176
     1
 93
       13
176
     1
 44
0.0
176
     1
173
     0
176
     1
  0
VISUALSTYLE
  5
2E
102
{ACAD_REACTORS
330
2A
102
}
330
2A
100
AcDbVisualStyle
  2
GouraudWithEdges
 70
     3
177
     2
291
     1
 71
     2
176
     1
 72
     2
176
     1
 73
     1
176
     1
 90
        2
176
     1
 40
-0.6
176
     1
 41
30.0
176
     1
 62
     5
 63
     7
421
 16777215
176
     1
 74
     1
176
     1
 91
        4
176
     1
 64
     7
176
     1
 65
   257
176
     1
 75
     1
176
     1
175
     1
176
     1
 42
1.0
176
     1
 92
        0
176
     1
 66
   257
176
     1
 43
1.0
176
     1
 76
     1
176
     1
 77
     6
176
     1
 78
     2
176
     1
 67
     7
176
     1
 79
     5
176
     1
170
     0
176
     1
171
     0
176
     1
290
     0
176
     1
 93
       13
176
     1
 44
0.0
176
     1
173
     0
176
     1
  0
VISUALSTYLE
  5
38
102
{ACAD_REACTORS
330
2A
102
}
330
2A
100
AcDbVisualStyle
  2
Linepattern
 70
    14
177
     2
291
     1
 71
     2
176
     1
 72
     2
176
     1
 73
     0
176
     1
 90
        0
176
     1
 40
-0.6
176
     1
 41
-30.0
176
     1
 62
     5
 63
     7
421
 16777215
176
     1
 74
     1
176
     1
 91
        4
176
     1
 64
     7
176
     1
 65
   257
176
     1
 75
     7
176
     1
175
     7
176
     1
 42
1.0
176
     1
 92
        8
176
     1
 66
     7
176
     1
 43
1.0
176
     1
 76
     1
176
     1
 77
     6
176
     1
 78
     2
176
     1
 67
     7
176
     1
 79
     5
176
     1
170
     0
176
     1
171
     0
176
     1
290
     0
176
     1
 93
        1
176
     1
 44
0.0
176
     1
173
     0
176
     1
  0
VISUALSTYLE
  5
33
102
{ACAD_REACTORS
330
2A
102
}
330
2A
100
AcDbVisualStyle
  2
Realistic
 70
     8
177
     2
291
     0
 71
     2
176
     1
 72
     2
176
     1
 73
     0
176
     1
 90
        0
176
     1
 40
-0.6
176
     1
 41
-30.0
176
     1
 62
     5
 63
     7
421
 16777215
176
     1
 74
     1
176
     1
 91
        0
176
     1
 64
     7
176
     1
 65
   257
176
     1
 75
     1
176
     1
175
     1
176
     1
 42
1.0
176
     1
 92
        8
176
     1
 66
     8
424
  7895160
176
     1
 43
1.0
176
     1
 76
     1
176
     1
 77
     6
176
     1
 78
     2
176
     1
 67
     7
176
     1
 79
     5
176
     1
170
     0
176
     1
171
     0
176
     1
290
     0
176
     1
 93
       13
176
     1
 44
0.0
176
     1
173
     0
176
     1
  0
VISUALSTYLE
  5
37
102
{ACAD_REACTORS
330
2A
102
}
330
2A
100
AcDbVisualStyle
  2
Thicken
 70
    13
177
     2
291
     1
 71
     2
176
     1
 72
     2
176
     1
 73
     0
176
     1
 90
        0
176
     1
 40
-0.6
176
     1
 41
-30.0
176
     1
 62
     5
 63
     7
421
 16777215
176
     1
 74
     1
176
     1
 91
        4
176
     1
 64
     7
176
     1
 65
   257
176
     1
 75
     1
176
     1
175
     1
176
     1
 42
1.0
176
     1
 92
       12
176
     1
 66
     7
176
     1
 43
1.0
176
     1
 76
     1
176
     1
 77
     6
176
     1
 78
     2
176
     1
 67
     7
176
     1
 79
     5
176
     1
170
     0
176
     1
171
     0
176
     1
290
     0
176
     1
 93
        1
176
     1
 44
0.0
176
     1
173
     0
176
     1
  0
ENDSEC
  0
EOF
